  0
SECTION
  2
HEADER
  9
$ACADVER
  1
AC1009
  9
$INSBASE
 10
3810.1309204360240983
 20
-275.2742875593286271
 30
0.0
  9
$EXTMIN
 10
3804.4443965912741987
 20
-278.6516321477645874
 30
-0.0015258207003583
  9
$EXTMAX
 10
3810.2582073513199248
 20
-273.9672706739182786
 30
0.0000000349246037
  9
$LIMMIN
 10
0.0
 20
0.0
  9
$LIMMAX
 10
11.6929133858000007
 20
8.2677165353999982
  9
$ORTHOMODE
 70
     1
  9
$REGENMODE
 70
     1
  9
$FILLMODE
 70
     1
  9
$QTEXTMODE
 70
     0
  9
$MIRRTEXT
 70
     0
  9
$DRAGMODE
 70
     2
  9
$LTSCALE
 40
0.6431102362
  9
$OSMODE
 70
  4095
  9
$ATTMODE
 70
     1
  9
$TEXTSIZE
 40
0.2
  9
$TRACEWID
 40
0.05
  9
$TEXTSTYLE
  7
STANDARD
  9
$CLAYER
  8
0
  9
$CELTYPE
  6
BYLAYER
  9
$CECOLOR
 62
   256
  9
$DIMSCALE
 40
1.0
  9
$DIMASZ
 40
0.1875
  9
$DIMEXO
 40
0.0625
  9
$DIMDLI
 40
0.4443307087
  9
$DIMRND
 40
0.0
  9
$DIMDLE
 40
0.0
  9
$DIMEXE
 40
0.125
  9
$DIMTP
 40
0.01
  9
$DIMTM
 40
0.01
  9
$DIMTXT
 40
2.0
  9
$DIMCEN
 40
0.1052362205
  9
$DIMTSZ
 40
0.0
  9
$DIMTOL
 70
     1
  9
$DIMLIM
 70
     0
  9
$DIMTIH
 70
     1
  9
$DIMTOH
 70
     1
  9
$DIMSE1
 70
     0
  9
$DIMSE2
 70
     0
  9
$DIMTAD
 70
     0
  9
$DIMZIN
 70
     0
  9
$DIMBLK
  1

  9
$DIMASO
 70
     1
  9
$DIMSHO
 70
     1
  9
$DIMPOST
  1
\X
  9
$DIMAPOST
  1

  9
$DIMALT
 70
     1
  9
$DIMALTD
 70
     2
  9
$DIMALTF
 40
25.3999999999999986
  9
$DIMLFAC
 40
1.0
  9
$DIMTOFL
 70
     0
  9
$DIMTVP
 40
0.0
  9
$DIMTIX
 70
     0
  9
$DIMSOXD
 70
     0
  9
$DIMSAH
 70
     0
  9
$DIMBLK1
  1

  9
$DIMBLK2
  1

  9
$DIMSTYLE
  2
STANDARD
  9
$DIMCLRD
 70
     0
  9
$DIMCLRE
 70
     0
  9
$DIMCLRT
 70
     0
  9
$DIMTFAC
 40
1.0
  9
$DIMGAP
 40
0.09
  9
$LUNITS
 70
     2
  9
$LUPREC
 70
     4
  9
$SKETCHINC
 40
0.1
  9
$FILLETRAD
 40
0.0
  9
$AUNITS
 70
     0
  9
$AUPREC
 70
     0
  9
$MENU
  1
.
  9
$ELEVATION
 40
0.0
  9
$PELEVATION
 40
0.0
  9
$THICKNESS
 40
0.0
  9
$LIMCHECK
 70
     0
  9
$BLIPMODE
 70
     0
  9
$CHAMFERA
 40
0.0
  9
$CHAMFERB
 40
0.0
  9
$SKPOLY
 70
     0
  9
$TDCREATE
 40
2458060.468368056230247
  9
$TDUPDATE
 40
2459571.8968634260818362
  9
$TDINDWG
 40
0.4115811343
  9
$TDUSRTIMER
 40
0.4115811343
  9
$USRTIMER
 70
     1
  9
$ANGBASE
 50
0.0
  9
$ANGDIR
 70
     0
  9
$PDMODE
 70
     0
  9
$PDSIZE
 40
0.3125
  9
$PLINEWID
 40
0.0
  9
$COORDS
 70
     1
  9
$SPLFRAME
 70
     0
  9
$SPLINETYPE
 70
     6
  9
$SPLINESEGS
 70
     8
  9
$ATTDIA
 70
     1
  9
$ATTREQ
 70
     1
  9
$HANDLING
 70
     1
  9
$HANDSEED
  5
C03F
  9
$SURFTAB1
 70
     6
  9
$SURFTAB2
 70
     6
  9
$SURFTYPE
 70
     6
  9
$SURFU
 70
     6
  9
$SURFV
 70
     6
  9
$UCSNAME
  2

  9
$UCSORG
 10
0.0
 20
0.0
 30
0.0
  9
$UCSXDIR
 10
1.0
 20
0.0
 30
0.0
  9
$UCSYDIR
 10
0.0
 20
1.0
 30
0.0
  9
$PUCSNAME
  2

  9
$PUCSORG
 10
0.0
 20
0.0
 30
0.0
  9
$PUCSXDIR
 10
1.0
 20
0.0
 30
0.0
  9
$PUCSYDIR
 10
0.0
 20
1.0
 30
0.0
  9
$USERI1
 70
     0
  9
$USERI2
 70
     0
  9
$USERI3
 70
     0
  9
$USERI4
 70
     0
  9
$USERI5
 70
     0
  9
$USERR1
 40
0.0
  9
$USERR2
 40
0.0
  9
$USERR3
 40
0.0
  9
$USERR4
 40
0.0
  9
$USERR5
 40
0.0
  9
$WORLDVIEW
 70
     1
  9
$SHADEDGE
 70
     3
  9
$SHADEDIF
 70
    70
  9
$TILEMODE
 70
     1
  9
$MAXACTVP
 70
    64
  9
$PLIMCHECK
 70
     0
  9
$PEXTMIN
 10
1.0000000000000000E+20
 20
1.0000000000000000E+20
 30
1.0000000000000000E+20
  9
$PEXTMAX
 10
-1.0000000000000000E+20
 20
-1.0000000000000000E+20
 30
-1.0000000000000000E+20
  9
$PLIMMIN
 10
0.0
 20
0.0
  9
$PLIMMAX
 10
12.0
 20
9.0
  9
$UNITMODE
 70
     0
  9
$VISRETAIN
 70
     1
  9
$PLINEGEN
 70
     0
  9
$PSLTSCALE
 70
     1
  0
ENDSEC
  0
SECTION
  2
TABLES
  0
TABLE
  2
VPORT
 70
     1
  0
VPORT
  2
*ACTIVE
 70
     0
 10
0.0
 20
0.0
 11
1.0
 21
1.0
 12
-0.7411052552661204
 22
0.0052458547835386
 13
0.0
 23
0.0
 14
1.0
 24
1.0
 15
0.0
 25
0.0
 16
0.0
 26
0.0
 36
29.88105275511748
 17
3808.0924072265620453
 27
-276.314697265625
 37
0.0
 40
4.7214898342731528
 41
1.67063492063492
 42
50.0
 43
0.0
 44
0.0
 50
0.0
 51
0.0
 71
     0
 72
 10000
 73
     1
 74
     1
 75
     0
 76
     0
 77
     0
 78
     0
  0
ENDTAB
  0
TABLE
  2
LTYPE
 70
     2
  0
LTYPE
  2
CONTINUOUS
 70
     0
  3
Solid line
 72
    65
 73
     0
 40
0.0
  0
LTYPE
  2
PHANTOM2
 70
     0
  3
___ _ _ ___ _ _ ___ _ _ ___ _ _
 72
    65
 73
     6
 40
1.25
 49
0.625
 49
-0.125
 49
0.125
 49
-0.125
 49
0.125
 49
-0.125
  0
ENDTAB
  0
TABLE
  2
LAYER
 70
     2
  0
LAYER
  2
0
 70
     0
 62
   255
  6
CONTINUOUS
  0
LAYER
  2
DEFPOINTS
 70
     0
 62
     7
  6
CONTINUOUS
  0
ENDTAB
  0
TABLE
  2
STYLE
 70
     1
  0
STYLE
  2
STANDARD
 70
     0
 40
0.0
 41
0.8
 50
0.0
 71
     0
 42
0.2
  3
txt
  4

  0
ENDTAB
  0
TABLE
  2
VIEW
 70
     0
  0
ENDTAB
  0
TABLE
  2
UCS
 70
     0
  0
ENDTAB
  0
TABLE
  2
APPID
 70
    11
  0
APPID
  2
ACAD
 70
     0
  0
APPID
  2
ACAD_MLEADERVER
 70
     0
  0
APPID
  2
ACAD_EXEMPT_FROM_CAD_STANDARDS
 70
     0
  0
APPID
  2
ACAD_NAV_VCDISPLAY
 70
     0
  0
APPID
  2
ACAECLAYERSTANDARD
 70
     0
  0
APPID
  2
ACCMTRANSPARENCY
 70
     0
  0
APPID
  2
ACAD_DSTYLE_DIMJAG
 70
     0
  0
APPID
  2
ACAD_DSTYLE_DIMTALN
 70
     0
  0
APPID
  2
ACDBATTR
 70
     0
  0
APPID
  2
ACADANNOTATIVE
 70
     0
  0
APPID
  2
ACAD_PSEXT
 70
     0
  0
ENDTAB
  0
TABLE
  2
DIMSTYLE
 70
     1
  0
DIMSTYLE
  2
STANDARD
 70
     0
  3

  4

  5

  6

  7

 40
1.0
 41
0.1875
 42
0.0625
 43
0.38
 44
0.125
 45
0.0
 46
0.0
 47
0.01
 48
0.01
140
0.15625
141
0.09
142
0.0
143
25.3999999999999986
144
1.0
145
0.0
146
1.0
147
0.09
 71
     1
 72
     0
 73
     1
 74
     1
 75
     0
 76
     0
 77
     0
 78
     4
170
     0
171
     2
172
     0
173
     0
174
     0
175
     0
176
     0
177
     0
178
     0
  0
ENDTAB
  0
ENDSEC
  0
SECTION
  2
BLOCKS
  0
BLOCK
  8
0
  2
$MODEL_SPACE
 70
     0
 10
0.0
 20
0.0
 30
0.0
  3
$MODEL_SPACE
  1

  0
ENDBLK
  5
21
  8
0
  0
BLOCK
 67
     1
  8
0
  2
$PAPER_SPACE
 70
     0
 10
0.0
 20
0.0
 30
0.0
  3
$PAPER_SPACE
  1

  0
ENDBLK
  5
1D
 67
     1
  8
0
  0
BLOCK
  8
0
  2
_FILLED
 70
     0
 10
0.0
 20
0.0
 30
0.0
  3
_FILLED
  1

  0
SOLID
  5
B039
  8
0
  6
BYBLOCK
 62
     0
 10
0.0
 20
0.0
 30
0.0
 11
-1.0
 21
0.1666666667
 31
0.0
 12
-1.0
 22
-0.1666666667
 32
0.0
 13
-1.0
 23
-0.1666666667
 33
0.0
  0
ENDBLK
  5
B03A
  8
0
  6
BYBLOCK
 62
     0
  0
ENDSEC
  0
SECTION
  2
ENTITIES
  0
ATTDEF
  5
9DCC
  8
DEFPOINTS
 10
3810.1312555095601056
 20
-275.2712237180405168
 30
0.0
 40
0.001
  1
K-72570
  3

  2
MODELNUMBER
 70
     0
1001
ACDBATTR
1070
     0
1070
     1
  0
ATTDEF
  5
9DCD
  8
DEFPOINTS
 10
3810.1312555095601056
 20
-275.272890384707182
 30
0.0
 40
0.001
  1
ARTIFACTS
  3

  2
TRADENAME
 70
     0
1001
ACDBATTR
1070
     0
1070
     1
  0
ATTDEF
  5
9DCE
  8
DEFPOINTS
 10
3810.1312555095601056
 20
-275.2745570513737903
 30
0.0
 40
0.001
  1
TOWEL BAR
  3

  2
PRODUCT
 70
     0
1001
ACDBATTR
1070
     0
1070
     1
  0
CIRCLE
  5
BB76
  8
0
 10
3805.1648249104241586
 20
-275.2742875593286271
 30
0.0
 40
0.1332363282371586
  0
CIRCLE
  5
BB77
  8
0
 10
3805.1648249104241586
 20
-275.2742875593286271
 30
0.0
 40
0.4822474108999995
  0
CIRCLE
  5
BB78
  8
0
 10
3805.164784804824194
 20
-275.2742876005286234
 30
0.0
 40
0.3373710677838124
  0
LINE
  5
BB79
  8
0
 10
3805.5419788074859753
 20
-275.5748162655286251
 30
0.0
 11
3807.2419313832238004
 21
-275.5748162655286251
 31
0.0
  0
LINE
  5
BB7A
  8
0
 10
3805.5418333859238373
 20
-274.9737588530285848
 30
0.0
 11
3807.2419313832238004
 21
-274.9737588530285848
 31
0.0
  0
LINE
  5
BB7B
  8
0
 10
3807.2419313832238004
 20
-274.9503545515286191
 30
0.0
 11
3807.2419313832238004
 21
-275.5982581527287039
 31
0.0
  0
ARC
  5
BB7C
  8
0
 10
3807.2770559537830195
 20
-275.5812717270891881
 30
0.0
 40
0.0390163313621762
 50
205.8086530383984041
 51
304.5846471240452047
  0
ARC
  5
BB7D
  8
0
 10
3807.3165988524237946
 20
-275.6378418586285761
 30
0.0
 40
0.0300059676999846
 50
60.4560669099733303
 51
125.4338177453171994
  0
ARC
  5
BB7E
  8
0
 10
3807.337312069750169
 20
-275.6011656662387281
 30
0.0
 40
0.0121151767847486
 50
240.7618240585474041
 51
292.373248420630091
  0
ARC
  5
BB7F
  8
0
 10
3807.7583652122430067
 20
-277.3152569520768793
 30
0.0
 40
1.753069164201345
 50
103.3045650237156963
 51
103.7419863118515053
  0
ARC
  5
BB80
  8
0
 10
3807.6219680489380153
 20
-276.7754744537949136
 30
0.0
 40
1.1964157493476371
 50
76.2609403226427531
 51
102.8966547988261055
  0
ARC
  5
BB81
  8
0
 10
3807.2637819115761886
 20
-278.2088615875273945
 30
0.0
 40
2.6738698992285732
 50
75.7721566908707587
 51
76.1000696864322208
  0
ARC
  5
BB82
  8
0
 10
3807.9238837379562028
 20
-275.6057307568012789
 30
0.0
 40
0.0116515361104049
 50
255.4752502789239088
 51
302.2211705095016896
  0
ARC
  5
BB83
  8
0
 10
3807.6354428296681363
 20
-275.1448238772533728
 30
0.0
 40
0.5553731986925254
 50
302.0426391630520015
 51
302.651744021768593
  0
ARC
  5
BB84
  8
0
 10
3807.9511797566287896
 20
-275.6376595289157763
 30
0.0
 40
0.0299274548065498
 50
54.5827608538626023
 51
122.5355211085074956
  0
ARC
  5
BB85
  8
0
 10
3807.9907997122231791
 20
-275.5817050869400759
 30
0.0
 40
0.0386338706691888
 50
234.7883949100196901
 51
334.6301364917778756
  0
LINE
  5
BB86
  8
0
 10
3808.0257077625237798
 20
-275.5982581527287039
 30
0.0
 11
3808.0257077625237798
 21
-274.9503546526286186
 31
0.0
  0
ARC
  5
BB87
  8
0
 10
3807.9909394849260025
 20
-274.9666715102652006
 30
0.0
 40
0.0384066787194578
 50
25.140807027414489
 51
125.5519189193992986
  0
ARC
  5
BB88
  8
0
 10
3807.9513017026038142
 20
-274.9104980024466727
 30
0.0
 40
0.0303452836631509
 50
237.6703879442229947
 51
304.7726910077738012
  0
ARC
  5
BB89
  8
0
 10
3807.6338194726781694
 20
-275.4063291213511206
 30
0.0
 40
0.5584195148449748
 50
57.3520279312093493
 51
122.6253983043495026
  0
ARC
  5
BB8A
  8
0
 10
3807.3165985796072164
 20
-274.9107327570403072
 30
0.0
 40
0.0300062394092901
 50
234.5670001318059121
 51
302.5677702895380889
  0
ARC
  5
BB8B
  8
0
 10
3807.2770559258178764
 20
-274.9673033341533142
 30
0.0
 40
0.0390162811897528
 50
55.4153972939449702
 51
154.1914049863364085
  0
LINE
  5
BB8C
  8
0
 10
3807.2992025243238459
 20
-274.9351815509285757
 30
0.0
 11
3807.2992025243238459
 21
-275.6133934257715055
 31
0.0
  0
LINE
  5
BB8D
  8
0
 10
3807.9686082890239049
 20
-274.9354242598286078
 30
0.0
 11
3807.9686082890239049
 21
-275.6133297086662992
 31
0.0
  0
LINE
  5
BB8E
  8
0
 10
3807.9061172864248874
 20
-275.6132912254286111
 30
0.0
 11
3807.9061461276141927
 21
-278.1983359130596227
 31
0.0
  0
LINE
  5
BB8F
  8
0
 10
3807.354936184025064
 20
-275.6092392166286231
 30
0.0
 11
3807.354936184025064
 21
-278.2023238682231749
 31
0.0
  0
ARC
  5
BB90
  8
0
 10
3807.6305267518241635
 20
-278.1983389881286257
 30
0.0
 40
0.3398119587999999
 50
144.1946340491298884
 51
35.7977017195406404
  0
ARC
  5
BB91
  8
0
 10
3807.6305267518241635
 20
-278.1983389881286257
 30
0.0
 40
0.2756193758241423
 50
179.1715939216192055
 51
0.0006392456030641
  0
LINE
  5
BB92
  8
0
 10
3810.1309204360240983
 20
-273.9868244399247033
 30
0.0
 11
3810.1309204360240983
 21
-276.5617506926286069
 31
0.0
  0
ARC
  5
BB93
  8
0
 10
3810.1248591937642232
 20
-276.2633152262162071
 30
0.0
 40
0.298435466358585
 50
200.0863794742878099
 51
270.0
  0
ARC
  5
BB94
  8
0
 10
3811.3419556681938047
 20
-275.8185461247020953
 30
0.0
 40
1.5942531106174831
 50
196.2976227287176982
 51
200.0763578887068945
  0
ARC
  5
BB95
  8
0
 10
3809.7743612662238775
 20
-276.278224567128575
 30
0.0
 40
0.0393700786999958
 50
18.1869903087092517
 51
87.6514062480571994
  0
ARC
  5
BB96
  8
0
 10
3809.7236650453769471
 20
-276.1994484182254155
 30
0.0
 40
0.0394391934662105
 50
189.037037808487014
 51
269.9066346153871905
  0
ARC
  5
BB97
  8
0
 10
3804.2456442749639791
 20
-277.0029201224613757
 30
0.0
 40
5.4971943053411554
 50
8.3392143135334713
 51
9.7793979370732504
  0
LINE
  5
BB98
  8
0
 10
3808.0257077625237798
 20
-275.5748162655286251
 30
0.0
 11
3808.5764943374238101
 21
-275.5748162655286251
 31
0.0
  0
LINE
  5
BB99
  8
0
 10
3808.0257077625237798
 20
-274.9737588530285848
 30
0.0
 11
3808.5764943374238101
 21
-274.9737588530285848
 31
0.0
  0
LINE
  5
BB9A
  8
0
 10
3808.5764943374238101
 20
-274.9334300508285764
 30
0.0
 11
3808.5764946653098377
 21
-275.6151455414279212
 31
0.0
  0
ARC
  5
BB9B
  8
0
 10
3808.6064924257188977
 20
-275.6151455269999246
 30
0.0
 40
0.0299977604107617
 50
180.0000275575584965
 51
270.0042375387703828
  0
LINE
  5
BB9C
  8
0
 10
3808.6064924257188977
 20
-275.6451432874106899
 30
0.0
 11
3808.7006054754237994
 21
-275.645143287328608
 31
0.0
  0
LINE
  5
BB9D
  8
0
 10
3808.7006054754237994
 20
-275.6553002394285841
 30
0.0
 11
3808.7006054754237994
 21
-274.8932782890286148
 31
0.0
  0
ARC
  5
BB9E
  8
0
 10
3808.7199318631319329
 20
-274.8932782890286148
 30
0.0
 40
0.0193263877079772
 50
155.6115287172077899
 51
179.9999999999934914
  0
ARC
  5
BB9F
  8
0
 10
3821.4268698678260989
 20
-281.0436168907373258
 30
0.0
 40
14.1364353862772507
 50
153.9971118021184111
 51
154.1743254111916031
  0
ARC
  5
BBA0
  8
0
 10
3808.7357445519669454
 20
-274.8533993873854797
 30
0.0
 40
0.0161198392334617
 50
89.763627155518094
 51
152.5599084960904861
  0
LINE
  5
BBA1
  8
0
 10
3808.7358110539239533
 20
-274.8372796853286104
 30
0.0
 11
3808.8622552218239434
 21
-274.8372796853286104
 31
0.0
  0
ARC
  5
BBA2
  8
0
 10
3808.8622346824740816
 20
-274.8535432014857065
 30
0.0
 40
0.0162635276087064
 50
27.7355537685876996
 51
89.9320070405539553
  0
ARC
  5
BBA3
  8
0
 10
3809.3112941425461031
 20
-274.6294069261227833
 30
0.0
 40
0.4856281290134012
 50
206.4843340166333121
 51
208.8665892147010084
  0
ARC
  5
BBA4
  8
0
 10
3808.9149883222548851
 20
-274.8471222044394153
 30
0.0
 40
0.0334645674891974
 50
210.0000010685041048
 51
269.9999994331450921
  0
LINE
  5
BBA5
  8
0
 10
3808.9149883215500267
 20
-274.8805867719286198
 30
0.0
 11
3808.9482432706240616
 21
-274.8805867719286198
 31
0.0
  0
ARC
  5
BBA6
  8
0
 10
3808.9482432706240616
 20
-274.8333426774286181
 30
0.0
 40
0.0472440945000017
 50
270.0
 51
359.9999999999968168
  0
LINE
  5
BBA7
  8
0
 10
3808.9954873651249727
 20
-274.826256063228584
 30
0.0
 11
3808.9954873651249727
 21
-275.7223190553286258
 31
0.0
  0
ARC
  5
BBA8
  8
0
 10
3809.0553298848240047
 20
-275.7223190553286258
 30
0.0
 40
0.0598425197000019
 50
179.9999999999967031
 51
250.8732505471967897
  0
ARC
  5
BBA9
  8
0
 10
3809.0553298848240047
 20
-275.7223190553286258
 30
0.0
 40
0.0598425196999969
 50
250.8732505471967897
 51
336.0903578994447116
  0
ARC
  5
BBAA
  8
0
 10
3809.1460286294418438
 20
-275.7625294686754955
 30
0.0
 40
0.0393700783738893
 50
109.6997178525686962
 51
156.0903578994476106
  0
ARC
  5
BBAB
  8
0
 10
3809.2521989085321366
 20
-276.0590561595549843
 30
0.0
 40
0.3543307212583636
 50
98.8231960726239436
 51
109.6997178525686962
  0
ARC
  5
BBAC
  8
0
 10
3809.2836127031678188
 20
-275.9220937412807189
 30
0.0
 40
0.2297803647988913
 50
105.0357276093980943
 51
111.9155515837579031
  0
ARC
  5
BBAD
  8
0
 10
3809.2753533297332069
 20
-275.8848730073005981
 30
0.0
 40
0.1916986082136667
 50
77.6623705222882279
 51
105.5376343714492009
  0
ARC
  5
BBAE
  8
0
 10
3809.2658781464419917
 20
-275.9207143898997856
 30
0.0
 40
0.2287424142486631
 50
61.0878663393299206
 51
77.2620831695103618
  0
ARC
  5
BBAF
  8
0
 10
3809.2062279272990963
 20
-276.0328675497332256
 30
0.0
 40
0.3557616657930866
 50
54.9678367466424405
 51
61.4110803000114984
  0
ARC
  5
BBB0
  8
0
 10
3809.2176986954250424
 20
-276.1512367032286193
 30
0.0
 40
0.4527559054999819
 50
32.5348062853263116
 51
64.8034669245094648
  0
ARC
  5
BBB1
  8
0
 10
3809.2176986954250424
 20
-276.1512367032286193
 30
0.0
 40
0.4527559054999316
 50
10.4401835584529206
 51
32.5348062853290472
  0
LINE
  5
BBB2
  8
0
 10
3808.7006054754237994
 20
-274.9034318312287155
 30
0.0
 11
3808.6064944640238537
 21
-274.9034318544291864
 31
0.0
  0
ARC
  5
BBB3
  8
0
 10
3808.6064944714198646
 20
-274.9334316606123139
 30
0.0
 40
0.0299998061831408
 50
90.0000141247324024
 51
179.9960207849655092
  0
ARC
  5
BBB4
  8
0
 10
3808.7177792386719375
 20
-275.6558376295743074
 30
0.0
 40
0.0171822804866939
 50
178.1958835098675138
 51
205.9550950858923954
  0
ARC
  5
BBB5
  8
0
 10
-1398.3485085810750661
 20
-2810.2619116548980855
 30
0.0
 40
5791.1629458311381313
 50
25.9546632202438801
 51
25.9550950858923599
  0
ARC
  5
BBB6
  8
0
 10
3808.7352470771588742
 20
-275.6958824417019969
 30
0.0
 40
0.015362154326475
 50
205.9546632202379897
 51
266.0309074527630173
  0
LINE
  5
BBB7
  8
0
 10
3808.7341837343251427
 20
-275.7112077504286276
 30
0.0
 11
3808.8622539804341613
 21
-275.711295433328587
 31
0.0
  0
ARC
  5
BBB8
  8
0
 10
3808.8621721658842034
 20
-275.6949285683273843
 30
0.0
 40
0.0163670694869019
 50
270.2864072860716078
 51
332.0480060550098074
  0
ARC
  5
BBB9
  8
0
 10
3809.0569537103851872
 20
-275.7857755706850753
 30
0.0
 40
0.1985820363526384
 50
149.410571932070809
 51
155.2385264189055079
  0
ARC
  5
BBBA
  8
0
 10
3808.9153388455488312
 20
-275.7020600383535793
 30
0.0
 40
0.0340734946402083
 50
90.5894281979170302
 51
149.4105719320735943
  0
LINE
  5
BBBB
  8
0
 10
3808.9149883219238291
 20
-275.6679883467285777
 30
0.0
 11
3808.9482432706240616
 21
-275.6679883467285777
 31
0.0
  0
ARC
  5
BBBC
  8
0
 10
3808.9482432706240616
 20
-275.7152324412285793
 30
0.0
 40
0.0472440945000008
 50
0.0
 51
90.0
  0
ARC
  5
BBBD
  8
0
 10
3809.0553298848240047
 20
-274.826256063228584
 30
0.0
 40
0.0598425196999841
 50
120.1319663727798996
 51
180.0000000000098055
  0
ARC
  5
BBBE
  8
0
 10
3809.0553298848240047
 20
-274.826256063228584
 30
0.0
 40
0.0598425197000146
 50
57.8010703399053227
 51
120.1319663727798996
  0
ARC
  5
BBBF
  8
0
 10
3809.0553746599371152
 20
-274.8261849586107246
 30
0.0
 40
0.0597584918629654
 50
23.8337284888703209
 51
57.8010703399053227
  0
ARC
  5
BBC0
  8
0
 10
3809.1458413464702062
 20
-274.7862207642015733
 30
0.0
 40
0.0391422574114932
 50
203.8337284888702925
 51
250.4719729436027933
  0
ARC
  5
BBC1
  8
0
 10
3809.252176637129196
 20
-274.4864053345430079
 30
0.0
 40
0.3572562085371789
 50
250.4719729436027933
 51
290.3475634229408229
  0
ARC
  5
BBC2
  8
0
 10
3809.2197744404870718
 20
-274.3990337887627788
 30
0.0
 40
0.4504425238376209
 50
290.3475634229408229
 51
351.171691061202921
  0
ARC
  5
BBC3
  8
0
 10
3830.5707905566227964
 20
-277.7151485602835805
 30
0.0
 40
21.1565588037283412
 50
170.8283089195178945
 51
171.1716910612028073
  0
ARC
  5
BBC4
  8
0
 10
3809.7237838717351224
 20
-274.3492656898189921
 30
0.0
 40
0.0395785539965254
 50
90.2650561725725282
 51
170.7912714035385022
  0
ARC
  5
BBC5
  8
0
 10
3809.7739794909889497
 20
-274.2697943579991033
 30
0.0
 40
0.0398950258897806
 50
270.5479728167662188
 51
343.0696700175615774
  0
ARC
  5
BBC6
  8
0
 10
3811.8283266020462179
 20
-274.8895884717612716
 30
0.0
 40
2.105911892418753
 50
160.3887147374157109
 51
163.2141856826821993
  0
ARC
  5
BBC7
  8
0
 10
3810.1249962258480082
 20
-274.2853663986946913
 30
0.0
 40
0.2986007463317732
 50
91.1369517516161238
 51
159.9034573783227984
  0
LINE
  5
BBC8
  8
0
 10
3809.8121445391248017
 20
-274.2814152464287076
 30
0.0
 11
3809.8121445391248017
 21
-276.2672340898741936
 31
0.0
  0
LINE
  5
BBC9
  8
0
 10
3809.6847154102238164
 20
-274.3429318717286947
 30
0.0
 11
3809.6847154102238164
 21
-276.2056432469286165
 31
0.0
  0
LINE
  5
BBCA
  8
0
 10
3809.110037064277094
 20
-274.8020021629171197
 30
0.0
 11
3809.110037064277094
 21
-275.7465729556402039
 31
0.0
  0
LINE
  5
BBCB
  8
0
 10
3808.8860071569952197
 20
-274.8638544887244848
 30
0.0
 11
3808.8860071569952197
 21
-275.6847206299485151
 31
0.0
  0
ARC
  5
BBCC
  8
0
 10
3809.1301927724312009
 20
-274.9713176696158143
 30
0.0
 40
0.4094548656932015
 50
162.456277170100492
 51
197.546561629970995
  0
ARC
  5
BBCD
  8
0
 10
3808.7301894326687943
 20
-275.0972511849789157
 30
0.0
 40
0.0099173542871899
 50
345.3892826116093033
 51
14.5456644099684098
  0
ARC
  5
BBCE
  8
0
 10
3809.5177161244810122
 20
-275.2743176416485085
 30
0.0
 40
0.7972753754486526
 50
167.3525311211529072
 51
192.6479235221123076
  0
ARC
  5
BBCF
  8
0
 10
3808.7299781286210418
 20
-275.4513839525420735
 30
0.0
 40
0.0101217481532008
 50
345.7288308412715878
 51
14.2724045200666794
  0
ARC
  5
BBD0
  8
0
 10
3809.1237564206921888
 20
-275.5773111752940281
 30
0.0
 40
0.4033207163922864
 50
162.1792824376856004
 51
197.8219291107106983
  0
ARC
  5
BBD1
  8
0
 10
3808.7356589576570514
 20
-275.7023232559126882
 30
0.0
 40
0.0044201055514759
 50
357.6423162745502964
 51
20.8312650091750307
  0
ARC
  5
BBD2
  8
0
 10
3808.7397206889559129
 20
-275.7024670180231283
 30
0.0
 40
0.0003566702387797
 50
281.5539087570126071
 51
353.8725711929196791
  0
ARC
  5
BBD3
  8
0
 10
3808.753788489001181
 20
-275.6955541075694782
 30
0.0
 40
0.0157683208692722
 50
207.4236401755458985
 51
263.4640376616156914
  0
ARC
  5
BBD4
  8
0
 10
3808.7353749920948758
 20
-274.8462348884564221
 30
0.0
 40
0.0047098041439048
 50
339.3705928535459861
 51
1.0297737610859421
  0
ARC
  5
BBD5
  8
0
 10
3808.7397625711450928
 20
-274.8461466297690095
 30
0.0
 40
0.0003214847340937
 50
359.3558541972703892
 51
86.1935180244221471
  0
ARC
  5
BBD6
  8
0
 10
3808.7540896595369304
 20
-274.853379993940905
 30
0.0
 40
0.0161777438707671
 50
95.6081731149903931
 51
152.1637356270433941
  0
ARC
  5
BBD7
  8
0
 10
3808.4722868319768168
 20
-274.9713186576581165
 30
0.0
 40
0.4033540832230896
 50
342.1789457962404981
 51
17.8192160926325407
  0
ARC
  5
BBD8
  8
0
 10
3808.8659162616950198
 20
-275.0972552819941939
 30
0.0
 40
0.0099467272763331
 50
165.4904902454532021
 51
194.5420536517189021
  0
ARC
  5
BBD9
  8
0
 10
3808.0782386221771958
 20
-275.2743241720534115
 30
0.0
 40
0.7973934365752756
 50
347.3547363482568926
 51
12.6460484218793994
  0
ARC
  5
BBDA
  8
0
 10
3808.8657133990691364
 20
-275.4513551998221033
 30
0.0
 40
0.0097412508041135
 50
165.3097059766427037
 51
194.9745438538245139
  0
ARC
  5
BBDB
  8
0
 10
3808.4721265464831959
 20
-275.5772791826416892
 30
0.0
 40
0.4035105768000496
 50
342.18510147869722
 51
17.8082999292991886
  0
ARC
  5
BBDC
  8
0
 10
3808.8613443530139193
 20
-275.7025544333483253
 30
0.0
 40
0.0053746110300715
 50
160.1605643647089039
 51
178.0088283159842888
  0
ARC
  5
BBDD
  8
0
 10
3808.856364788243809
 20
-275.7024300102008283
 30
0.0
 40
0.0003967264595669
 50
170.9621637661157934
 51
258.0020865702475135
  0
ARC
  5
BBDE
  8
0
 10
3808.8422545339358294
 20
-275.6955204033516793
 30
0.0
 40
0.0158124848253932
 50
274.5705739649774841
 51
332.5152199268334812
  0
ARC
  5
BBDF
  8
0
 10
3808.8614401985419136
 20
-274.8459802396521923
 30
0.0
 40
0.0054805826604539
 50
185.0917706944522934
 51
200.3346003825515993
  0
ARC
  5
BBE0
  8
0
 10
3808.8564870696068283
 20
-274.8463134260115908
 30
0.0
 40
0.0005285237384705
 50
111.6214502933305965
 51
196.8523197855272997
  0
ARC
  5
BBE1
  8
0
 10
3808.8418647555499774
 20
-274.8534872135805927
 30
0.0
 40
0.0163373444999148
 50
27.98095601379638
 51
82.7723116581899347
  0
LINE
  5
BBE2
  8
0
 10
3808.7401067853579661
 20
-275.0972568150043003
 30
0.0
 11
3808.8559695348199057
 21
-275.0972581068555201
 31
0.0
  0
LINE
  5
BBE3
  8
0
 10
3808.7400998767739111
 20
-275.4513839525420735
 30
0.0
 11
3808.8559721482652094
 21
-275.4513551998221033
 31
0.0
  0
LINE
  5
BBE5
  8
0
 10
3810.1309204360240983
 20
-276.5617506926286069
 30
0.0
 11
3810.1248591937642232
 21
-276.5617506926286069
 31
0.0
  0
LINE
  5
BBE6
  8
0
 10
3809.7759746211718266
 20
-276.2388875593285888
 30
0.0
 11
3809.7236007779260945
 21
-276.2388875593285888
 31
0.0
  0
LINE
  5
BBE7
  8
0
 10
3809.7743610384009116
 20
-274.3096875593286086
 30
0.0
 11
3809.7236007779238207
 21
-274.3096875593286086
 31
0.0
  0
ARC
  5
BBE8
  8
0
 10
3807.6305267518241635
 20
-278.1983389881286257
 30
0.0
 40
0.4445380111886524
 50
128.3123564502153044
 51
51.6835505290392803
  0
LINE
  5
BBE9
  8
0
 10
3810.1190713154160221
 20
-273.9868244399247033
 30
0.0
 11
3810.1309204360240983
 21
-273.9868244399247033
 31
0.0
  0
ENDSEC
  0
EOF
