  0
SECTION
  2
HEADER
  9
$ACADVER
  1
AC1009
  9
$INSBASE
 10
26.6809083013999988
 20
8.0727465282000015
 30
0.0
  9
$EXTMIN
 10
22.578314077180579
 20
5.4883728487048913
 30
-0.0015258207003583
  9
$EXTMAX
 10
26.6989795867944402
 20
9.5752106022266759
 30
0.0000000349246037
  9
$LIMMIN
 10
0.0
 20
0.0
  9
$LIMMAX
 10
22.0
 20
17.0
  9
$ORTHOMODE
 70
     0
  9
$REGENMODE
 70
     1
  9
$FILLMODE
 70
     1
  9
$QTEXTMODE
 70
     0
  9
$MIRRTEXT
 70
     0
  9
$DRAGMODE
 70
     2
  9
$LTSCALE
 40
1.2099999999999991
  9
$OSMODE
 70
  4095
  9
$ATTMODE
 70
     1
  9
$TEXTSIZE
 40
0.2
  9
$TRACEWID
 40
0.05
  9
$TEXTSTYLE
  7
STANDARD
  9
$CLAYER
  8
0
  9
$CELTYPE
  6
BYLAYER
  9
$CECOLOR
 62
   256
  9
$DIMSCALE
 40
1.0
  9
$DIMASZ
 40
0.1875
  9
$DIMEXO
 40
0.0625
  9
$DIMDLI
 40
0.8359999999999999
  9
$DIMRND
 40
0.0
  9
$DIMDLE
 40
0.0
  9
$DIMEXE
 40
0.125
  9
$DIMTP
 40
0.01
  9
$DIMTM
 40
0.01
  9
$DIMTXT
 40
0.15625
  9
$DIMCEN
 40
0.198
  9
$DIMTSZ
 40
0.0
  9
$DIMTOL
 70
     1
  9
$DIMLIM
 70
     0
  9
$DIMTIH
 70
     1
  9
$DIMTOH
 70
     1
  9
$DIMSE1
 70
     0
  9
$DIMSE2
 70
     0
  9
$DIMTAD
 70
     0
  9
$DIMZIN
 70
     0
  9
$DIMBLK
  1

  9
$DIMASO
 70
     1
  9
$DIMSHO
 70
     1
  9
$DIMPOST
  1

  9
$DIMAPOST
  1

  9
$DIMALT
 70
     0
  9
$DIMALTD
 70
     2
  9
$DIMALTF
 40
25.3999999999999986
  9
$DIMLFAC
 40
1.0
  9
$DIMTOFL
 70
     0
  9
$DIMTVP
 40
0.0
  9
$DIMTIX
 70
     0
  9
$DIMSOXD
 70
     0
  9
$DIMSAH
 70
     0
  9
$DIMBLK1
  1

  9
$DIMBLK2
  1

  9
$DIMSTYLE
  2
STANDARD
  9
$DIMCLRD
 70
     0
  9
$DIMCLRE
 70
     0
  9
$DIMCLRT
 70
     0
  9
$DIMTFAC
 40
1.0
  9
$DIMGAP
 40
0.09
  9
$LUNITS
 70
     2
  9
$LUPREC
 70
     4
  9
$SKETCHINC
 40
0.1
  9
$FILLETRAD
 40
0.0
  9
$AUNITS
 70
     0
  9
$AUPREC
 70
     0
  9
$MENU
  1
.
  9
$ELEVATION
 40
0.0
  9
$PELEVATION
 40
0.0
  9
$THICKNESS
 40
0.0
  9
$LIMCHECK
 70
     0
  9
$BLIPMODE
 70
     0
  9
$CHAMFERA
 40
0.0
  9
$CHAMFERB
 40
0.0
  9
$SKPOLY
 70
     0
  9
$TDCREATE
 40
2457564.6320717590861022
  9
$TDUPDATE
 40
2459571.8408796298317611
  9
$TDINDWG
 40
0.0864977662
  9
$TDUSRTIMER
 40
0.0864977662
  9
$USRTIMER
 70
     1
  9
$ANGBASE
 50
0.0
  9
$ANGDIR
 70
     0
  9
$PDMODE
 70
     0
  9
$PDSIZE
 40
0.3125
  9
$PLINEWID
 40
0.0
  9
$COORDS
 70
     1
  9
$SPLFRAME
 70
     0
  9
$SPLINETYPE
 70
     6
  9
$SPLINESEGS
 70
     8
  9
$ATTDIA
 70
     1
  9
$ATTREQ
 70
     1
  9
$HANDLING
 70
     1
  9
$HANDSEED
  5
13CB
  9
$SURFTAB1
 70
     6
  9
$SURFTAB2
 70
     6
  9
$SURFTYPE
 70
     6
  9
$SURFU
 70
     6
  9
$SURFV
 70
     6
  9
$UCSNAME
  2

  9
$UCSORG
 10
0.0
 20
0.0
 30
0.0
  9
$UCSXDIR
 10
1.0
 20
0.0
 30
0.0
  9
$UCSYDIR
 10
0.0
 20
1.0
 30
0.0
  9
$PUCSNAME
  2

  9
$PUCSORG
 10
0.0
 20
0.0
 30
0.0
  9
$PUCSXDIR
 10
1.0
 20
0.0
 30
0.0
  9
$PUCSYDIR
 10
0.0
 20
1.0
 30
0.0
  9
$USERI1
 70
     0
  9
$USERI2
 70
     0
  9
$USERI3
 70
     0
  9
$USERI4
 70
     0
  9
$USERI5
 70
     0
  9
$USERR1
 40
0.0
  9
$USERR2
 40
0.0
  9
$USERR3
 40
0.0
  9
$USERR4
 40
0.0
  9
$USERR5
 40
0.0
  9
$WORLDVIEW
 70
     1
  9
$SHADEDGE
 70
     3
  9
$SHADEDIF
 70
    70
  9
$TILEMODE
 70
     1
  9
$MAXACTVP
 70
    64
  9
$PLIMCHECK
 70
     0
  9
$PEXTMIN
 10
1.0000000000000000E+20
 20
1.0000000000000000E+20
 30
1.0000000000000000E+20
  9
$PEXTMAX
 10
-1.0000000000000000E+20
 20
-1.0000000000000000E+20
 30
-1.0000000000000000E+20
  9
$PLIMMIN
 10
0.0
 20
0.0
  9
$PLIMMAX
 10
12.0
 20
9.0
  9
$UNITMODE
 70
     0
  9
$VISRETAIN
 70
     1
  9
$PLINEGEN
 70
     0
  9
$PSLTSCALE
 70
     1
  0
ENDSEC
  0
SECTION
  2
TABLES
  0
TABLE
  2
VPORT
 70
     1
  0
VPORT
  2
*ACTIVE
 70
     0
 10
0.0
 20
0.0
 11
1.0
 21
1.0
 12
18.5992252736073809
 22
-10.0619416395699499
 13
0.0
 23
0.0
 14
1.0
 24
1.0
 15
0.0
 25
0.0
 16
-0.0000000000000302
 26
0.0
 36
136.9889409649983065
 17
6.0394215583801261
 27
17.5937333650357317
 37
0.0
 40
4.1192301267333171
 41
1.67063492063492
 42
50.0
 43
0.0
 44
0.0
 50
0.0
 51
0.0
 71
     0
 72
   100
 73
     1
 74
     1
 75
     0
 76
     0
 77
     0
 78
     0
  0
ENDTAB
  0
TABLE
  2
LTYPE
 70
     2
  0
LTYPE
  2
CONTINUOUS
 70
     0
  3
Solid line
 72
    65
 73
     0
 40
0.0
  0
ENDTAB
  0
TABLE
  2
LAYER
 70
     2
  0
LAYER
  2
0
 70
     0
 62
     7
  6
CONTINUOUS
  0
LAYER
  2
DEFPOINTS
 70
     0
 62
     7
  6
CONTINUOUS
  0
ENDTAB
  0
TABLE
  2
STYLE
 70
     1
  0
STYLE
  2
STANDARD
 70
     0
 40
0.0
 41
0.8
 50
0.0
 71
     0
 42
0.2
  3
txt
  4

  0
ENDTAB
  0
TABLE
  2
VIEW
 70
     0
  0
ENDTAB
  0
TABLE
  2
UCS
 70
     0
  0
ENDTAB
  0
TABLE
  2
APPID
 70
     6
  0
APPID
  2
ACAD
 70
     0
  0
APPID
  2
ACAD_MLEADERVER
 70
     0
  0
APPID
  2
ACAD_EXEMPT_FROM_CAD_STANDARDS
 70
     0
  0
APPID
  2
ACAD_NAV_VCDISPLAY
 70
     0
  0
APPID
  2
ACAD_DSTYLE_DIMRADIAL_EXTENSION
 70
     0
  0
APPID
  2
ACDBATTR
 70
     0
  0
ENDTAB
  0
TABLE
  2
DIMSTYLE
 70
     2
  0
DIMSTYLE
  2
STANDARD
 70
     0
  3

  4

  5

  6

  7

 40
1.0
 41
0.1875
 42
0.0625
 43
0.38
 44
0.125
 45
0.0
 46
0.0
 47
0.01
 48
0.01
140
0.15625
141
0.09
142
0.0
143
25.3999999999999986
144
1.0
145
0.0
146
1.0
147
0.09
 71
     1
 72
     0
 73
     1
 74
     1
 75
     0
 76
     0
 77
     0
 78
     4
170
     0
171
     2
172
     0
173
     0
174
     0
175
     0
176
     0
177
     0
178
     0
  0
ENDTAB
  0
ENDSEC
  0
SECTION
  2
BLOCKS
  0
BLOCK
  8
0
  2
$MODEL_SPACE
 70
     0
 10
0.0
 20
0.0
 30
0.0
  3
$MODEL_SPACE
  1

  0
ENDBLK
  5
21
  8
0
  0
BLOCK
 67
     1
  8
0
  2
$PAPER_SPACE
 70
     0
 10
0.0
 20
0.0
 30
0.0
  3
$PAPER_SPACE
  1

  0
ENDBLK
  5
1D
 67
     1
  8
0
  0
ENDSEC
  0
SECTION
  2
ENTITIES
  0
LINE
  5
A67
  8
0
 10
22.8672020875172386
 20
6.0727465280590058
 30
0.0
 11
22.8672020875172386
 21
7.3719591264590072
 31
0.0
  0
LINE
  5
A68
  8
0
 10
23.457753268617239
 20
6.0727465280590058
 30
0.0
 11
23.457753268617239
 21
7.3719591264590072
 31
0.0
  0
LINE
  5
A69
  8
0
 10
23.965626716300001
 20
7.777470937459003
 30
0.0
 11
23.8632650796172392
 21
7.777470937459003
 31
0.0
  0
LINE
  5
A6A
  8
0
 10
23.9656272844172413
 20
8.3680221185590042
 30
0.0
 11
23.8632650796172392
 21
8.3680221185590042
 31
0.0
  0
ARC
  5
A88
  8
0
 10
23.1624776781172415
 20
6.0727465280590058
 30
0.0
 40
0.5835159406
 50
120.3996382954024966
 51
59.6003617159816486
  0
ARC
  5
A89
  8
0
 10
23.1624776781172415
 20
6.0727465280590058
 30
0.0
 40
0.5238278586
 50
124.3112481230032955
 51
55.6887518902392031
  0
ARC
  5
A8A
  8
0
 10
23.1624776780672406
 20
6.0727465280090103
 30
0.0
 40
0.295275590550002
 50
179.9999999902985905
 51
0.0000000097013968
  0
LINE
  5
C1E
  8
0
 10
25.2429693220000004
 20
8.6352465279999997
 30
0.0
 11
25.3992518270999987
 21
8.6352465279999997
 31
0.0
  0
LINE
  5
C1F
  8
0
 10
25.5155432558999991
 20
8.5845024960000025
 30
0.0
 11
25.4632470061000014
 21
8.5845024960000025
 31
0.0
  0
LINE
  5
C20
  8
0
 10
25.1652330155000001
 20
8.5648725123000027
 30
0.0
 11
25.1022408894999991
 21
8.5648725123000027
 31
0.0
  0
LINE
  5
C21
  8
0
 10
25.043185771400001
 20
8.4664473153999982
 30
0.0
 11
24.998683959200001
 21
8.4664473153999982
 31
0.0
  0
LINE
  5
C22
  8
0
 10
24.1522101834999994
 20
8.4270772367000006
 30
0.0
 11
24.0695637241
 21
8.4270772367000006
 31
0.0
  0
LINE
  5
C23
  8
0
 10
25.4292383537000006
 20
8.6043083403000011
 30
0.0
 11
25.4174383605000003
 21
8.6247465279999993
 31
0.0
  0
LINE
  5
C24
  8
0
 10
25.1973978697000014
 20
8.5773144573000017
 30
0.0
 11
25.2247827885000007
 21
8.6247465279999993
 31
0.0
  0
LINE
  5
C25
  8
0
 10
23.965626716300001
 20
8.4206803560000019
 30
0.0
 11
23.965626716300001
 21
7.7248127000000011
 31
0.0
  0
LINE
  5
C26
  8
0
 10
24.0695637241
 20
8.4270772367000006
 30
0.0
 11
24.0695637241
 21
7.7184158192999979
 31
0.0
  0
LINE
  5
C29
  8
0
 10
25.0727133303999992
 20
8.5353449531999992
 30
0.0
 11
25.0727133303999992
 21
7.6101481028000002
 31
0.0
  0
LINE
  5
C2A
  8
0
 10
25.1947605744999912
 20
7.5780343618000003
 30
0.0
 11
25.1947605744999983
 21
8.5674719376000006
 31
0.0
  0
LINE
  5
C2C
  8
0
 10
25.5455432559000002
 20
7.4687693437
 30
0.0
 11
25.5455419315566203
 21
8.6767237123813743
 31
0.0
  0
LINE
  5
C2D
  8
0
 10
25.6665762973474187
 20
7.4652755422726766
 30
0.0
 11
25.6665763089253005
 21
8.6802174303900763
 31
0.0
  0
LINE
  5
C2E
  8
0
 10
26.2393785414000007
 20
9.2248047743000008
 30
0.0
 11
26.2393785414000007
 21
6.9206882817000022
 31
0.0
  0
LINE
  5
C2F
  8
0
 10
26.3605784320999987
 20
9.2749065002000002
 30
0.0
 11
26.3605784320999987
 21
6.8705865558000019
 31
0.0
  0
ARC
  5
C30
  8
0
 10
24.5906274523999997
 20
8.1794326157999997
 30
0.0
 40
0.4759910775
 50
40.3010399884000066
 51
145.0248542141999053
  0
ARC
  5
C31
  8
0
 10
24.1522101834999994
 20
8.4861323548000023
 30
0.0
 40
0.0590551181
 50
270.0
 51
325.0248542143000918
  0
ARC
  5
C32
  8
0
 10
24.998683959200001
 20
8.5255024335000016
 30
0.0
 40
0.0590551181
 50
220.301039988599598
 51
270.0
  0
ARC
  5
C33
  8
0
 10
24.0177920706000094
 20
8.4206803560000019
 30
0.0
 40
0.0521653543
 50
7.0437382838000282
 51
180.0
  0
ARC
  5
C34
  8
0
 10
25.043185771400001
 20
8.4959748744999999
 30
0.0
 40
0.0295275591
 50
270.0
 51
0.0
  0
ARC
  5
C35
  8
0
 10
25.4636129877511408
 20
8.6242320063450162
 30
0.0
 40
0.0397311959903499
 50
210.0967407704081893
 51
269.4722157231781239
  0
ARC
  5
C36
  8
0
 10
25.5155412541739786
 20
8.6145032415358962
 30
0.0
 40
0.0300007456026756
 50
270.0038229200807223
 51
0.001055543724405
  0
ARC
  5
C37
  8
0
 10
25.1022408894999991
 20
8.5353449531999992
 30
0.0
 40
0.0295275591
 50
90.0
 51
180.0
  0
ARC
  5
C38
  8
0
 10
25.1652330155000001
 20
8.5353449531999992
 30
0.0
 40
0.0295275591
 50
0.0
 51
90.0
  0
ARC
  5
C39
  8
0
 10
25.2144456139000006
 20
8.5674719376000006
 30
0.0
 40
0.0196850394
 50
150.0
 51
180.0
  0
LINE
  5
C3A
  8
0
 10
25.4292383537409705
 20
7.5411847159602798
 30
0.0
 11
25.4292382526000011
 21
8.6043084279000013
 31
0.0
  0
LINE
  5
C3B
  8
0
 10
26.680908585400001
 20
9.5736836164000003
 30
0.0
 11
26.6809080174000002
 21
6.5718094400000018
 31
0.0
  0
ARC
  5
C3C
  8
0
 10
26.6677768312644901
 20
9.2850465014881962
 30
0.0
 40
0.288935679816954
 50
87.3950833851019127
 51
135.0718101871784995
  0
ARC
  5
C3D
  8
0
 10
26.8067529365678716
 20
9.1927993586848125
 30
0.0
 40
0.4536664756458637
 50
139.2226403259381016
 51
169.5728211053350094
  0
ARC
  5
C3E
  8
0
 10
26.6677767467783511
 20
6.8604464253831914
 30
0.0
 40
0.2889355284883444
 50
224.9281834830435116
 51
272.6048220004046243
  0
ARC
  5
C3F
  8
0
 10
26.8067448408712607
 20
6.9526884023549007
 30
0.0
 40
0.4536568865963839
 50
190.4285489270384915
 51
220.7775210395400052
  0
ARC
  5
C40
  8
0
 10
26.3313542744729183
 20
9.2816850414821026
 30
0.0
 40
0.0300000001821037
 50
270.0046782476570115
 51
346.9411712854794132
  0
LINE
  5
C41
  8
0
 10
26.3313567239976791
 20
9.2516850414000018
 30
0.0
 11
26.2692140471999984
 21
9.2516850411
 31
0.0
  0
ARC
  5
C42
  8
0
 10
26.2692158941757512
 20
9.2216850345542767
 30
0.0
 40
0.0300000066025804
 50
90.0035274630792941
 51
174.030945909135113
  0
ARC
  5
C43
  8
0
 10
24.9494584234933612
 20
9.34763793318902
 30
0.0
 40
1.2957553378343589
 50
342.9273002050869081
 51
354.5603888244697259
  0
ARC
  5
C44
  8
0
 10
25.6428478699408906
 20
9.1226605945067725
 30
0.0
 40
0.5669880604335197
 50
317.6771150990933847
 51
344.0889432115262139
  0
ARC
  5
C45
  8
0
 10
25.8194259590057094
 20
8.9713262255992081
 30
0.0
 40
0.3346115064353881
 50
264.5458679026019126
 51
316.4783261665472196
  0
ARC
  5
C46
  8
0
 10
25.8271460450925296
 20
9.1617481327383121
 30
0.0
 40
0.5250083849512615
 50
254.6647641578682908
 51
265.6824817141730932
  0
ARC
  5
C47
  8
0
 10
25.6962903514665584
 20
8.684348615880463
 30
0.0
 40
0.0299998502946226
 50
187.9151743562443926
 51
254.5512078072677866
  0
ARC
  5
C48
  8
0
 10
25.6372544935380198
 20
8.6763322881026799
 30
0.0
 40
0.0295780862835832
 50
7.5477291316776292
 51
41.1592140972367702
  0
ARC
  5
C49
  8
0
 10
25.6059719932429886
 20
8.6522818762522462
 30
0.0
 40
0.0690036704070113
 50
39.0982804778503095
 51
139.8808882252027104
  0
ARC
  5
C4A
  8
0
 10
25.5755384606599385
 20
8.6767218101665051
 30
0.0
 40
0.029996529163634
 50
138.1207682462319895
 51
179.9963666168438863
  0
ARC
  5
C4B
  8
0
 10
25.3983180574918315
 20
8.6133497918962405
 30
0.0
 40
0.0222591909319069
 50
30.7972317347051892
 51
48.0901004633022922
  0
ARC
  5
C4C
  8
0
 10
25.3990857476544001
 20
8.6139955845929599
 30
0.0
 40
0.021266267751527
 50
48.4671408777334207
 51
60.4755413949823293
  0
ARC
  5
C4D
  8
0
 10
25.3988047233291105
 20
8.613335507411314
 30
0.0
 40
0.0219792666348145
 50
60.6860567278281522
 51
75.7097110693288471
  0
ARC
  5
C4E
  8
0
 10
25.3988192207793588
 20
8.6111690328051882
 30
0.0
 40
0.0240813812536745
 50
77.0155841097109999
 51
88.9706632908294921
  0
ARC
  5
C4F
  8
0
 10
25.2429693220230007
 20
8.6142465280720053
 30
0.0
 40
0.0209999999279962
 50
90.0000000627533012
 51
129.2817916472853028
  0
ARC
  5
C50
  8
0
 10
25.2441370720635803
 20
8.6132541309499153
 30
0.0
 40
0.0225091866182733
 50
129.9832449992138947
 51
149.2985457775860141
  0
ARC
  5
C51
  8
0
 10
25.3742114998231791
 20
8.6147818702245971
 30
0.0
 40
0.0204648995184404
 50
26.6800334098029204
 51
89.7215095958604678
  0
ARC
  5
C52
  8
0
 10
24.8806933214123411
 20
8.4595456917365048
 30
0.0
 40
0.5367530637488122
 50
0.3188867386302105
 51
17.5377158313871391
  0
ARC
  5
C53
  8
0
 10
24.8704291407144389
 20
8.4671079730442216
 30
0.0
 40
0.5470280621687964
 50
342.6252646964675819
 51
359.5208156107015043
  0
ARC
  5
C54
  8
0
 10
25.3925057386561903
 20
8.6237026336860723
 30
0.0
 40
0.0002682632203899
 50
91.7689604916426731
 51
144.4772340800761015
  0
ARC
  5
C55
  8
0
 10
25.3928295031100504
 20
8.6234507970666527
 30
0.0
 40
0.0006783032115944
 50
143.0537564180177128
 51
167.4923459385643127
  0
ARC
  5
C56
  8
0
 10
25.3939829573371085
 20
8.6231372486671667
 30
0.0
 40
0.0018731341801835
 50
165.7698703325733902
 51
179.4876454740401073
  0
ARC
  5
C57
  8
0
 10
25.3943990983375194
 20
8.6231167067865755
 30
0.0
 40
0.0022895040183481
 50
179.0667084770894064
 51
192.0313913482387136
  0
ARC
  5
C58
  8
0
 10
25.4102560710959011
 20
8.6264393485747775
 30
0.0
 40
0.0184908357374745
 50
191.8588226656713971
 51
196.1779980592023094
  0
ARC
  5
C59
  8
0
 10
25.2680096491768111
 20
8.6147818702245971
 30
0.0
 40
0.0204648995184404
 50
90.278490404139518
 51
153.3199665901971116
  0
ARC
  5
C5A
  8
0
 10
25.7615278275876598
 20
8.4595456917365048
 30
0.0
 40
0.5367530637488122
 50
162.462284168612797
 51
179.6811132613696884
  0
ARC
  5
C5B
  8
0
 10
25.7717920082855692
 20
8.4671079730442216
 30
0.0
 40
0.5470280621687964
 50
180.4791843892982968
 51
197.3747353035323897
  0
ARC
  5
C5C
  8
0
 10
25.2497154103438106
 20
8.6237026336860723
 30
0.0
 40
0.0002682632203899
 50
35.5227659199238914
 51
88.2310395083573269
  0
ARC
  5
C5D
  8
0
 10
25.2493916458899506
 20
8.6234507970666527
 30
0.0
 40
0.0006783032115944
 50
12.5076540614356393
 51
36.9462435819823014
  0
ARC
  5
C5E
  8
0
 10
25.2482381916628889
 20
8.6231372486671667
 30
0.0
 40
0.0018731341801835
 50
0.5123545259598545
 51
14.2301296674265991
  0
ARC
  5
C5F
  8
0
 10
25.2478220506624815
 20
8.6231167067865755
 30
0.0
 40
0.0022895040183481
 50
347.9686086517612011
 51
0.9332915229106298
  0
ARC
  5
C60
  8
0
 10
25.2319650779040892
 20
8.6264393485747775
 30
0.0
 40
0.0184908357374745
 50
343.8220019407976906
 51
348.1411773343288019
  0
ARC
  5
C61
  8
0
 10
25.4054132785874209
 20
8.3005153406893228
 30
0.0
 40
0.0133157915183213
 50
165.9213208456498876
 51
194.0787092250531032
  0
ARC
  5
C62
  8
0
 10
24.3943061911832118
 20
8.0727451753875705
 30
0.0
 40
1.0231318499657811
 50
347.3231514582358272
 51
12.6736578597177196
  0
ARC
  5
C63
  8
0
 10
26.2479149578167785
 20
8.0727451753875705
 30
0.0
 40
1.0231318499657811
 50
167.3263421402822075
 51
192.6768485417640875
  0
ARC
  5
C64
  8
0
 10
25.2367723423963604
 20
8.3005109536386108
 30
0.0
 40
0.0133513202541518
 50
345.7209504625748764
 51
14.0598525496425104
  0
LINE
  5
C65
  8
0
 10
25.2429693220439297
 20
7.5102465282466886
 30
0.0
 11
25.3992518271439387
 21
7.5102465282588957
 31
0.0
  0
LINE
  5
C66
  8
0
 10
25.5155432559399706
 20
7.5609905602679781
 30
0.0
 11
25.4632470061399694
 21
7.5609905602638916
 31
0.0
  0
LINE
  5
C67
  8
0
 10
25.1652330155384405
 20
7.580620543940614
 30
0.0
 11
25.1022408895384395
 21
7.5806205439356944
 31
0.0
  0
LINE
  5
C68
  8
0
 10
25.0431857714307498
 20
7.6790457408310822
 30
0.0
 11
24.9986839592307497
 21
7.6790457408276067
 31
0.0
  0
LINE
  5
C69
  8
0
 10
24.1522101835276786
 20
7.71841581946149
 30
0.0
 11
24.0695637241276792
 21
7.7184158194550347
 31
0.0
  0
LINE
  5
C6A
  8
0
 10
25.4292383537415212
 20
7.5411847159612391
 30
0.0
 11
25.4174383605431196
 21
7.5207465282603181
 31
0.0
  0
LINE
  5
C6B
  8
0
 10
25.1973978697394116
 20
7.5681785989431267
 30
0.0
 11
25.2247827885431199
 21
7.5207465282452679
 31
0.0
  0
ARC
  5
C6C
  8
0
 10
24.5906274524083308
 20
7.9660604403957356
 30
0.0
 40
0.4759910775
 50
214.9751457902752065
 51
319.6989600160756027
  0
ARC
  5
C6D
  8
0
 10
24.15221018353229
 20
7.6593607013614893
 30
0.0
 40
0.0590551181
 50
34.9751457901753469
 51
90.0000000044753818
  0
ARC
  5
C6E
  8
0
 10
24.9986839592353682
 20
7.6199906227276086
 30
0.0
 40
0.0590551181
 50
90.0000000044753818
 51
139.6989600158750022
  0
ARC
  5
C6F
  8
0
 10
24.0177920706271699
 20
7.7248127001509914
 30
0.0
 40
0.0521653543
 50
180.0000000044753961
 51
352.9562617206751725
  0
ARC
  5
C70
  8
0
 10
25.043185771433059
 20
7.6495181817310822
 30
0.0
 40
0.0295275591
 50
0.0000000044753712
 51
90.0000000044753818
  0
ARC
  5
C71
  8
0
 10
25.463612987794221
 20
7.5212610499189054
 30
0.0
 40
0.0397311959903499
 50
90.5277842812970022
 51
149.9032592340668941
  0
ARC
  5
C72
  8
0
 10
25.5155412542162985
 20
7.5309898147320844
 30
0.0
 40
0.0300007456026756
 50
359.9989444607509768
 51
89.9961770843946454
  0
ARC
  5
C73
  8
0
 10
25.1022408895361302
 20
7.610148103035697
 30
0.0
 40
0.0295275591
 50
180.0000000044753961
 51
270.0000000044753961
  0
ARC
  5
C74
  8
0
 10
25.1652330155361312
 20
7.6101481030406184
 30
0.0
 40
0.0295275591
 50
270.0000000044753961
 51
0.0000000044753712
  0
ARC
  5
C75
  8
0
 10
25.2144456751465817
 20
7.5780211439976144
 30
0.0
 40
0.0196851050842072
 50
179.9615280515484983
 51
209.9999748349445099
  0
ARC
  5
C76
  8
0
 10
26.6677767467783511
 20
6.8604464253831914
 30
0.0
 40
0.2889355284883419
 50
224.9281834830441085
 51
272.604822000405477
  0
ARC
  5
C77
  8
0
 10
26.8067529366553501
 20
6.952693697684019
 30
0.0
 40
0.4536664756458637
 50
190.4271788991403014
 51
220.7773596785370955
  0
ARC
  5
C78
  8
0
 10
26.33135427447003
 20
6.8638080147481091
 30
0.0
 40
0.0300000002998255
 50
13.0588288658222407
 51
89.9949564014473822
  0
LINE
  5
C79
  8
0
 10
26.3313567240897584
 20
6.8938080149317029
 30
0.0
 11
26.2692140472920883
 21
6.8938080152268491
 31
0.0
  0
ARC
  5
C7A
  8
0
 10
26.2692158942654999
 20
6.9238080217725724
 30
0.0
 40
0.0300000066025804
 50
185.9690540953399989
 51
269.9964725413959741
  0
ARC
  5
C7B
  8
0
 10
24.9494584235929295
 20
6.797855123034747
 30
0.0
 40
1.2957553378343589
 50
5.4396111800056559
 51
17.0726997993883813
  0
ARC
  5
C7C
  8
0
 10
25.6428478700229014
 20
7.0228324617711522
 30
0.0
 40
0.5669880604335197
 50
15.9110567929493101
 51
42.322884905382061
  0
ARC
  5
C7D
  8
0
 10
25.8194259590759003
 20
7.1741668306925064
 30
0.0
 40
0.3346115064353881
 50
43.5216738379280912
 51
95.4541321018734408
  0
ARC
  5
C7E
  8
0
 10
25.8271460451775994
 20
6.9837449235540063
 30
0.0
 40
0.5250083849512615
 50
94.317518290302317
 51
105.3352358466068068
  0
ARC
  5
C7F
  8
0
 10
25.6962903515144312
 20
7.4611444404014833
 30
0.0
 40
0.0299998502947961
 50
105.4487921973111071
 51
172.0849868815693924
  0
ARC
  5
C80
  8
0
 10
25.6372544989715401
 20
7.4691607647093319
 30
0.0
 40
0.0295780799474606
 50
318.840784094182311
 51
352.4521126277360281
  0
ARC
  5
C81
  8
0
 10
25.6059719932882501
 20
7.4932111800227972
 30
0.0
 40
0.0690036704070113
 50
220.1191117792722878
 51
320.9017195266251861
  0
ARC
  5
C82
  8
0
 10
25.5755297602398315
 20
7.4687659331625254
 30
0.0
 40
0.0299865045337813
 50
179.9934834217382047
 51
221.8827710523966914
  0
ARC
  5
C83
  8
0
 10
25.3983180575340484
 20
7.5321432643625839
 30
0.0
 40
0.0222591909319069
 50
311.9098995411729902
 51
329.2027682697701039
  0
ARC
  5
C84
  8
0
 10
25.3990857476966703
 20
7.5314974716659249
 30
0.0
 40
0.021266267751527
 50
299.5244586094933084
 51
311.5328591267419256
  0
ARC
  5
C85
  8
0
 10
25.398804723371331
 20
7.5321575488475458
 30
0.0
 40
0.0219792666348145
 50
284.2902889351461795
 51
299.3139432766470804
  0
ARC
  5
C86
  8
0
 10
25.3988192208214194
 20
7.5343240234536744
 30
0.0
 40
0.0240813812536745
 50
271.0293367136458187
 51
282.9844158947640267
  0
ARC
  5
C87
  8
0
 10
25.2429693220652887
 20
7.531246528174683
 30
0.0
 40
0.0209999999279962
 50
230.718208357190008
 51
269.9999999417220806
  0
ARC
  5
C88
  8
0
 10
25.2441370721057901
 20
7.5322389252968662
 30
0.0
 40
0.0225091866182733
 50
210.7014542268892967
 51
230.0167550052613876
  0
ARC
  5
C89
  8
0
 10
25.3742114998655204
 20
7.5307111860323452
 30
0.0
 40
0.0204648995184404
 50
270.278490408614914
 51
333.319966594672394
  0
ARC
  5
C8A
  8
0
 10
24.8806933214425499
 20
7.6859473644818861
 30
0.0
 40
0.5367530637488122
 50
342.4622841730882783
 51
359.6811132658449992
  0
ARC
  5
C8B
  8
0
 10
24.8704291407452409
 20
7.67838508317337
 30
0.0
 40
0.5470280621687964
 50
0.479184393773619
 51
17.3747353080078213
  0
ARC
  5
C8C
  8
0
 10
25.3925057386992208
 20
7.5217904225722982
 30
0.0
 40
0.0002682632203899
 50
215.5227659243992093
 51
268.2310395128328082
  0
ARC
  5
C8D
  8
0
 10
25.3928295031530595
 20
7.5220422591917417
 30
0.0
 40
0.0006783032115944
 50
192.5076540659109128
 51
216.9462435864575127
  0
ARC
  5
C8E
  8
0
 10
25.3939829573800999
 20
7.5223558075913166
 30
0.0
 40
0.0018731341801835
 50
180.5123545304352035
 51
194.2301296719018069
  0
ARC
  5
C8F
  8
0
 10
25.3943990983805001
 20
7.5223763494719442
 30
0.0
 40
0.0022895040183481
 50
167.9686086562365972
 51
180.9332915273859896
  0
ARC
  5
C90
  8
0
 10
25.4102560711391483
 20
7.5190537076849777
 30
0.0
 40
0.0184908357374745
 50
163.8220019452730014
 51
168.141177338803999
  0
ARC
  5
C91
  8
0
 10
25.2680096492191417
 20
7.5307111860240488
 30
0.0
 40
0.0204648995184404
 50
206.6800334142783129
 51
269.7215096003358781
  0
ARC
  5
C92
  8
0
 10
25.7615278276178685
 20
7.6859473645506879
 30
0.0
 40
0.5367530637488122
 50
180.318886743105395
 51
197.5377158358624001
  0
ARC
  5
C93
  8
0
 10
25.7717920083163712
 20
7.678385083243775
 30
0.0
 40
0.5470280621687964
 50
162.6252647009426937
 51
179.520815615177014
  0
ARC
  5
C94
  8
0
 10
25.2497154185301405
 20
7.5217904132918729
 30
0.0
 40
0.0002682512070032
 50
271.76703539247859
 51
324.4778348378574151
  0
ARC
  5
C95
  8
0
 10
25.2493916459329597
 20
7.52204225918054
 30
0.0
 40
0.0006783032115944
 50
323.0537564224932225
 51
347.4923459430397088
  0
ARC
  5
C96
  8
0
 10
25.2482381917058802
 20
7.5223558075799337
 30
0.0
 40
0.0018731341801835
 50
345.7698703370489284
 51
359.487645478515276
  0
ARC
  5
C97
  8
0
 10
25.2478220507054694
 20
7.5223763494604929
 30
0.0
 40
0.0022895040183481
 50
359.066708481564774
 51
12.0313913527141096
  0
ARC
  5
C98
  8
0
 10
25.2319650779473399
 20
7.5190537076710511
 30
0.0
 40
0.0184908357374745
 50
11.8588226701465995
 51
16.1779980636776095
  0
ARC
  5
C99
  8
0
 10
25.4054132786052094
 20
7.8449777155700531
 30
0.0
 40
0.0133157915183213
 50
165.9212907794220939
 51
194.0786791588253095
  0
ARC
  5
C9A
  8
0
 10
25.2368078704303684
 20
7.8449777155568832
 30
0.0
 40
0.0133157915183213
 50
345.9213208501251984
 51
14.0787092295286502
  0
ARC
  5
C9B
  8
0
 10
23.8593762798915989
 20
7.3758479260856014
 30
0.0
 40
0.401641837994931
 50
89.4452388371683611
 51
180.5547611487016866
  0
ARC
  5
C9C
  8
0
 10
23.8677880204447987
 20
7.3674361855309911
 30
0.0
 40
1.000596155382955
 50
90.2589919035007853
 51
179.7410080907469876
  0
LINE
  5
C9F
  8
0
 10
25.250123662650509
 20
8.3005109536386108
 30
0.0
 11
25.3920974870691012
 21
8.3005153371950406
 31
0.0
  0
LINE
  5
CA0
  8
0
 10
25.2501236619486811
 20
7.8449777155568832
 30
0.0
 11
25.3920974870868896
 21
7.844977719063297
 31
0.0
  0
ATTDEF
  5
1068
  8
DEFPOINTS
 10
26.6874980946364317
 20
8.0745564628222652
 30
0.0
 40
0.001
  1
K-72569
  3

  2
MODELNUMBER
 70
     0
1001
ACDBATTR
1070
     0
1070
     1
  0
ATTDEF
  5
1069
  8
DEFPOINTS
 10
26.6874980946364317
 20
8.0728897961555912
 30
0.0
 40
0.001
  1
ARTIFACTS
  3

  2
TRADENAME
 70
     0
1001
ACDBATTR
1070
     0
1070
     1
  0
ATTDEF
  5
106A
  8
DEFPOINTS
 10
26.6874980946364317
 20
8.0712231294889278
 30
0.0
 40
0.001
  1
TOWEL BAR
  3

  2
PRODUCT
 70
     0
1001
ACDBATTR
1070
     0
1070
     1
  0
ENDSEC
  0
EOF
