  0
SECTION
  2
HEADER
  9
$ACADVER
  1
AC1009
  9
$INSBASE
 10
1.447530398300003
 20
8.0727465283999997
 30
0.0
  9
$EXTMIN
 10
-15.0545373840630905
 20
5.4883728487048913
 30
-0.0015258207003583
  9
$EXTMAX
 10
17.9501106754109685
 20
9.573913605154857
 30
0.0000000349246037
  9
$LIMMIN
 10
0.0
 20
0.0
  9
$LIMMAX
 10
22.0
 20
17.0
  9
$ORTHOMODE
 70
     1
  9
$REGENMODE
 70
     1
  9
$FILLMODE
 70
     1
  9
$QTEXTMODE
 70
     0
  9
$MIRRTEXT
 70
     0
  9
$DRAGMODE
 70
     2
  9
$LTSCALE
 40
1.2099999999999991
  9
$OSMODE
 70
  4095
  9
$ATTMODE
 70
     1
  9
$TEXTSIZE
 40
0.2
  9
$TRACEWID
 40
0.05
  9
$TEXTSTYLE
  7
STANDARD
  9
$CLAYER
  8
0
  9
$CELTYPE
  6
BYLAYER
  9
$CECOLOR
 62
   256
  9
$DIMSCALE
 40
1.0
  9
$DIMASZ
 40
0.1875
  9
$DIMEXO
 40
0.0625
  9
$DIMDLI
 40
0.8359999999999999
  9
$DIMRND
 40
0.0
  9
$DIMDLE
 40
0.0
  9
$DIMEXE
 40
0.125
  9
$DIMTP
 40
0.01
  9
$DIMTM
 40
0.01
  9
$DIMTXT
 40
0.15625
  9
$DIMCEN
 40
0.198
  9
$DIMTSZ
 40
0.0
  9
$DIMTOL
 70
     1
  9
$DIMLIM
 70
     0
  9
$DIMTIH
 70
     1
  9
$DIMTOH
 70
     1
  9
$DIMSE1
 70
     0
  9
$DIMSE2
 70
     0
  9
$DIMTAD
 70
     0
  9
$DIMZIN
 70
     0
  9
$DIMBLK
  1

  9
$DIMASO
 70
     1
  9
$DIMSHO
 70
     1
  9
$DIMPOST
  1

  9
$DIMAPOST
  1

  9
$DIMALT
 70
     0
  9
$DIMALTD
 70
     2
  9
$DIMALTF
 40
25.3999999999999986
  9
$DIMLFAC
 40
1.0
  9
$DIMTOFL
 70
     0
  9
$DIMTVP
 40
0.0
  9
$DIMTIX
 70
     0
  9
$DIMSOXD
 70
     0
  9
$DIMSAH
 70
     0
  9
$DIMBLK1
  1

  9
$DIMBLK2
  1

  9
$DIMSTYLE
  2
STANDARD
  9
$DIMCLRD
 70
     0
  9
$DIMCLRE
 70
     0
  9
$DIMCLRT
 70
     0
  9
$DIMTFAC
 40
1.0
  9
$DIMGAP
 40
0.09
  9
$LUNITS
 70
     2
  9
$LUPREC
 70
     4
  9
$SKETCHINC
 40
0.1
  9
$FILLETRAD
 40
0.0
  9
$AUNITS
 70
     0
  9
$AUPREC
 70
     0
  9
$MENU
  1
.
  9
$ELEVATION
 40
0.0
  9
$PELEVATION
 40
0.0
  9
$THICKNESS
 40
0.0
  9
$LIMCHECK
 70
     0
  9
$BLIPMODE
 70
     0
  9
$CHAMFERA
 40
0.0
  9
$CHAMFERB
 40
0.0
  9
$SKPOLY
 70
     0
  9
$TDCREATE
 40
2457564.6320717590861022
  9
$TDUPDATE
 40
2459571.8407407412305474
  9
$TDINDWG
 40
0.0875560532
  9
$TDUSRTIMER
 40
0.0875560532
  9
$USRTIMER
 70
     1
  9
$ANGBASE
 50
0.0
  9
$ANGDIR
 70
     0
  9
$PDMODE
 70
     0
  9
$PDSIZE
 40
0.3125
  9
$PLINEWID
 40
0.0
  9
$COORDS
 70
     1
  9
$SPLFRAME
 70
     0
  9
$SPLINETYPE
 70
     6
  9
$SPLINESEGS
 70
     8
  9
$ATTDIA
 70
     1
  9
$ATTREQ
 70
     1
  9
$HANDLING
 70
     1
  9
$HANDSEED
  5
14D8
  9
$SURFTAB1
 70
     6
  9
$SURFTAB2
 70
     6
  9
$SURFTYPE
 70
     6
  9
$SURFU
 70
     6
  9
$SURFV
 70
     6
  9
$UCSNAME
  2

  9
$UCSORG
 10
0.0
 20
0.0
 30
0.0
  9
$UCSXDIR
 10
1.0
 20
0.0
 30
0.0
  9
$UCSYDIR
 10
0.0
 20
1.0
 30
0.0
  9
$PUCSNAME
  2

  9
$PUCSORG
 10
0.0
 20
0.0
 30
0.0
  9
$PUCSXDIR
 10
1.0
 20
0.0
 30
0.0
  9
$PUCSYDIR
 10
0.0
 20
1.0
 30
0.0
  9
$USERI1
 70
     0
  9
$USERI2
 70
     0
  9
$USERI3
 70
     0
  9
$USERI4
 70
     0
  9
$USERI5
 70
     0
  9
$USERR1
 40
0.0
  9
$USERR2
 40
0.0
  9
$USERR3
 40
0.0
  9
$USERR4
 40
0.0
  9
$USERR5
 40
0.0
  9
$WORLDVIEW
 70
     1
  9
$SHADEDGE
 70
     3
  9
$SHADEDIF
 70
    70
  9
$TILEMODE
 70
     1
  9
$MAXACTVP
 70
    64
  9
$PLIMCHECK
 70
     0
  9
$PEXTMIN
 10
1.0000000000000000E+20
 20
1.0000000000000000E+20
 30
1.0000000000000000E+20
  9
$PEXTMAX
 10
-1.0000000000000000E+20
 20
-1.0000000000000000E+20
 30
-1.0000000000000000E+20
  9
$PLIMMIN
 10
0.0
 20
0.0
  9
$PLIMMAX
 10
12.0
 20
9.0
  9
$UNITMODE
 70
     0
  9
$VISRETAIN
 70
     1
  9
$PLINEGEN
 70
     0
  9
$PSLTSCALE
 70
     1
  0
ENDSEC
  0
SECTION
  2
TABLES
  0
TABLE
  2
VPORT
 70
     1
  0
VPORT
  2
*ACTIVE
 70
     0
 10
0.0
 20
0.0
 11
1.0
 21
1.0
 12
-4.5916349127061897
 22
-10.0625901381058593
 13
0.0
 23
0.0
 14
1.0
 24
1.0
 15
0.0
 25
0.0
 16
-0.0000000000000302
 26
0.0
 36
136.9889409649983065
 17
6.0394215583801261
 27
17.5937333650357317
 37
0.0
 40
19.8494789045151592
 41
1.67063492063492
 42
50.0
 43
0.0
 44
0.0
 50
0.0
 51
0.0
 71
     0
 72
   100
 73
     1
 74
     1
 75
     0
 76
     0
 77
     0
 78
     0
  0
ENDTAB
  0
TABLE
  2
LTYPE
 70
     2
  0
LTYPE
  2
CONTINUOUS
 70
     0
  3
Solid line
 72
    65
 73
     0
 40
0.0
  0
ENDTAB
  0
TABLE
  2
LAYER
 70
     2
  0
LAYER
  2
0
 70
     0
 62
     7
  6
CONTINUOUS
  0
LAYER
  2
DEFPOINTS
 70
     0
 62
     7
  6
CONTINUOUS
  0
ENDTAB
  0
TABLE
  2
STYLE
 70
     1
  0
STYLE
  2
STANDARD
 70
     0
 40
0.0
 41
0.8
 50
0.0
 71
     0
 42
0.2
  3
txt
  4

  0
ENDTAB
  0
TABLE
  2
VIEW
 70
     0
  0
ENDTAB
  0
TABLE
  2
UCS
 70
     0
  0
ENDTAB
  0
TABLE
  2
APPID
 70
     6
  0
APPID
  2
ACAD
 70
     0
  0
APPID
  2
ACAD_MLEADERVER
 70
     0
  0
APPID
  2
ACAD_EXEMPT_FROM_CAD_STANDARDS
 70
     0
  0
APPID
  2
ACAD_NAV_VCDISPLAY
 70
     0
  0
APPID
  2
ACAD_DSTYLE_DIMRADIAL_EXTENSION
 70
     0
  0
APPID
  2
ACDBATTR
 70
     0
  0
ENDTAB
  0
TABLE
  2
DIMSTYLE
 70
     2
  0
DIMSTYLE
  2
STANDARD
 70
     0
  3

  4

  5

  6

  7

 40
1.0
 41
0.1875
 42
0.0625
 43
0.38
 44
0.125
 45
0.0
 46
0.0
 47
0.01
 48
0.01
140
0.15625
141
0.09
142
0.0
143
25.3999999999999986
144
1.0
145
0.0
146
1.0
147
0.09
 71
     1
 72
     0
 73
     1
 74
     1
 75
     0
 76
     0
 77
     0
 78
     4
170
     0
171
     2
172
     0
173
     0
174
     0
175
     0
176
     0
177
     0
178
     0
  0
ENDTAB
  0
ENDSEC
  0
SECTION
  2
BLOCKS
  0
BLOCK
  8
0
  2
$MODEL_SPACE
 70
     0
 10
0.0
 20
0.0
 30
0.0
  3
$MODEL_SPACE
  1

  0
ENDBLK
  5
21
  8
0
  0
BLOCK
 67
     1
  8
0
  2
$PAPER_SPACE
 70
     0
 10
0.0
 20
0.0
 30
0.0
  3
$PAPER_SPACE
  1

  0
ENDBLK
  5
1D
 67
     1
  8
0
  0
ENDSEC
  0
SECTION
  2
ENTITIES
  0
LINE
  5
23C
  8
0
 10
14.2349319731000001
 20
5.6396756622000002
 30
0.0
 11
-11.3398711765000009
 21
5.6396756622000002
 31
0.0
  0
LINE
  5
25B
  8
0
 10
14.2349319731000001
 20
6.5058173945000002
 30
0.0
 11
-11.3398711765000009
 21
6.5058173945000002
 31
0.0
  0
LINE
  5
A39
  8
0
 10
-13.8477451922999997
 20
6.9002229132999977
 30
0.0
 11
-13.8477446243171496
 21
8.0727465283999997
 31
0.0
  0
LINE
  5
A3A
  8
0
 10
-13.2571940110999904
 20
6.8988134446999956
 30
0.0
 11
-13.2571945790828796
 21
8.0727466712626033
 31
0.0
  0
LINE
  5
A3B
  8
0
 10
-12.7296349559999999
 20
5.777470937799996
 30
0.0
 11
-12.42254834189999
 21
5.777470937799996
 31
0.0
  0
LINE
  5
A3C
  8
0
 10
-12.7296349559999999
 20
6.3680221188999973
 30
0.0
 11
-12.42254834189999
 21
6.3680221188999973
 31
0.0
  0
ARC
  5
A6B
  8
0
 10
-13.5524696016999897
 20
8.0727465283999997
 30
0.0
 40
0.6485396223
 50
297.0837919104744742
 51
242.9162080894784026
  0
ARC
  5
A6C
  8
0
 10
-13.5524696016999897
 20
8.0727465283999997
 30
0.0
 40
0.5826771654
 50
300.4480393315325273
 51
239.5519606684206906
  0
ARC
  5
A6D
  8
0
 10
-13.5524696016999897
 20
8.0727465283999997
 30
0.0
 40
0.4000991824000001
 50
317.5617390250041012
 51
222.4382609416786067
  0
ARC
  5
BBB
  8
0
 10
-13.5524696017459192
 20
8.0727465283459168
 30
0.0
 40
1.5009370883540809
 50
89.9999999982469774
 51
179.9999999979355039
  0
ARC
  5
BBC
  8
0
 10
-13.5524696017459192
 20
8.0727465283459168
 30
0.0
 40
1.5009370883540809
 50
179.9999999308282099
 51
260.3187052944039124
  0
ARC
  5
BBD
  8
0
 10
-13.5524696017000004
 20
8.0727465285921731
 30
0.0
 40
1.202159972199998
 50
359.9999999813086902
 51
180.0000000282232975
  0
ARC
  5
BBF
  8
0
 10
-13.5524696016540798
 20
8.0727465283459168
 30
0.0
 40
1.5009370883540809
 50
0.0000000020644599
 51
90.0000000017525963
  0
ARC
  5
BC0
  8
0
 10
-13.5524696016540798
 20
8.0727465283459168
 30
0.0
 40
1.5009370883540809
 50
284.3341079731690115
 51
0.0000000691718228
  0
ARC
  5
BC2
  8
0
 10
-13.5524696017000199
 20
8.0727465280996569
 30
0.0
 40
1.202159972199998
 50
179.9957382093656975
 51
255.7814712189048976
  0
ARC
  5
BC3
  8
0
 10
-13.5524696017000199
 20
8.0727465280996569
 30
0.0
 40
1.202159972199998
 50
284.218528781049713
 51
359.99573825628039
  0
ARC
  5
BC6
  8
0
 10
-12.7346959836536193
 20
6.8905608076175611
 30
0.0
 40
0.5225631973336645
 50
179.0951091045319004
 51
270.5549186385009079
  0
ARC
  5
BC7
  8
0
 10
-12.7244121137038597
 20
6.9008852874414153
 30
0.0
 40
1.123426490279581
 50
179.6131558737041871
 51
269.7336293017905859
  0
LINE
  5
BC8
  8
0
 10
-12.42254834189999
 20
5.7029075433000003
 30
0.0
 11
-12.4225483418000007
 21
6.4425862315000009
 31
0.0
  0
LINE
  5
BC9
  8
0
 10
-12.2099499166999994
 20
5.6928252685000009
 30
0.0
 11
-12.2099499166999994
 21
6.4526677881999994
 31
0.0
  0
LINE
  5
BCD
  8
0
 10
-11.5045529066000007
 20
6.620764992699999
 30
0.0
 11
-11.5045529066000007
 21
5.5247280638999987
 31
0.0
  0
LINE
  5
BCF
  8
0
 10
-11.3398711765000009
 20
6.5589663555999991
 30
0.0
 11
-11.3398711765000009
 21
5.5865267010999977
 31
0.0
  0
LINE
  5
BD0
  8
0
 10
-12.0707516271999999
 20
5.7102521130000019
 30
0.0
 11
-12.0620777551000007
 21
5.7213392108000001
 31
0.0
  0
LINE
  5
BD1
  8
0
 10
-12.0620777551000007
 20
5.7213392108000001
 30
0.0
 11
-12.0518894358999997
 21
5.7310530126999977
 31
0.0
  0
LINE
  5
BD2
  8
0
 10
-12.0707516271999999
 20
6.4352409437000011
 30
0.0
 11
-12.0620777551000007
 21
6.4241538457999994
 31
0.0
  0
LINE
  5
BD3
  8
0
 10
-12.0620777551000007
 20
6.4241538457999994
 30
0.0
 11
-12.0518894358999997
 21
6.4144400440000018
 31
0.0
  0
LINE
  5
BD4
  8
0
 10
-11.3693987356000008
 20
6.5884945597999973
 30
0.0
 11
-11.4519212847999992
 21
6.5884945597999973
 31
0.0
  0
LINE
  5
BD6
  8
0
 10
-12.1034395082999993
 20
6.4526677881999994
 30
0.0
 11
-12.2099499166999994
 21
6.4526677881999994
 31
0.0
  0
LINE
  5
BD7
  8
0
 10
-12.1034395082999993
 20
5.6928252685000009
 30
0.0
 11
-12.2099499166999994
 21
5.6928252685000009
 31
0.0
  0
LINE
  5
BD9
  8
0
 10
-11.3693987356000008
 20
5.5569984967999977
 30
0.0
 11
-11.4519212847999992
 21
5.5569984967999977
 31
0.0
  0
ARC
  5
BDA
  8
0
 10
-11.9605815574999994
 20
6.7279803643999996
 30
0.0
 40
0.3700787402
 50
287.5652529274000244
 51
326.0843121072001054
  0
ARC
  5
BDB
  8
0
 10
-11.9142434508000008
 20
5.5638968683999996
 30
0.0
 40
0.2165354331
 50
72.4347470726000608
 51
129.4700055112998029
  0
ARC
  5
BDC
  8
0
 10
-11.9142434508000008
 20
6.5815961882999972
 30
0.0
 40
0.2165354331
 50
230.5299944887001118
 51
287.5652529274000244
  0
ARC
  5
BDD
  8
0
 10
-11.7841547261000006
 20
5.5361367351999986
 30
0.0
 40
0.157480315
 50
4.6555494410999838
 51
33.9156878927999301
  0
ARC
  5
BDE
  8
0
 10
-11.7841547261000006
 20
6.6093563215000009
 30
0.0
 40
0.157480315
 50
326.0843121072001054
 51
355.3444505589000073
  0
ARC
  5
BDF
  8
0
 10
-12.3160100922486606
 20
5.702906825256119
 30
0.0
 40
0.1065382496537562
 50
179.9996138393113938
 51
354.570060816130308
  0
ARC
  5
BE0
  8
0
 10
-12.3160100922000009
 20
6.4425862315000009
 30
0.0
 40
0.1065382496
 50
5.4299391563000547
 51
180.0
  0
ARC
  5
BE1
  8
0
 10
-11.5624476905000009
 20
6.5913018389999989
 30
0.0
 40
0.0649606299
 50
26.97193477180004
 51
175.344450558799906
  0
ARC
  5
BE2
  8
0
 10
-11.5624476905000009
 20
5.5541912177000006
 30
0.0
 40
0.0649606299
 50
184.6555494412000087
 51
333.0280652281999778
  0
ARC
  5
BE3
  8
0
 10
-11.4519212847999992
 20
5.4979433786999996
 30
0.0
 40
0.0590551181
 50
90.0
 51
153.0280652284000098
  0
ARC
  5
BE4
  8
0
 10
-11.4519212847999992
 20
6.6475496779000016
 30
0.0
 40
0.0590551181
 50
206.9719347715999049
 51
270.0
  0
ARC
  5
BE5
  8
0
 10
-12.1034395082999993
 20
5.7321953471999967
 30
0.0
 40
0.0393700787
 50
270.0
 51
326.1267076103998761
  0
ARC
  5
BE6
  8
0
 10
-12.1034395082999993
 20
6.4132977093999983
 30
0.0
 40
0.0393700787
 50
33.8732923896000813
 51
90.0
  0
ARC
  5
BE7
  8
0
 10
-11.3693987356049906
 20
6.5589670007879599
 30
0.0
 40
0.0295275591120403
 50
359.9987480662704797
 51
89.9999999903211858
  0
ARC
  5
BE8
  8
0
 10
-11.9605815574999994
 20
5.4175126922999999
 30
0.0
 40
0.3700787402
 50
33.9156878927999301
 51
72.4347470726000608
  0
ARC
  5
BE9
  8
0
 10
-11.3693990582000009
 20
5.5865263785000003
 30
0.0
 40
0.0295278817017622
 50
270.0006259717090984
 51
0.0006259717057797
  0
ATTDEF
  5
1059
  8
DEFPOINTS
 10
1.4431104107051449
 20
8.0648953965920995
 30
0.0
 40
0.001
  1
ARTIFACTS
  3

  2
TRADENAME
 70
     0
1001
ACDBATTR
1070
     0
1070
     1
  0
ATTDEF
  5
105A
  8
DEFPOINTS
 10
1.4431104107051449
 20
8.0665620632587718
 30
0.0
 40
0.001
  1
K-72569
  3

  2
MODELNUMBER
 70
     0
1001
ACDBATTR
1070
     0
1070
     1
  0
ARC
  5
11F6
  8
0
 10
-13.5524696017000004
 20
8.0727465283999962
 30
0.0
 40
0.2952750226171492
 50
0.0000277213574085
 51
179.9999999999996021
  0
LINE
  5
1229
  8
0
 10
-14.1036938373495992
 20
7.8480084853557708
 30
0.0
 11
-14.1039247025496
 21
7.887950253155771
 31
0.0
  0
LINE
  5
122A
  8
0
 10
-14.1149696016495998
 20
8.2931068937557715
 30
0.0
 11
-14.1149696016495998
 21
8.22475451876657
 31
0.0
  0
LINE
  5
122B
  8
0
 10
-14.1149696016495998
 20
7.9241251421557708
 30
0.0
 11
-14.1149696016495998
 21
7.8519694497557699
 31
0.0
  0
LINE
  5
122C
  8
0
 10
-14.10390238576041
 20
8.2609872353205791
 30
0.0
 11
-14.1036938373495992
 21
8.2970678581557706
 31
0.0
  0
LINE
  5
122D
  8
0
 10
-13.0012453659496003
 20
8.2970678581557706
 30
0.0
 11
-13.0010368182599407
 21
8.2609872371378419
 31
0.0
  0
LINE
  5
122E
  8
0
 10
-12.9899696016495998
 20
7.8519694497557699
 30
0.0
 11
-12.9899696016495998
 21
7.9207385384064644
 31
0.0
  0
LINE
  5
122F
  8
0
 10
-12.9899696016495998
 20
8.2247545183935298
 30
0.0
 11
-12.9899696016495998
 21
8.2931068937557715
 31
0.0
  0
LINE
  5
1230
  8
0
 10
-13.0010343674197806
 20
7.8845129993120731
 30
0.0
 11
-13.0012453659496003
 21
7.8480084853557708
 31
0.0
  0
LINE
  5
1231
  8
0
 10
-14.1010104605496007
 20
8.3035461029557691
 30
0.0
 11
-14.0756989568923903
 21
8.3291519123987303
 31
0.0
  0
LINE
  5
1232
  8
0
 10
-13.7942515270495996
 20
8.6262513751557712
 30
0.0
 11
-13.8422423380473898
 21
8.5782605641579845
 31
0.0
  0
LINE
  5
1233
  8
0
 10
-14.0579836374579905
 20
8.3625192647473732
 30
0.0
 11
-14.1061828050496008
 21
8.3143200971557718
 31
0.0
  0
LINE
  5
1234
  8
0
 10
-13.8088701777046907
 20
8.5959782396934195
 30
0.0
 11
-13.7834775328495898
 21
8.6210790306557712
 31
0.0
  0
LINE
  5
1235
  8
0
 10
-14.1061828050496008
 20
7.8307562463557723
 30
0.0
 11
-14.0543202023496008
 21
7.7788936436557696
 31
0.0
  0
LINE
  5
1236
  8
0
 10
-14.0731109533495999
 20
7.8133063346557696
 30
0.0
 11
-14.1010104605496007
 21
7.8415302405557714
 31
0.0
  0
LINE
  5
1237
  8
0
 10
-13.0039287427496006
 20
7.8415302405557714
 30
0.0
 11
-13.0296468260239902
 21
7.8155131240509323
 31
0.0
  0
LINE
  5
1238
  8
0
 10
-13.0475182308851103
 20
7.781994413720259
 30
0.0
 11
-12.9987563982496006
 21
7.8307562463557723
 31
0.0
  0
LINE
  5
1239
  8
0
 10
-13.3214616704495992
 20
8.6210790306557712
 30
0.0
 11
-13.2932377745495902
 21
8.5931795288557709
 31
0.0
  0
LINE
  5
123A
  8
0
 10
-12.9987563982496006
 20
8.3143200971557718
 30
0.0
 11
-13.0469555660774095
 21
8.3625192649835842
 31
0.0
  0
LINE
  5
123B
  8
0
 10
-13.2588250735496
 20
8.5743887724557712
 30
0.0
 11
-13.3106875372495992
 21
8.6262512362557722
 31
0.0
  0
LINE
  5
123C
  8
0
 10
-13.0292402477385298
 20
8.3291519149105753
 30
0.0
 11
-13.0039287427496006
 21
8.3035461029557691
 31
0.0
  0
LINE
  5
123D
  8
0
 10
-13.7413679263121598
 20
8.6239543857798591
 30
0.0
 11
-13.7769992880496002
 21
8.6237624074557715
 31
0.0
  0
LINE
  5
123E
  8
0
 10
-13.3319008796496004
 20
8.635038171755772
 30
0.0
 11
-13.3996926829889595
 21
8.635038171755772
 31
0.0
  0
LINE
  5
123F
  8
0
 10
-13.7052465204110394
 20
8.635038171755772
 30
0.0
 11
-13.7730383236495904
 21
8.635038171755772
 31
0.0
  0
LINE
  5
1240
  8
0
 10
-13.3279399152495994
 20
8.6237624074557715
 30
0.0
 11
-13.3635711985519094
 21
8.6239543588656744
 31
0.0
  0
ARC
  5
1241
  8
0
 10
-14.0849696016496004
 20
7.8519694497557699
 30
0.0
 40
0.03
 50
179.9999999997999964
 51
225.0
  0
ARC
  5
1242
  8
0
 10
-14.0849696016496004
 20
8.2931068937557715
 30
0.0
 40
0.03
 50
134.9999999996998952
 51
180.0
  0
ARC
  5
1243
  8
0
 10
-13.7730383236495904
 20
8.6050381717557727
 30
0.0
 40
0.03
 50
89.9999999997999112
 51
134.9999999999998863
  0
ARC
  5
1244
  8
0
 10
-13.0199696016495992
 20
7.8519694497557699
 30
0.0
 40
0.03
 50
314.9999999996999236
 51
0.0
  0
ARC
  5
1245
  8
0
 10
-13.3319008796496004
 20
8.6050381717557727
 30
0.0
 40
0.03
 50
44.9996246539999092
 51
90.0
  0
ARC
  5
1246
  8
0
 10
-14.0932990084567802
 20
8.2965570471709675
 30
0.0
 40
0.0104073721055285
 50
137.8133035484995901
 51
177.1867060604764106
  0
ARC
  5
1247
  8
0
 10
-13.7764884764082307
 20
8.6133675772443734
 30
0.0
 40
0.0104073735234567
 50
92.8133048915853607
 51
132.1866942548608108
  0
ARC
  5
1248
  8
0
 10
-13.3284507265368202
 20
8.6133675778328431
 30
0.0
 40
0.0104073728495987
 50
47.8133050141324674
 51
87.186704594843107
  0
ARC
  5
1249
  8
0
 10
-13.0116401961609895
 20
8.2965570465144101
 30
0.0
 40
0.0104073735234478
 50
2.813304891573229
 51
42.1866942548827524
  0
ARC
  5
124A
  8
0
 10
-13.0116401953464091
 20
7.8485192966597248
 30
0.0
 40
0.0104073726932974
 50
317.8133041099380875
 51
357.1866967436142772
  0
ARC
  5
124B
  8
0
 10
-13.0253829835469208
 20
8.2908645776562881
 30
0.0
 40
0.0354843007005149
 50
3.6230352703784239
 51
41.3769959534409395
  0
ARC
  5
124C
  8
0
 10
-14.0932990077261593
 20
7.8485192968651054
 30
0.0
 40
0.0104073729297234
 50
182.8133043244667988
 51
222.1867036663186923
  0
LINE
  5
13B2
  8
0
 10
16.7428059888999989
 20
6.9002229132999977
 30
0.0
 11
16.7428054209171506
 21
8.0727465283999997
 31
0.0
  0
LINE
  5
13B3
  8
0
 10
16.1522548076999897
 20
6.8988134446999956
 30
0.0
 11
16.1522553756828806
 21
8.0727466712626033
 31
0.0
  0
LINE
  5
13B4
  8
0
 10
15.6246957525999903
 20
5.777470937799996
 30
0.0
 11
15.3176091384999893
 21
5.777470937799996
 31
0.0
  0
LINE
  5
13B5
  8
0
 10
15.6246957525999903
 20
6.3680221188999973
 30
0.0
 11
15.3176091384999893
 21
6.3680221188999973
 31
0.0
  0
ARC
  5
13B6
  8
0
 10
16.447530398299989
 20
8.0727465283999997
 30
0.0
 40
0.6485396223
 50
297.0837919105217111
 51
242.9162080895254974
  0
ARC
  5
13B7
  8
0
 10
16.447530398299989
 20
8.0727465283999997
 30
0.0
 40
0.5826771654
 50
300.4480393315793094
 51
239.5519606684675864
  0
ARC
  5
13B8
  8
0
 10
16.447530398299989
 20
8.0727465283999997
 30
0.0
 40
0.4000991824000001
 50
317.5617390583213933
 51
222.4382609749960125
  0
ARC
  5
13B9
  8
0
 10
16.4475303983459185
 20
8.0727465283459168
 30
0.0
 40
1.5009370883540809
 50
0.0000000020644669
 51
90.0000000017530368
  0
ARC
  5
13BA
  8
0
 10
16.4475303983459185
 20
8.0727465283459168
 30
0.0
 40
1.5009370883540809
 50
279.6812947055960876
 51
0.0000000691718298
  0
ARC
  5
13BB
  8
0
 10
16.4475303982999996
 20
8.0727465285921731
 30
0.0
 40
1.202159972199998
 50
359.9999999717766173
 51
180.0000000186911961
  0
ARC
  5
13BC
  8
0
 10
16.4475303982540808
 20
8.0727465283459168
 30
0.0
 40
1.5009370883540809
 50
89.9999999982473895
 51
179.9999999979355039
  0
ARC
  5
13BD
  8
0
 10
16.4475303982540808
 20
8.0727465283459168
 30
0.0
 40
1.5009370883540809
 50
179.9999999308282099
 51
255.6658920268309885
  0
ARC
  5
13BE
  8
0
 10
16.4475303983000209
 20
8.0727465280996569
 30
0.0
 40
1.202159972199998
 50
284.218528781095074
 51
0.0042617906342779
  0
ARC
  5
13BF
  8
0
 10
16.4475303983000209
 20
8.0727465280996569
 30
0.0
 40
1.202159972199998
 50
180.00426174371961
 51
255.7814712189502018
  0
ARC
  5
13C0
  8
0
 10
15.6297567802536204
 20
6.8905608076175611
 30
0.0
 40
0.5225631973336645
 50
269.4450813614990921
 51
0.9048908954680456
  0
ARC
  5
13C1
  8
0
 10
15.6194729103038501
 20
6.9008852874414153
 30
0.0
 40
1.123426490279581
 50
270.2663706982094141
 51
0.3868441262958032
  0
LINE
  5
13C2
  8
0
 10
15.3176091384999893
 20
5.7029075433000003
 30
0.0
 11
15.3176091383999999
 21
6.4425862315000009
 31
0.0
  0
LINE
  5
13C3
  8
0
 10
15.1050107133000004
 20
5.6928252685000009
 30
0.0
 11
15.1050107133000004
 21
6.4526677881999994
 31
0.0
  0
LINE
  5
13C4
  8
0
 10
14.3996137032
 20
6.620764992699999
 30
0.0
 11
14.3996137032
 21
5.5247280638999987
 31
0.0
  0
LINE
  5
13C5
  8
0
 10
14.2349319731000001
 20
6.5589663555999991
 30
0.0
 11
14.2349319731000001
 21
5.5865267010999977
 31
0.0
  0
LINE
  5
13C6
  8
0
 10
14.9658124237999992
 20
5.7102521130000019
 30
0.0
 11
14.9571385517
 21
5.7213392108000001
 31
0.0
  0
LINE
  5
13C7
  8
0
 10
14.9571385517
 20
5.7213392108000001
 30
0.0
 11
14.9469502325000008
 21
5.7310530126999977
 31
0.0
  0
LINE
  5
13C8
  8
0
 10
14.9658124237999992
 20
6.4352409437000011
 30
0.0
 11
14.9571385517
 21
6.4241538457999994
 31
0.0
  0
LINE
  5
13C9
  8
0
 10
14.9571385517
 20
6.4241538457999994
 30
0.0
 11
14.9469502325000008
 21
6.4144400440000018
 31
0.0
  0
LINE
  5
13CA
  8
0
 10
14.2644595322000001
 20
6.5884945597999973
 30
0.0
 11
14.3469820814000002
 21
6.5884945597999973
 31
0.0
  0
LINE
  5
13CB
  8
0
 10
14.9985003049000003
 20
6.4526677881999994
 30
0.0
 11
15.1050107133000004
 21
6.4526677881999994
 31
0.0
  0
LINE
  5
13CC
  8
0
 10
14.9985003049000003
 20
5.6928252685000009
 30
0.0
 11
15.1050107133000004
 21
5.6928252685000009
 31
0.0
  0
LINE
  5
13CD
  8
0
 10
14.2644595322000001
 20
5.5569984967999977
 30
0.0
 11
14.3469820814000002
 21
5.5569984967999977
 31
0.0
  0
ARC
  5
13CE
  8
0
 10
14.8556423541000004
 20
6.7279803643999996
 30
0.0
 40
0.3700787402
 50
213.9156878927998946
 51
252.434747072600004
  0
ARC
  5
13CF
  8
0
 10
14.8093042474000001
 20
5.5638968683999996
 30
0.0
 40
0.2165354331
 50
50.5299944887001828
 51
107.5652529273998965
  0
ARC
  5
13D0
  8
0
 10
14.8093042474000001
 20
6.5815961882999972
 30
0.0
 40
0.2165354331
 50
252.434747072600004
 51
309.4700055112999166
  0
ARC
  5
13D1
  8
0
 10
14.6792155226999999
 20
5.5361367351999986
 30
0.0
 40
0.157480315
 50
146.0843121071999917
 51
175.3444505589000073
  0
ARC
  5
13D2
  8
0
 10
14.6792155226999999
 20
6.6093563215000009
 30
0.0
 40
0.157480315
 50
184.6555494410999074
 51
213.9156878927998946
  0
ARC
  5
13D3
  8
0
 10
15.2110708888486599
 20
5.702906825256119
 30
0.0
 40
0.1065382496537562
 50
185.429939183869692
 51
0.0003861606886009
  0
ARC
  5
13D4
  8
0
 10
15.2110708888000001
 20
6.4425862315000009
 30
0.0
 40
0.1065382496
 50
0.000000000000007
 51
174.5700608436999062
  0
ARC
  5
13D5
  8
0
 10
14.4575084871000001
 20
6.5913018389999989
 30
0.0
 40
0.0649606299
 50
4.655549441200062
 51
153.0280652282000062
  0
ARC
  5
13D6
  8
0
 10
14.4575084871000001
 20
5.5541912177000006
 30
0.0
 40
0.0649606299
 50
206.9719347717999938
 51
355.3444505588000197
  0
ARC
  5
13D7
  8
0
 10
14.3469820814000002
 20
5.4979433786999996
 30
0.0
 40
0.0590551181
 50
26.9719347715999511
 51
90.0
  0
ARC
  5
13D8
  8
0
 10
14.3469820814000002
 20
6.6475496779000016
 30
0.0
 40
0.0590551181
 50
270.0
 51
333.0280652284001235
  0
ARC
  5
13D9
  8
0
 10
14.9985003049000003
 20
5.7321953471999967
 30
0.0
 40
0.0393700787
 50
213.8732923896000955
 51
270.0
  0
ARC
  5
13DA
  8
0
 10
14.9985003049000003
 20
6.4132977093999983
 30
0.0
 40
0.0393700787
 50
90.0
 51
146.1267076103999045
  0
ARC
  5
13DB
  8
0
 10
14.2644595322049899
 20
6.5589670007879599
 30
0.0
 40
0.0295275591120403
 50
90.0000000096788284
 51
180.0012519337294918
  0
ARC
  5
13DC
  8
0
 10
14.8556423541000004
 20
5.4175126922999999
 30
0.0
 40
0.3700787402
 50
107.5652529273998965
 51
146.0843121071999917
  0
ARC
  5
13DD
  8
0
 10
14.2644598548000001
 20
5.5865263785000003
 30
0.0
 40
0.0295278817017622
 50
179.9993740282941985
 51
269.9993740282910153
  0
ATTDEF
  5
13DE
  8
DEFPOINTS
 10
1.442950385894854
 20
8.0632287299254344
 30
0.0
 40
0.001
  1
TOWEL BAR
  3

  2
PRODUCT
 70
     0
1001
ACDBATTR
1070
     0
1070
     1
  0
ARC
  5
13E1
  8
0
 10
16.4475303982999996
 20
8.0727465283999962
 30
0.0
 40
0.2952750226171492
 50
0.0000000000003632
 51
179.9999722786425878
  0
LINE
  5
13E2
  8
0
 10
16.9987546339495914
 20
7.8480084853557708
 30
0.0
 11
16.998985499149601
 21
7.887950253155771
 31
0.0
  0
LINE
  5
13E3
  8
0
 10
17.0100303982496008
 20
8.2931068937557715
 30
0.0
 11
17.0100303982496008
 21
8.22475451876657
 31
0.0
  0
LINE
  5
13E4
  8
0
 10
17.0100303982496008
 20
7.9241251421557708
 30
0.0
 11
17.0100303982496008
 21
7.8519694497557699
 31
0.0
  0
LINE
  5
13E5
  8
0
 10
16.9989631823604093
 20
8.2609872353205791
 30
0.0
 11
16.9987546339495914
 21
8.2970678581557706
 31
0.0
  0
LINE
  5
13E6
  8
0
 10
15.8963061625495996
 20
8.2970678581557706
 30
0.0
 11
15.89609761485994
 21
8.2609872371378419
 31
0.0
  0
LINE
  5
13E7
  8
0
 10
15.8850303982495902
 20
7.8519694497557699
 30
0.0
 11
15.8850303982495902
 21
7.9207385384064644
 31
0.0
  0
LINE
  5
13E8
  8
0
 10
15.8850303982495902
 20
8.2247545183935298
 30
0.0
 11
15.8850303982495902
 21
8.2931068937557715
 31
0.0
  0
LINE
  5
13E9
  8
0
 10
15.8960951640197798
 20
7.8845129993120731
 30
0.0
 11
15.8963061625495996
 21
7.8480084853557708
 31
0.0
  0
LINE
  5
13EA
  8
0
 10
16.9960712571495911
 20
8.3035461029557691
 30
0.0
 11
16.9707597534923913
 21
8.3291519123987303
 31
0.0
  0
LINE
  5
13EB
  8
0
 10
16.6893123236495917
 20
8.6262513751557712
 30
0.0
 11
16.7373031346473802
 21
8.5782605641579845
 31
0.0
  0
LINE
  5
13EC
  8
0
 10
16.9530444340579898
 20
8.3625192647473732
 30
0.0
 11
17.0012436016495982
 21
8.3143200971557718
 31
0.0
  0
LINE
  5
13ED
  8
0
 10
16.70393097430469
 20
8.5959782396934195
 30
0.0
 11
16.6785383294495908
 21
8.6210790306557712
 31
0.0
  0
LINE
  5
13EE
  8
0
 10
17.0012436016495982
 20
7.8307562463557723
 30
0.0
 11
16.9493809989496
 21
7.7788936436557696
 31
0.0
  0
LINE
  5
13EF
  8
0
 10
16.968171749949601
 20
7.8133063346557696
 30
0.0
 11
16.9960712571495911
 21
7.8415302405557714
 31
0.0
  0
LINE
  5
13F0
  8
0
 10
15.8989895393495999
 20
7.8415302405557714
 30
0.0
 11
15.9247076226239894
 21
7.8155131240509323
 31
0.0
  0
LINE
  5
13F1
  8
0
 10
15.9425790274851096
 20
7.781994413720259
 30
0.0
 11
15.8938171948495999
 21
7.8307562463557723
 31
0.0
  0
LINE
  5
13F2
  8
0
 10
16.2165224670496002
 20
8.6210790306557712
 30
0.0
 11
16.1882985711495913
 21
8.5931795288557709
 31
0.0
  0
LINE
  5
13F3
  8
0
 10
15.8938171948495999
 20
8.3143200971557718
 30
0.0
 11
15.9420163626774105
 21
8.3625192649835842
 31
0.0
  0
LINE
  5
13F4
  8
0
 10
16.1538858701495904
 20
8.5743887724557712
 30
0.0
 11
16.2057483338495985
 21
8.6262512362557722
 31
0.0
  0
LINE
  5
13F5
  8
0
 10
15.9243010443385309
 20
8.3291519149105753
 30
0.0
 11
15.8989895393495999
 21
8.3035461029557691
 31
0.0
  0
LINE
  5
13F6
  8
0
 10
16.6364287229121501
 20
8.6239543857798591
 30
0.0
 11
16.6720600846495906
 21
8.6237624074557715
 31
0.0
  0
LINE
  5
13F7
  8
0
 10
16.2269616762495907
 20
8.635038171755772
 30
0.0
 11
16.2947534795889588
 21
8.635038171755772
 31
0.0
  0
LINE
  5
13F8
  8
0
 10
16.6003073170110405
 20
8.635038171755772
 30
0.0
 11
16.6680991202495896
 21
8.635038171755772
 31
0.0
  0
LINE
  5
13F9
  8
0
 10
16.2230007118496005
 20
8.6237624074557715
 30
0.0
 11
16.2586319951519087
 21
8.6239543588656744
 31
0.0
  0
ARC
  5
13FA
  8
0
 10
16.980030398249589
 20
7.8519694497557699
 30
0.0
 40
0.03
 50
314.9999999999998863
 51
0.0000000002000003
  0
ARC
  5
13FB
  8
0
 10
16.980030398249589
 20
8.2931068937557715
 30
0.0
 40
0.03
 50
0.000000000000007
 51
45.0000000003000835
  0
ARC
  5
13FC
  8
0
 10
16.6680991202495896
 20
8.6050381717557727
 30
0.0
 40
0.03
 50
45.0000000000000782
 51
90.0000000002000746
  0
ARC
  5
13FD
  8
0
 10
15.9150303982495895
 20
7.8519694497557699
 30
0.0
 40
0.03
 50
180.0
 51
225.0000000003001048
  0
ARC
  5
13FE
  8
0
 10
16.2269616762495907
 20
8.6050381717557727
 30
0.0
 40
0.03
 50
90.0
 51
135.0003753460001121
  0
ARC
  5
13FF
  8
0
 10
16.9883598050567812
 20
8.2965570471709675
 30
0.0
 40
0.0104073721055285
 50
2.8132939395235672
 51
42.1866964515003389
  0
ARC
  5
1400
  8
0
 10
16.6715492730082318
 20
8.6133675772443734
 30
0.0
 40
0.0104073735234567
 50
47.8133057451391608
 51
87.1866951084146251
  0
ARC
  5
1401
  8
0
 10
16.2235115231368212
 20
8.6133675778328431
 30
0.0
 40
0.0104073728495987
 50
92.813295405156893
 51
132.18669498586749
  0
ARC
  5
1402
  8
0
 10
15.9067009927609799
 20
8.2965570465144101
 30
0.0
 40
0.0104073735234478
 50
137.8133057451171908
 51
177.1866951084267043
  0
ARC
  5
1403
  8
0
 10
15.9067009919464102
 20
7.8485192966597248
 30
0.0
 40
0.0104073726932974
 50
182.8133032563856943
 51
222.1866958900619125
  0
ARC
  5
1404
  8
0
 10
15.9204437801469201
 20
8.2908645776562881
 30
0.0
 40
0.0354843007005149
 50
138.6230040465590037
 51
176.3769647296215908
  0
ARC
  5
1405
  8
0
 10
16.9883598043261586
 20
7.8485192968651054
 30
0.0
 40
0.0104073729297234
 50
317.8132963336813077
 51
357.1866956755333149
  0
ENDSEC
  0
EOF
