  0
SECTION
  2
HEADER
  9
$ACADVER
  1
AC1009
  9
$INSBASE
 10
527.0975236618219242
 20
92.3001439216080257
 30
0.0
  9
$EXTMIN
 10
513.5589375222730268
 20
88.1969576656604488
 30
-0.0015258207003583
  9
$EXTMAX
 10
540.6152719975716536
 20
92.3097544497684055
 30
0.0000000349246037
  9
$LIMMIN
 10
0.0
 20
0.0
  9
$LIMMAX
 10
11.6929133858000007
 20
8.2677165353999982
  9
$ORTHOMODE
 70
     0
  9
$REGENMODE
 70
     1
  9
$FILLMODE
 70
     1
  9
$QTEXTMODE
 70
     0
  9
$MIRRTEXT
 70
     0
  9
$DRAGMODE
 70
     2
  9
$LTSCALE
 40
0.6431102362
  9
$OSMODE
 70
  4095
  9
$ATTMODE
 70
     1
  9
$TEXTSIZE
 40
0.2
  9
$TRACEWID
 40
0.05
  9
$TEXTSTYLE
  7
STANDARD
  9
$CLAYER
  8
0
  9
$CELTYPE
  6
BYLAYER
  9
$CECOLOR
 62
   256
  9
$DIMSCALE
 40
1.0
  9
$DIMASZ
 40
0.1875
  9
$DIMEXO
 40
0.0625
  9
$DIMDLI
 40
0.4443307087
  9
$DIMRND
 40
0.0
  9
$DIMDLE
 40
0.0
  9
$DIMEXE
 40
0.125
  9
$DIMTP
 40
0.01
  9
$DIMTM
 40
0.01
  9
$DIMTXT
 40
1.0
  9
$DIMCEN
 40
0.1052362205
  9
$DIMTSZ
 40
0.0
  9
$DIMTOL
 70
     1
  9
$DIMLIM
 70
     0
  9
$DIMTIH
 70
     0
  9
$DIMTOH
 70
     1
  9
$DIMSE1
 70
     0
  9
$DIMSE2
 70
     0
  9
$DIMTAD
 70
     0
  9
$DIMZIN
 70
     0
  9
$DIMBLK
  1

  9
$DIMASO
 70
     1
  9
$DIMSHO
 70
     1
  9
$DIMPOST
  1
\X
  9
$DIMAPOST
  1

  9
$DIMALT
 70
     1
  9
$DIMALTD
 70
     2
  9
$DIMALTF
 40
25.3999999999999986
  9
$DIMLFAC
 40
1.0
  9
$DIMTOFL
 70
     0
  9
$DIMTVP
 40
0.0
  9
$DIMTIX
 70
     0
  9
$DIMSOXD
 70
     0
  9
$DIMSAH
 70
     0
  9
$DIMBLK1
  1

  9
$DIMBLK2
  1

  9
$DIMSTYLE
  2
STANDARD
  9
$DIMCLRD
 70
     0
  9
$DIMCLRE
 70
     0
  9
$DIMCLRT
 70
     0
  9
$DIMTFAC
 40
1.0
  9
$DIMGAP
 40
0.09
  9
$LUNITS
 70
     2
  9
$LUPREC
 70
     4
  9
$SKETCHINC
 40
0.1
  9
$FILLETRAD
 40
0.0
  9
$AUNITS
 70
     0
  9
$AUPREC
 70
     0
  9
$MENU
  1
.
  9
$ELEVATION
 40
0.0
  9
$PELEVATION
 40
0.0
  9
$THICKNESS
 40
0.0
  9
$LIMCHECK
 70
     0
  9
$BLIPMODE
 70
     0
  9
$CHAMFERA
 40
0.0
  9
$CHAMFERB
 40
0.0
  9
$SKPOLY
 70
     0
  9
$TDCREATE
 40
2458172.5207638889551163
  9
$TDUPDATE
 40
2459571.810428240802139
  9
$TDINDWG
 40
0.3272692361
  9
$TDUSRTIMER
 40
0.3272692361
  9
$USRTIMER
 70
     1
  9
$ANGBASE
 50
0.0
  9
$ANGDIR
 70
     0
  9
$PDMODE
 70
     0
  9
$PDSIZE
 40
0.3125
  9
$PLINEWID
 40
0.0
  9
$COORDS
 70
     1
  9
$SPLFRAME
 70
     0
  9
$SPLINETYPE
 70
     6
  9
$SPLINESEGS
 70
     8
  9
$ATTDIA
 70
     1
  9
$ATTREQ
 70
     1
  9
$HANDLING
 70
     1
  9
$HANDSEED
  5
8E1A
  9
$SURFTAB1
 70
     6
  9
$SURFTAB2
 70
     6
  9
$SURFTYPE
 70
     6
  9
$SURFU
 70
     6
  9
$SURFV
 70
     6
  9
$UCSNAME
  2

  9
$UCSORG
 10
0.0
 20
0.0
 30
0.0
  9
$UCSXDIR
 10
1.0
 20
0.0
 30
0.0
  9
$UCSYDIR
 10
0.0
 20
1.0
 30
0.0
  9
$PUCSNAME
  2

  9
$PUCSORG
 10
0.0
 20
0.0
 30
0.0
  9
$PUCSXDIR
 10
1.0
 20
0.0
 30
0.0
  9
$PUCSYDIR
 10
0.0
 20
1.0
 30
0.0
  9
$USERI1
 70
     0
  9
$USERI2
 70
     0
  9
$USERI3
 70
     0
  9
$USERI4
 70
     0
  9
$USERI5
 70
     0
  9
$USERR1
 40
0.0
  9
$USERR2
 40
0.0
  9
$USERR3
 40
0.0
  9
$USERR4
 40
0.0
  9
$USERR5
 40
0.0
  9
$WORLDVIEW
 70
     1
  9
$SHADEDGE
 70
     3
  9
$SHADEDIF
 70
    70
  9
$TILEMODE
 70
     1
  9
$MAXACTVP
 70
    64
  9
$PLIMCHECK
 70
     0
  9
$PEXTMIN
 10
1.0000000000000000E+20
 20
1.0000000000000000E+20
 30
1.0000000000000000E+20
  9
$PEXTMAX
 10
-1.0000000000000000E+20
 20
-1.0000000000000000E+20
 30
-1.0000000000000000E+20
  9
$PLIMMIN
 10
0.0
 20
0.0
  9
$PLIMMAX
 10
12.0
 20
9.0
  9
$UNITMODE
 70
     0
  9
$VISRETAIN
 70
     1
  9
$PLINEGEN
 70
     0
  9
$PSLTSCALE
 70
     1
  0
ENDSEC
  0
SECTION
  2
TABLES
  0
TABLE
  2
VPORT
 70
     1
  0
VPORT
  2
*ACTIVE
 70
     0
 10
0.0
 20
0.0
 11
1.0
 21
1.0
 12
-0.0103989021870348
 22
0.0007892268094167
 13
0.0
 23
0.0
 14
1.0
 24
1.0
 15
0.0
 25
0.0
 16
0.0
 26
0.0
 36
100.331802984504904
 17
527.0975036621092613
 27
90.2525668309050246
 37
0.0
 40
16.2720759643665893
 41
1.67063492063492
 42
50.0
 43
0.0
 44
0.0
 50
0.0
 51
0.0
 71
     0
 72
   100
 73
     1
 74
     1
 75
     0
 76
     0
 77
     0
 78
     0
  0
ENDTAB
  0
TABLE
  2
LTYPE
 70
     2
  0
LTYPE
  2
CONTINUOUS
 70
     0
  3
Solid line
 72
    65
 73
     0
 40
0.0
  0
LTYPE
  2
PHANTOM2
 70
     0
  3
___ _ _ ___ _ _ ___ _ _ ___ _ _
 72
    65
 73
     6
 40
1.25
 49
0.625
 49
-0.125
 49
0.125
 49
-0.125
 49
0.125
 49
-0.125
  0
ENDTAB
  0
TABLE
  2
LAYER
 70
     2
  0
LAYER
  2
0
 70
     0
 62
   255
  6
CONTINUOUS
  0
LAYER
  2
DEFPOINTS
 70
     0
 62
     7
  6
CONTINUOUS
  0
ENDTAB
  0
TABLE
  2
STYLE
 70
     1
  0
STYLE
  2
STANDARD
 70
     0
 40
0.0
 41
0.8
 50
0.0
 71
     0
 42
0.2
  3
txt
  4

  0
ENDTAB
  0
TABLE
  2
VIEW
 70
     0
  0
ENDTAB
  0
TABLE
  2
UCS
 70
     0
  0
ENDTAB
  0
TABLE
  2
APPID
 70
    10
  0
APPID
  2
ACAD
 70
     0
  0
APPID
  2
ACAD_MLEADERVER
 70
     0
  0
APPID
  2
ACAD_EXEMPT_FROM_CAD_STANDARDS
 70
     0
  0
APPID
  2
ACAD_DSTYLE_DIMJAG
 70
     0
  0
APPID
  2
ACAD_DSTYLE_DIMTALN
 70
     0
  0
APPID
  2
ACAD_NAV_VCDISPLAY
 70
     0
  0
APPID
  2
ACAECLAYERSTANDARD
 70
     0
  0
APPID
  2
ACCMTRANSPARENCY
 70
     0
  0
APPID
  2
DCO15
 70
     0
  0
APPID
  2
ACDBATTR
 70
     0
  0
ENDTAB
  0
TABLE
  2
DIMSTYLE
 70
     1
  0
DIMSTYLE
  2
STANDARD
 70
     0
  3

  4

  5

  6

  7

 40
1.0
 41
0.1875
 42
0.0625
 43
0.38
 44
0.125
 45
0.0
 46
0.0
 47
0.01
 48
0.01
140
0.15625
141
0.09
142
0.0
143
25.3999999999999986
144
1.0
145
0.0
146
1.0
147
0.09
 71
     1
 72
     0
 73
     1
 74
     1
 75
     0
 76
     0
 77
     0
 78
     4
170
     0
171
     2
172
     0
173
     0
174
     0
175
     0
176
     0
177
     0
178
     0
  0
ENDTAB
  0
ENDSEC
  0
SECTION
  2
BLOCKS
  0
BLOCK
  8
0
  2
$MODEL_SPACE
 70
     0
 10
0.0
 20
0.0
 30
0.0
  3
$MODEL_SPACE
  1

  0
ENDBLK
  5
21
  8
0
  0
BLOCK
 67
     1
  8
0
  2
$PAPER_SPACE
 70
     0
 10
0.0
 20
0.0
 30
0.0
  3
$PAPER_SPACE
  1

  0
ENDBLK
  5
1D
 67
     1
  8
0
  0
BLOCK
  8
0
  2
_FILLED
 70
     0
 10
0.0
 20
0.0
 30
0.0
  3
_FILLED
  1

  0
SOLID
  5
88C5
  8
0
  6
BYBLOCK
 62
     0
 10
0.0
 20
0.0
 30
0.0
 11
-1.0
 21
0.1666666667
 31
0.0
 12
-1.0
 22
-0.1666666667
 32
0.0
 13
-1.0
 23
-0.1666666667
 33
0.0
  0
ENDBLK
  5
88C6
  8
0
  6
BYBLOCK
 62
     0
  0
ENDSEC
  0
SECTION
  2
ENTITIES
  0
ATTDEF
  5
829
  8
DEFPOINTS
 10
527.0953920842250682
 20
92.3059372506772178
 30
0.0
 40
0.001
  1
K-72568
  3

  2
MODELNUMBER
 70
     0
1001
ACDBATTR
1070
     0
1070
     1
  0
ATTDEF
  5
82A
  8
DEFPOINTS
 10
527.0953920842250682
 20
92.3042705840105526
 30
0.0
 40
0.001
  1
ARTIFACTS
  3

  2
TRADENAME
 70
     0
1001
ACDBATTR
1070
     0
1070
     1
  0
ATTDEF
  5
82B
  8
DEFPOINTS
 10
527.0953920842250682
 20
92.3026039173438733
 30
0.0
 40
0.001
  1
TOWEL BAR
  3

  2
PRODUCT
 70
     0
1001
ACDBATTR
1070
     0
1070
     1
  0
LINE
  5
878E
  8
0
 10
536.8849576137414488
 20
88.3486421480079684
 30
0.0
 11
517.3100897097024244
 21
88.3486421480079827
 31
0.0
  0
LINE
  5
878F
  8
0
 10
536.8849576137414488
 20
89.2147838803079907
 30
0.0
 11
517.3100897097024244
 21
89.2147838803079907
 31
0.0
  0
LINE
  5
8790
  8
0
 10
515.4448089742345473
 20
89.5848626205080336
 30
0.0
 11
514.7495574121959407
 21
89.5848626205080336
 31
0.0
  0
LINE
  5
8791
  8
0
 10
515.4390583020750682
 20
89.6887996283080042
 30
0.0
 11
514.7431605315960041
 21
89.6887996283080042
 31
0.0
  0
LINE
  5
8792
  8
0
 10
513.9185527267959515
 20
91.8884504115080034
 30
0.0
 11
513.9185527267959515
 21
91.9505901786695148
 31
0.0
  0
LINE
  5
8793
  8
0
 10
514.53499124019595
 20
91.0184877313080136
 30
0.0
 11
514.53499124019595
 21
90.8622052262080047
 31
0.0
  0
LINE
  5
8794
  8
0
 10
514.5857352722960059
 20
91.1345711254358974
 30
0.0
 11
514.5857352722960059
 21
91.082582139008025
 31
0.0
  0
LINE
  5
8795
  8
0
 10
514.6053652559959346
 20
90.7214767937080069
 30
0.0
 11
514.6053652559959346
 21
90.7844689197080044
 31
0.0
  0
LINE
  5
8796
  8
0
 10
515.5600836879958706
 20
90.6919492346080034
 30
0.0
 11
514.6348928149959647
 21
90.6919492346080034
 31
0.0
  0
LINE
  5
8797
  8
0
 10
514.6348928149959647
 20
90.8139964787080061
 30
0.0
 11
514.602765937995855
 21
90.8139964787080061
 31
0.0
  0
LINE
  5
8798
  8
0
 10
514.7037904527959427
 20
90.6179198634080052
 30
0.0
 11
514.7037904527959427
 21
90.6624186858063155
 31
0.0
  0
LINE
  5
8799
  8
0
 10
514.7431605315960041
 20
89.6887996283080042
 30
0.0
 11
514.7431605315960041
 21
89.7714460877080001
 31
0.0
  0
LINE
  5
879A
  8
0
 10
514.8022156496957678
 20
89.5848626205080336
 30
0.0
 11
514.802215718478692
 21
88.7815927873309079
 31
0.0
  0
LINE
  5
879B
  8
0
 10
514.5929233108959124
 20
90.8166337739080092
 30
0.0
 11
514.5454912401959291
 21
90.8440186927080049
 31
0.0
  0
LINE
  5
879C
  8
0
 10
514.4935257127958721
 20
91.1647791601080115
 30
0.0
 11
514.5557354158487442
 21
91.164779570902013
 31
0.0
  0
LINE
  5
879D
  8
0
 10
514.5454912401959291
 20
91.0366742647080116
 30
0.0
 11
514.5659079351958098
 21
91.0484618491080084
 31
0.0
  0
LINE
  5
879E
  8
0
 10
516.2997308282275526
 20
91.9798143362080083
 30
0.0
 11
513.8953312677957683
 21
91.9798143362080083
 31
0.0
  0
LINE
  5
879F
  8
0
 10
513.5965541521152318
 20
92.3001439216080257
 30
0.0
 11
516.59845608147657
 21
92.3001439216080257
 31
0.0
  0
ARC
  5
87A0
  8
0
 10
514.6841054134957858
 20
89.7714460877080001
 30
0.0
 40
0.0590551181
 50
0.0
 51
55.0248542171697892
  0
ARC
  5
87A1
  8
0
 10
514.7495574121959407
 20
89.6370279748080065
 30
0.0
 40
0.0521653543
 50
97.0437382838010194
 51
270.0
  0
ARC
  5
87A2
  8
0
 10
514.9908051523959784
 20
90.209863356507995
 30
0.0
 40
0.4759910775
 50
130.3010399836360023
 51
235.0248542171445081
  0
ARC
  5
87A3
  8
0
 10
514.6447353346959517
 20
90.6179198634080052
 30
0.0
 40
0.0590551181
 50
310.3010399836343822
 51
0.0
  0
ARC
  5
87A4
  8
0
 10
514.5557360147959116
 20
91.1347795892080086
 30
0.0
 40
0.0299999817
 50
359.601860076841092
 51
90.0011439055990223
  0
ARC
  5
87A5
  8
0
 10
514.4944832529627092
 20
91.2556399492978159
 30
0.0
 40
0.0305038369565729
 50
98.2772421633251838
 51
130.2567230482891034
  0
ARC
  5
87A6
  8
0
 10
514.4935230399830743
 20
91.1947903858634277
 30
0.0
 40
0.0300112258743517
 50
228.5665253163716102
 51
270.0051027872045779
  0
ARC
  5
87A7
  8
0
 10
514.4858782038959362
 20
91.3155285395079943
 30
0.0
 40
0.0299998952
 50
278.0741476405960952
 51
336.3818164732006153
  0
ARC
  5
87A8
  8
0
 10
514.6348928149959647
 20
90.7844689197080044
 30
0.0
 40
0.0295275591
 50
90.0
 51
180.0
  0
ARC
  5
87A9
  8
0
 10
514.6348928149959647
 20
90.7214767937080069
 30
0.0
 40
0.0295275591
 50
180.0
 51
270.0
  0
ARC
  5
87AA
  8
0
 10
514.6742628937959125
 20
90.6624216756079875
 30
0.0
 40
0.0295275591
 50
359.9941985377549258
 51
90.0
  0
ARC
  5
87AB
  8
0
 10
514.6027658305976047
 20
90.8336815181126838
 30
0.0
 40
0.019685039404968
 50
240.0000000020843061
 51
270.0003125959271983
  0
ARC
  5
87AC
  8
0
 10
514.5582841349669252
 20
90.863529029901855
 30
0.0
 40
0.0233304822718308
 50
183.2527884672882124
 51
236.7472122725922929
  0
ARC
  5
87AD
  8
0
 10
514.5582841352049854
 20
91.0171639276395865
 30
0.0
 40
0.0233304825080305
 50
123.2527869394295976
 51
176.7472116282843899
  0
ARC
  5
87AE
  8
0
 10
514.5460066412533706
 20
91.0828475007200922
 30
0.0
 40
0.03972951725549
 50
300.0608591698738792
 51
359.6173067218948063
  0
ARC
  5
87AF
  8
0
 10
514.5178457238142755
 20
91.2251512801464202
 30
0.0
 40
0.0688940763896116
 50
128.6988787427721945
 51
230.1102616897020141
  0
ARC
  5
87B0
  8
0
 10
514.1732015713563442
 20
91.4271152317012223
 30
0.0
 40
0.3619249692395601
 50
340.0302851166359801
 51
67.2255014945672542
  0
ARC
  5
87B1
  8
0
 10
513.9485587485662563
 20
91.8884553579571133
 30
0.0
 40
0.0300060221780692
 50
180.009445125954386
 51
266.7615108347599175
  0
ARC
  5
87B2
  8
0
 10
513.8885527266393183
 20
91.9505901786695148
 30
0.0
 40
0.0300000000674413
 50
0.0
 51
76.9411714808214526
  0
ARC
  5
87B3
  8
0
 10
513.9787486658728994
 20
92.426525314844227
 30
0.0
 40
0.4544327901197295
 50
228.066489942674707
 51
259.4225911843630001
  0
ARC
  5
87B4
  8
0
 10
513.8868032031748498
 20
92.2873962614243339
 30
0.0
 40
0.2905288531151705
 50
177.485200925473606
 51
223.214155557331992
  0
ARC
  5
87B5
  8
0
 10
513.8587607587728598
 20
90.7917468369779073
 30
0.0
 40
1.070382441319603
 50
64.8711359848634004
 51
85.2786588355991455
  0
LINE
  5
87B6
  8
0
 10
514.5557354158487442
 20
91.164779570902013
 30
0.0
 11
515.6392464655956474
 21
91.1647795709079958
 31
0.0
  0
LINE
  5
87B7
  8
0
 10
515.7051291437655891
 20
91.2857867367953162
 30
0.0
 11
514.4900918246463561
 21
91.2858260293080122
 31
0.0
  0
ARC
  5
87B8
  8
0
 10
515.4868545358607435
 20
91.3676781025810385
 30
0.0
 40
0.5235051561578768
 50
252.1742107458530029
 51
287.7052032646018915
  0
ARC
  5
87B9
  8
0
 10
515.0987972492738436
 20
91.895290786998217
 30
0.0
 40
1.0509702913840111
 50
257.5252439445907839
 51
282.518333744010306
  0
ARC
  5
87BA
  8
0
 10
514.7100747933466209
 20
91.4089173016484438
 30
0.0
 40
0.5634850516090941
 50
253.3847961245041063
 51
286.6766027376569923
  0
ARC
  5
87BB
  8
0
 10
515.4868545358607435
 20
90.5130148548349496
 30
0.0
 40
0.5235051561578768
 50
72.2967871704889546
 51
107.8257892541468976
  0
ARC
  5
87BC
  8
0
 10
515.0987972492738436
 20
89.9854021704177569
 30
0.0
 40
1.0509702913840111
 50
77.481666255989694
 51
102.4747560554091024
  0
ARC
  5
87BD
  8
0
 10
514.7100747933466209
 20
90.471775655767587
 30
0.0
 40
0.5634850516090941
 50
73.3233972623430219
 51
106.6152038754893994
  0
ARC
  5
87BE
  8
0
 10
514.5598596231669717
 20
90.8810360367178163
 30
0.0
 40
0.0162742758147949
 50
184.4594452987471982
 51
227.9069549456609138
  0
ARC
  5
87BF
  8
0
 10
514.5598596179920605
 20
90.9996569176592232
 30
0.0
 40
0.0162742745337819
 50
132.0930241010564998
 51
175.540545736767001
  0
LINE
  5
87C0
  8
0
 10
514.5436346120958433
 20
91.0009223011079627
 30
0.0
 11
514.5436346157958951
 21
90.8797706557080431
 31
0.0
  0
LINE
  5
87C1
  8
0
 10
514.8717777380959433
 20
90.869132565808016
 30
0.0
 11
514.8717777379837344
 21
91.0115603916416234
 31
0.0
  0
LINE
  5
87C2
  8
0
 10
515.3265971641276337
 20
90.8693055277647233
 30
0.0
 11
515.3265971641276337
 21
91.0113874296512648
 31
0.0
  0
LINE
  5
87C3
  8
0
 10
516.2274125445023856
 20
89.1515527173080073
 30
0.0
 11
516.2274125445023856
 21
88.4118733110079944
 31
0.0
  0
LINE
  5
87C4
  8
0
 10
516.4400109697022572
 20
89.1616342740079943
 30
0.0
 11
516.4400109697022572
 21
88.4017917543080074
 31
0.0
  0
LINE
  5
87C5
  8
0
 10
516.5980714505024025
 20
88.4400194985080077
 30
0.0
 11
516.5980714505024025
 21
89.123406529807994
 31
0.0
  0
LINE
  5
87C6
  8
0
 10
517.0227668934023768
 20
88.2578851555079922
 30
0.0
 11
517.0227668934023768
 21
89.3055408728079954
 31
0.0
  0
LINE
  5
87C7
  8
0
 10
517.1454079798023713
 20
88.2336945497080052
 30
0.0
 11
517.1454079798023713
 21
89.3297314785079948
 31
0.0
  0
LINE
  5
87C8
  8
0
 10
517.3100897099023996
 20
88.2954925417079863
 30
0.0
 11
517.3100897099023996
 21
89.267933486607987
 31
0.0
  0
LINE
  5
87C9
  8
0
 10
517.1980396016023178
 20
88.2659649826079971
 30
0.0
 11
517.2805621508024387
 21
88.2659649826079971
 31
0.0
  0
LINE
  5
87CA
  8
0
 10
516.4400109697022572
 20
88.4017917543080074
 30
0.0
 11
516.5465213781023976
 21
88.4017917543080074
 31
0.0
  0
LINE
  5
87CB
  8
0
 10
515.0963009302539604
 20
88.4864374236956337
 30
0.0
 11
516.1683712585120247
 21
88.4864374236125713
 31
0.0
  0
LINE
  5
87CC
  8
0
 10
515.392761467053333
 20
89.0769883405857996
 30
0.0
 11
516.1683712453391308
 21
89.076988586024612
 31
0.0
  0
LINE
  5
87CD
  8
0
 10
516.4400109697022572
 20
89.1616342740079943
 30
0.0
 11
516.5465213781023976
 21
89.1616342740079943
 31
0.0
  0
LINE
  5
87CE
  8
0
 10
517.1980396016023178
 20
89.2974610456079745
 30
0.0
 11
517.2805621508024387
 21
89.2974610456079745
 31
0.0
  0
ARC
  5
87CF
  8
0
 10
516.6893793288023744
 20
88.126479178107985
 30
0.0
 40
0.3700787402
 50
33.9156878927994683
 51
72.4347470726013256
  0
ARC
  5
87D0
  8
0
 10
516.7357174355023517
 20
88.2728633542079848
 30
0.0
 40
0.2165354331
 50
72.4347470726013256
 51
129.4700055112988935
  0
ARC
  5
87D1
  8
0
 10
516.3339507941024067
 20
88.4118733110079944
 30
0.0
 40
0.1065382496
 50
180.0
 51
354.5700608436998209
  0
ARC
  5
87D2
  8
0
 10
516.6596867212024335
 20
88.3651944240080098
 30
0.0
 40
0.0969290119
 50
129.470005511204306
 51
146.1267076104005014
  0
ARC
  5
87D3
  8
0
 10
516.5465213781023976
 20
88.4411618330079961
 30
0.0
 40
0.0393700787
 50
270.0
 51
326.1267076103980003
  0
ARC
  5
87D4
  8
0
 10
516.6893793288023744
 20
89.4369468502079883
 30
0.0
 40
0.3700787402
 50
287.5652529273986033
 51
326.084312107200617
  0
ARC
  5
87D5
  8
0
 10
516.7357174355023517
 20
89.2905626741080027
 30
0.0
 40
0.2165354331
 50
230.5299944887009929
 51
287.5652529273986033
  0
ARC
  5
87D6
  8
0
 10
516.3339507941024067
 20
89.1515527173080073
 30
0.0
 40
0.1065382496
 50
5.429939156300259
 51
180.0
  0
ARC
  5
87D7
  8
0
 10
516.6596867212024335
 20
89.1982316043080061
 30
0.0
 40
0.0969290119
 50
213.8732923895994986
 51
230.5299944887956087
  0
ARC
  5
87D8
  8
0
 10
516.5465213781023976
 20
89.1222641952080039
 30
0.0
 40
0.0393700787
 50
33.8732923896013318
 51
90.0
  0
ARC
  5
87D9
  8
0
 10
516.86580616020251
 20
88.2451032210079944
 30
0.0
 40
0.157480315
 50
4.6555494410001739
 51
33.9156878929004293
  0
ARC
  5
87DA
  8
0
 10
517.087513195802444
 20
88.2631577035079857
 30
0.0
 40
0.0649606299
 50
184.6555494412000087
 51
333.0280652281996936
  0
ARC
  5
87DB
  8
0
 10
517.1980396016023178
 20
88.2069098645080061
 30
0.0
 40
0.0590551181
 50
90.0
 51
153.0280652286002976
  0
ARC
  5
87DC
  8
0
 10
517.2805621508024387
 20
88.2954925417079863
 30
0.0
 40
0.0295275591
 50
270.0
 51
0.0
  0
ARC
  5
87DD
  8
0
 10
516.86580616020251
 20
89.3183228073079931
 30
0.0
 40
0.157480315
 50
326.0843121070996062
 51
355.3444505589998244
  0
ARC
  5
87DE
  8
0
 10
517.087513195802444
 20
89.3002683248079734
 30
0.0
 40
0.0649606299
 50
26.9719347718002282
 51
175.344450558799906
  0
ARC
  5
87DF
  8
0
 10
517.1980396016023178
 20
89.3565161637079939
 30
0.0
 40
0.0590551181
 50
206.9719347713997024
 51
270.0
  0
ARC
  5
87E0
  8
0
 10
517.2805621508024387
 20
89.267933486607987
 30
0.0
 40
0.0295275591
 50
0.0
 51
90.0
  0
ARC
  5
87E1
  8
0
 10
515.0974913701852529
 20
88.7817106992333152
 30
0.0
 40
0.2952756752493922
 50
180.022879820823789
 51
0.4391458929169209
  0
LINE
  5
87E2
  8
0
 10
516.276453884927264
 20
91.8884380613709766
 30
0.0
 11
516.2764545358745636
 21
91.9505778285291058
 31
0.0
  0
LINE
  5
87E3
  8
0
 10
515.6600062582374449
 20
91.0184818387414083
 30
0.0
 11
515.6600046210947994
 21
90.8621993336499969
 31
0.0
  0
LINE
  5
87E4
  8
0
 10
515.6092634421759158
 20
91.1345657644337876
 30
0.0
 11
515.6092628975634398
 21
91.0825767780087432
 31
0.0
  0
LINE
  5
87E5
  8
0
 10
515.5896291310931474
 20
90.7214716383630986
 30
0.0
 11
515.5896297909694113
 21
90.784463764359657
 31
0.0
  0
LINE
  5
87E6
  8
0
 10
515.5601025412878471
 20
90.8139916326749841
 30
0.0
 11
515.5922294182861378
 21
90.8139912961287905
 31
0.0
  0
LINE
  5
87E7
  8
0
 10
515.4912028494843526
 20
90.6179157391252943
 30
0.0
 11
515.4912033156333564
 21
90.6624145615211461
 31
0.0
  0
LINE
  5
87E8
  8
0
 10
515.4518230376559131
 20
89.6887959164988757
 30
0.0
 11
515.4518239034216549
 21
89.7714423758943241
 31
0.0
  0
LINE
  5
87E9
  8
0
 10
515.3927668307634349
 20
89.5848595273384944
 30
0.0
 11
515.3927583724794204
 21
88.7839738298095114
 31
0.0
  0
LINE
  5
87EA
  8
0
 10
515.6020720730126641
 20
90.8166284882218946
 30
0.0
 11
515.6495044305817146
 21
90.8440129101440732
 31
0.0
  0
LINE
  5
87EB
  8
0
 10
515.7014733181160864
 20
91.1647728331598444
 30
0.0
 11
515.6392464655956474
 21
91.1647795709079958
 31
0.0
  0
LINE
  5
87EC
  8
0
 10
515.6495064487517084
 20
91.0366684821335213
 30
0.0
 11
515.6290898772341507
 21
91.0484562804086579
 31
0.0
  0
ARC
  5
87ED
  8
0
 10
515.5108790215184627
 20
89.7714417572604333
 30
0.0
 40
0.0590551181
 50
124.9745455789348938
 51
179.9993997961072125
  0
ARC
  5
87EE
  8
0
 10
515.4454256147205342
 20
89.6370243300124656
 30
0.0
 40
0.0521653543
 50
269.3226975891877828
 51
97.0110165032735239
  0
ARC
  5
87EF
  8
0
 10
515.2041838752902549
 20
90.209862238879964
 30
0.0
 40
0.4759910774999999
 50
304.9745455789665129
 51
49.6983598124731927
  0
ARC
  5
87F0
  8
0
 10
515.5502579675810466
 20
90.6179151204913751
 30
0.0
 40
0.0590551181
 50
179.9993997961072125
 51
229.6983598124737114
  0
ARC
  5
87F1
  8
0
 10
515.6392723556955389
 20
91.1347699738410881
 30
0.0
 40
0.030009608234954
 50
90.0494306229390844
 51
180.3898893763224862
  0
ARC
  5
87F2
  8
0
 10
515.7005167297644448
 20
91.2556336323754209
 30
0.0
 40
0.0305038369565729
 50
49.7426767478160272
 51
81.7221576327812187
  0
ARC
  5
87F3
  8
0
 10
515.7014763053125534
 20
91.1947840588856167
 30
0.0
 40
0.0300112258743517
 50
269.9942970089032883
 51
311.4328744797360855
  0
ARC
  5
87F4
  8
0
 10
515.709122406196002
 20
91.3155221324398241
 30
0.0
 40
0.0299998952
 50
203.6175833229067109
 51
261.9252521555094972
  0
ARC
  5
87F5
  8
0
 10
515.5601022319708591
 20
90.7844640736766024
 30
0.0
 40
0.0295275591
 50
359.9993997961072978
 51
89.9993997961040151
  0
ARC
  5
87F6
  8
0
 10
515.5601098254777526
 20
90.7214685289155227
 30
0.0
 40
0.0295193058790667
 50
269.9492681975373216
 51
0.0060353120690397
  0
ARC
  5
87F7
  8
0
 10
515.5207308746629451
 20
90.6624172420059011
 30
0.0
 40
0.0295275591
 50
89.9993997961040151
 51
180.0052012583520025
  0
ARC
  5
87F8
  8
0
 10
515.5922297318957135
 20
90.8336763355312655
 30
0.0
 40
0.019685039404968
 50
269.9990872001766888
 51
299.9993997940171084
  0
ARC
  5
87F9
  8
0
 10
515.6367117401924816
 20
90.8635233813492675
 30
0.0
 40
0.0233304822718308
 50
303.2521875235191828
 51
356.7466113288189149
  0
ARC
  5
87FA
  8
0
 10
515.6367133493621395
 20
91.0171582790785862
 30
0.0
 40
0.0233304825080305
 50
3.2521881678219131
 51
56.7466128566782331
  0
ARC
  5
87FB
  8
0
 10
515.6489915313835581
 20
91.0828417235421739
 30
0.0
 40
0.03972951725549
 50
180.3820930742122925
 51
239.9385406262321112
  0
ARC
  5
87FC
  8
0
 10
515.6771539395291484
 20
91.2251452079600398
 30
0.0
 40
0.0688940763896116
 50
309.889138106408609
 51
51.3005210533383718
  0
ARC
  5
87FD
  8
0
 10
516.0218002076485391
 20
91.4271055491721967
 30
0.0
 40
0.36192496923956
 50
112.7738983015440937
 51
199.9691146794696124
  0
ARC
  5
87FE
  8
0
 10
516.2464478632105056
 20
91.8884433221492003
 30
0.0
 40
0.0300060221780692
 50
273.2378889613464139
 51
359.9899546701531108
  0
ARC
  5
87FF
  8
0
 10
516.3064545360294915
 20
91.9505775142630739
 30
0.0
 40
0.0300000000674413
 50
98.4026491401310608
 51
179.9993997961072125
  0
ARC
  5
8800
  8
0
 10
516.2162635824755625
 20
92.4265135952622927
 30
0.0
 40
0.4544327901197294
 50
280.8840688415588147
 51
311.932902902036119
  0
ARC
  5
8801
  8
0
 10
516.3082075877174475
 20
92.2873835786722054
 30
0.0
 40
0.2905288531151704
 50
316.7852447637411046
 51
2.5173026791524311
  0
ARC
  5
8802
  8
0
 10
516.3362343643914301
 20
90.7917338605482769
 30
0.0
 40
1.070382441319603
 50
94.7207409605066317
 51
115.1282638112416947
  0
ARC
  5
8803
  8
0
 10
515.6351364353877216
 20
90.8810304046683513
 30
0.0
 40
0.0162742758147949
 50
312.1738660435485144
 51
4.4588715680166509
  0
ARC
  5
8804
  8
0
 10
515.6351376831800053
 20
90.9996512856032069
 30
0.0
 40
0.0162742745337819
 50
355.5399349604385861
 51
47.9142984841621029
  0
LINE
  5
8805
  8
0
 10
515.6513626757423481
 20
90.9983857291828286
 30
0.0
 11
515.6513614560909673
 21
90.8822956232607453
 31
0.0
  0
LINE
  5
8806
  8
0
 10
538.7502383494095284
 20
89.5848626205080336
 30
0.0
 11
539.4454899114480213
 21
89.5848626205080336
 31
0.0
  0
LINE
  5
8807
  8
0
 10
538.7559890215685527
 20
89.6887996283080042
 30
0.0
 11
539.4518867920479579
 21
89.6887996283080042
 31
0.0
  0
LINE
  5
8808
  8
0
 10
540.2764945968478969
 20
91.8884504115080034
 30
0.0
 11
540.2764945968478969
 21
91.9505901786695148
 31
0.0
  0
LINE
  5
8809
  8
0
 10
539.6600560834477847
 20
91.0184877313080136
 30
0.0
 11
539.6600560834477847
 21
90.8622052262080047
 31
0.0
  0
LINE
  5
880A
  8
0
 10
539.6093120513479562
 20
91.1345711254358974
 30
0.0
 11
539.6093120513479562
 21
91.082582139008025
 31
0.0
  0
LINE
  5
880B
  8
0
 10
539.5896820676480274
 20
90.7214767937080069
 30
0.0
 11
539.5896820676480274
 21
90.7844689197080044
 31
0.0
  0
LINE
  5
880C
  8
0
 10
538.6349636356480914
 20
90.6919492346080034
 30
0.0
 11
539.5601545086479973
 21
90.6919492346080034
 31
0.0
  0
LINE
  5
880D
  8
0
 10
539.5601545086479973
 20
90.8139964787080061
 30
0.0
 11
539.5922813856478797
 21
90.8139964787080061
 31
0.0
  0
LINE
  5
880E
  8
0
 10
539.4912568708480194
 20
90.6179198634080052
 30
0.0
 11
539.4912568708480194
 21
90.6624186858063155
 31
0.0
  0
LINE
  5
880F
  8
0
 10
539.4518867920479579
 20
89.6887996283080042
 30
0.0
 11
539.4518867920479579
 21
89.7714460877080001
 31
0.0
  0
LINE
  5
8810
  8
0
 10
539.3928316739478532
 20
89.5848626205080336
 30
0.0
 11
539.3928316051651564
 21
88.7815927873309079
 31
0.0
  0
LINE
  5
8811
  8
0
 10
539.6021240127479359
 20
90.8166337739080092
 30
0.0
 11
539.649556083448033
 21
90.8440186927080049
 31
0.0
  0
LINE
  5
8812
  8
0
 10
539.7015216108479763
 20
91.1647791601080115
 30
0.0
 11
539.6393119077952178
 21
91.164779570902013
 31
0.0
  0
LINE
  5
8813
  8
0
 10
539.649556083448033
 20
91.0366742647080116
 30
0.0
 11
539.6291393884480385
 21
91.0484618491080084
 31
0.0
  0
LINE
  5
8814
  8
0
 10
537.8953164954164095
 20
91.9798143362080083
 30
0.0
 11
540.2997160558478527
 21
91.9798143362080083
 31
0.0
  0
LINE
  5
8815
  8
0
 10
540.598493171528844
 20
92.3001439216080257
 30
0.0
 11
537.5965912421672783
 21
92.3001439216080257
 31
0.0
  0
ARC
  5
8816
  8
0
 10
539.5109419101479489
 20
89.7714460877080001
 30
0.0
 40
0.0590551181
 50
124.9751457828311061
 51
180.0
  0
ARC
  5
8817
  8
0
 10
539.4454899114480213
 20
89.6370279748080065
 30
0.0
 40
0.0521653543
 50
270.0
 51
82.9562617162055176
  0
ARC
  5
8818
  8
0
 10
539.2042421712479836
 20
90.209863356507995
 30
0.0
 40
0.4759910775
 50
304.9751457828617731
 51
49.698960016365028
  0
ARC
  5
8819
  8
0
 10
539.5503119889478967
 20
90.6179198634080052
 30
0.0
 40
0.0590551181
 50
180.0
 51
229.6989600163655894
  0
ARC
  5
881A
  8
0
 10
539.6393113088479367
 20
91.1347795892080086
 30
0.0
 40
0.0299999817
 50
89.9988560944075147
 51
180.398139923158908
  0
ARC
  5
881B
  8
0
 10
539.7005640706811391
 20
91.2556399492978159
 30
0.0
 40
0.0305038369565729
 50
49.7432769517038622
 51
81.7227578366814242
  0
ARC
  5
881C
  8
0
 10
539.7015242836610014
 20
91.1947903858634277
 30
0.0
 40
0.0300112258743517
 50
269.9948972127954221
 51
311.4334746836219097
  0
ARC
  5
881D
  8
0
 10
539.7091691197479122
 20
91.3155285395079943
 30
0.0
 40
0.0299998952
 50
203.618183526795093
 51
261.9258523594039048
  0
ARC
  5
881E
  8
0
 10
539.5601545086479973
 20
90.7844689197080044
 30
0.0
 40
0.0295275591
 50
0.0
 51
90.0
  0
ARC
  5
881F
  8
0
 10
539.5601545086479973
 20
90.7214767937080069
 30
0.0
 40
0.0295275591
 50
270.0
 51
0.0
  0
ARC
  5
8820
  8
0
 10
539.5207844298479358
 20
90.6624216756079875
 30
0.0
 40
0.0295275591
 50
90.0
 51
180.0058014622449889
  0
ARC
  5
8821
  8
0
 10
539.59228149304613
 20
90.8336815181126838
 30
0.0
 40
0.019685039404968
 50
269.999687404072688
 51
299.9999999979091854
  0
ARC
  5
8822
  8
0
 10
539.6367631886769232
 20
90.863529029901855
 30
0.0
 40
0.0233304822718308
 50
303.2527877274144998
 51
356.747211532712015
  0
ARC
  5
8823
  8
0
 10
539.6367631884387492
 20
91.0171639276395865
 30
0.0
 40
0.0233304825080305
 50
3.2527883717155821
 51
56.7472130605699121
  0
ARC
  5
8824
  8
0
 10
539.6490406823904777
 20
91.0828475007200922
 30
0.0
 40
0.03972951725549
 50
180.3826932781051937
 51
239.9391408301260924
  0
ARC
  5
8825
  8
0
 10
539.6772015998293455
 20
91.2251512801464202
 30
0.0
 40
0.0688940763896116
 50
309.8897383102975027
 51
51.3011212572262778
  0
ARC
  5
8826
  8
0
 10
540.0218457522876179
 20
91.4271152317012223
 30
0.0
 40
0.3619249692395601
 50
112.7744985054393965
 51
199.9697148833631957
  0
ARC
  5
8827
  8
0
 10
540.2464885750774783
 20
91.8884553579571133
 30
0.0
 40
0.0300060221780692
 50
273.2384891652400256
 51
359.9905548740454719
  0
ARC
  5
8828
  8
0
 10
540.3064945970045301
 20
91.9505901786695148
 30
0.0
 40
0.0300000000674413
 50
103.058828519185198
 51
180.0
  0
ARC
  5
8829
  8
0
 10
540.2162986577709489
 20
92.426525314844227
 30
0.0
 40
0.4544327901197295
 50
280.5774088156435937
 51
311.933510057325293
  0
ARC
  5
882A
  8
0
 10
540.3082441204689985
 20
92.2873962614243339
 30
0.0
 40
0.2905288531151705
 50
316.785844442666189
 51
2.5147990745257172
  0
ARC
  5
882B
  8
0
 10
540.3362865648708748
 20
90.7917468369779073
 30
0.0
 40
1.070382441319603
 50
94.7213411644008545
 51
115.1288640151365996
  0
LINE
  5
882C
  8
0
 10
539.6393119077952178
 20
91.164779570902013
 30
0.0
 11
538.5558008580479736
 21
91.1647795709079958
 31
0.0
  0
LINE
  5
882D
  8
0
 10
538.4899181798782593
 20
91.2857867367953162
 30
0.0
 11
539.7049554989972648
 21
91.2858260293080122
 31
0.0
  0
ARC
  5
882E
  8
0
 10
538.7081927877828775
 20
91.3676781025810385
 30
0.0
 40
0.5235051561578768
 50
252.2947967353914009
 51
287.825789254153392
  0
ARC
  5
882F
  8
0
 10
539.0962500743697774
 20
91.895290786998217
 30
0.0
 40
1.0509702913840111
 50
257.4816662559895803
 51
282.4747560554158099
  0
ARC
  5
8830
  8
0
 10
539.4849725302972274
 20
91.4089173016484438
 30
0.0
 40
0.5634850516090941
 50
253.3233972623430077
 51
286.6152038754960927
  0
ARC
  5
8831
  8
0
 10
538.7081927877828775
 20
90.5130148548349496
 30
0.0
 40
0.5235051561578768
 50
72.1742107458465938
 51
107.7032128295179945
  0
ARC
  5
8832
  8
0
 10
539.0962500743701185
 20
89.9854021704177569
 30
0.0
 40
1.0509702913840111
 50
77.5252439445973636
 51
102.518333744010306
  0
ARC
  5
8833
  8
0
 10
539.4849725302972274
 20
90.471775655767587
 30
0.0
 40
0.5634850516090941
 50
73.3847961245173082
 51
106.6766027376570065
  0
ARC
  5
8834
  8
0
 10
539.6351877004766493
 20
90.8810360367178163
 30
0.0
 40
0.0162742758147949
 50
312.093045054333686
 51
355.5405547012528018
  0
ARC
  5
8835
  8
0
 10
539.6351877056519015
 20
90.9996569176592232
 30
0.0
 40
0.0162742745337819
 50
4.4594542632329564
 51
47.9069758989381072
  0
LINE
  5
8836
  8
0
 10
539.6514127115481188
 20
91.0009223011079627
 30
0.0
 11
539.6514127078479532
 21
90.8797706557080431
 31
0.0
  0
LINE
  5
8837
  8
0
 10
539.3232695855481325
 20
90.869132565808016
 30
0.0
 11
539.3232695856602277
 21
91.0115603916416234
 31
0.0
  0
LINE
  5
8838
  8
0
 10
538.8684501595162146
 20
90.8693055277647233
 30
0.0
 11
538.8684501595162146
 21
91.0113874296512648
 31
0.0
  0
LINE
  5
8839
  8
0
 10
537.9676347791414628
 20
89.1515527173080073
 30
0.0
 11
537.9676347791414628
 21
88.4118733110079944
 31
0.0
  0
LINE
  5
883A
  8
0
 10
537.7550363539413638
 20
89.1616342740079943
 30
0.0
 11
537.7550363539413638
 21
88.4017917543080074
 31
0.0
  0
LINE
  5
883B
  8
0
 10
537.5969758731414458
 20
88.4400194985080077
 30
0.0
 11
537.5969758731414458
 21
89.123406529807994
 31
0.0
  0
LINE
  5
883C
  8
0
 10
537.1722804302413579
 20
88.2578851555079922
 30
0.0
 11
537.1722804302413579
 21
89.3055408728079954
 31
0.0
  0
LINE
  5
883D
  8
0
 10
537.0496393438415907
 20
88.2336945497080052
 30
0.0
 11
537.0496393438415907
 21
89.3297314785079948
 31
0.0
  0
LINE
  5
883E
  8
0
 10
536.8849576137414488
 20
88.2954925417079863
 30
0.0
 11
536.8849576137414488
 21
89.267933486607987
 31
0.0
  0
LINE
  5
883F
  8
0
 10
536.9970077220414169
 20
88.2659649826079971
 30
0.0
 11
536.9144851728415233
 21
88.2659649826079971
 31
0.0
  0
LINE
  5
8840
  8
0
 10
537.7550363539413638
 20
88.4017917543080074
 30
0.0
 11
537.6485259455414507
 21
88.4017917543080074
 31
0.0
  0
LINE
  5
8841
  8
0
 10
539.0987463933896606
 20
88.4864374236956337
 30
0.0
 11
538.0263659074378211
 21
88.4864374236125428
 31
0.0
  0
LINE
  5
8842
  8
0
 10
538.8022858565907427
 20
89.0769883405857996
 30
0.0
 11
538.0266389750706821
 21
89.076988586036336
 31
0.0
  0
LINE
  5
8843
  8
0
 10
537.7550363539413638
 20
89.1616342740079943
 30
0.0
 11
537.6485259455414507
 21
89.1616342740079943
 31
0.0
  0
LINE
  5
8844
  8
0
 10
536.9970077220414169
 20
89.2974610456079745
 30
0.0
 11
536.9144851728415233
 21
89.2974610456079745
 31
0.0
  0
ARC
  5
8845
  8
0
 10
537.505667994841474
 20
88.126479178107985
 30
0.0
 40
0.3700787402
 50
107.5652529274055951
 51
146.0843121071993949
  0
ARC
  5
8846
  8
0
 10
537.4593298881416104
 20
88.2728633542079848
 30
0.0
 40
0.2165354331
 50
50.5299944886944701
 51
107.5652529274055951
  0
ARC
  5
8847
  8
0
 10
537.8610965295415554
 20
88.4118733110079944
 30
0.0
 40
0.1065382496
 50
185.4299391563002075
 51
0.0
  0
ARC
  5
8848
  8
0
 10
537.5353606024414148
 20
88.3651944240080098
 30
0.0
 40
0.0969290119
 50
33.8732923895970188
 51
50.5299944887941521
  0
ARC
  5
8849
  8
0
 10
537.6485259455414507
 20
88.4411618330079961
 30
0.0
 40
0.0393700787
 50
213.8732923895989018
 51
270.0
  0
ARC
  5
884A
  8
0
 10
537.505667994841474
 20
89.4369468502079883
 30
0.0
 40
0.3700787402
 50
213.9156878928006051
 51
252.4347470725944049
  0
ARC
  5
884B
  8
0
 10
537.4593298881416104
 20
89.2905626741080027
 30
0.0
 40
0.2165354331
 50
252.4347470725944049
 51
309.4700055113054873
  0
ARC
  5
884C
  8
0
 10
537.8610965295415554
 20
89.1515527173080073
 30
0.0
 40
0.1065382496
 50
0.0
 51
174.5700608436997072
  0
ARC
  5
884D
  8
0
 10
537.5353606024414148
 20
89.1982316043080061
 30
0.0
 40
0.0969290119
 50
309.4700055112057839
 51
326.1267076104030025
  0
ARC
  5
884E
  8
0
 10
537.6485259455414507
 20
89.1222641952080039
 30
0.0
 40
0.0393700787
 50
90.0
 51
146.1267076104010982
  0
ARC
  5
884F
  8
0
 10
537.329241163441452
 20
88.2451032210079944
 30
0.0
 40
0.157480315
 50
146.0843121071033863
 51
175.3444505589999949
  0
ARC
  5
8850
  8
0
 10
537.1075341278415181
 20
88.2631577035079857
 30
0.0
 40
0.0649606299
 50
206.9719347718009033
 51
355.3444505587991102
  0
ARC
  5
8851
  8
0
 10
536.9970077220414169
 20
88.2069098645080061
 30
0.0
 40
0.0590551181
 50
26.9719347713996704
 51
90.0
  0
ARC
  5
8852
  8
0
 10
536.9144851728415233
 20
88.2954925417079863
 30
0.0
 40
0.0295275591
 50
180.0
 51
270.0
  0
ARC
  5
8853
  8
0
 10
537.329241163441452
 20
89.3183228073079931
 30
0.0
 40
0.157480315
 50
184.6555494409998914
 51
213.9156878928966137
  0
ARC
  5
8854
  8
0
 10
537.1075341278415181
 20
89.3002683248079734
 30
0.0
 40
0.0649606299
 50
4.6555494412008702
 51
153.0280652281990115
  0
ARC
  5
8855
  8
0
 10
536.9970077220414169
 20
89.3565161637079939
 30
0.0
 40
0.0590551181
 50
270.0
 51
333.028065228600326
  0
ARC
  5
8856
  8
0
 10
536.9144851728415233
 20
89.267933486607987
 30
0.0
 40
0.0295275591
 50
90.0
 51
180.0
  0
ARC
  5
8857
  8
0
 10
539.0975559534584818
 20
88.7817106992333152
 30
0.0
 40
0.2952756752493922
 50
179.5608541070830881
 51
359.9771201791753015
  0
LINE
  5
8858
  8
0
 10
537.918593438716357
 20
91.8884380613709766
 30
0.0
 11
537.9185927877691711
 21
91.9505778285291058
 31
0.0
  0
LINE
  5
8859
  8
0
 10
538.5350410654064035
 20
91.0184818387414083
 30
0.0
 11
538.5350427025491626
 21
90.8621993336499969
 31
0.0
  0
LINE
  5
885A
  8
0
 10
538.5857838814680463
 20
91.1345657644337876
 30
0.0
 11
538.5857844260804086
 21
91.0825767780087432
 31
0.0
  0
LINE
  5
885B
  8
0
 10
538.6054181925508146
 20
90.7214716383630986
 30
0.0
 11
538.6054175326745508
 21
90.784463764359657
 31
0.0
  0
LINE
  5
885C
  8
0
 10
538.634944782356115
 20
90.8139916326749841
 30
0.0
 11
538.6028179053578242
 21
90.8139912961287905
 31
0.0
  0
LINE
  5
885D
  8
0
 10
538.7038444741594958
 20
90.6179157391252943
 30
0.0
 11
538.703844008010492
 21
90.6624145615211461
 31
0.0
  0
LINE
  5
885E
  8
0
 10
538.7432242859880489
 20
89.6887959164988757
 30
0.0
 11
538.7432234202220798
 21
89.7714423758943241
 31
0.0
  0
LINE
  5
885F
  8
0
 10
538.8022804928805272
 20
89.5848595273384944
 30
0.0
 11
538.8022889511646554
 21
88.7839738298095114
 31
0.0
  0
LINE
  5
8860
  8
0
 10
538.592975250631298
 20
90.8166284882218946
 30
0.0
 11
538.5455428930622475
 21
90.8440129101440732
 31
0.0
  0
LINE
  5
8861
  8
0
 10
538.4935740055276483
 20
91.1647728331598444
 30
0.0
 11
538.5558008580483147
 21
91.1647795709079958
 31
0.0
  0
LINE
  5
8862
  8
0
 10
538.54554087489214
 20
91.0366684821335213
 30
0.0
 11
538.5659574464098114
 21
91.0484562804086579
 31
0.0
  0
ARC
  5
8863
  8
0
 10
538.6841683021254994
 20
89.7714417572604333
 30
0.0
 40
0.0590551181
 50
0.0006002038927318
 51
55.0254544210651204
  0
ARC
  5
8864
  8
0
 10
538.7496217089235415
 20
89.6370243300124656
 30
0.0
 40
0.0521653543
 50
82.9889834967330557
 51
270.6773024108122172
  0
ARC
  5
8865
  8
0
 10
538.9908634483535934
 20
90.209862238879964
 30
0.0
 40
0.4759910774999999
 50
130.3016401875333088
 51
235.0254544210334871
  0
ARC
  5
8866
  8
0
 10
538.6447893560626881
 20
90.6179151204913751
 30
0.0
 40
0.0590551181
 50
310.3016401875191832
 51
0.0006002038927318
  0
ARC
  5
8867
  8
0
 10
538.5557749679485369
 20
91.1347699738410881
 30
0.0
 40
0.030009608234954
 50
359.6101106236774854
 51
89.9505693770673957
  0
ARC
  5
8868
  8
0
 10
538.4945305938791762
 20
91.2556336323754209
 30
0.0
 40
0.0305038369565729
 50
98.2778423672122301
 51
130.2573232521839941
  0
ARC
  5
8869
  8
0
 10
538.4935710183311812
 20
91.1947840588856167
 30
0.0
 40
0.0300112258743517
 50
228.5671255202709062
 51
270.0057029910967117
  0
ARC
  5
886A
  8
0
 10
538.4859249174479601
 20
91.3155221324398241
 30
0.0
 40
0.0299998952
 50
278.0747478444903891
 51
336.382416677091328
  0
ARC
  5
886B
  8
0
 10
538.6349450916728756
 20
90.7844640736766024
 30
0.0
 40
0.0295275591
 50
90.0006002039024935
 51
180.0006002038927022
  0
ARC
  5
886C
  8
0
 10
538.6349374981660958
 20
90.7214685289155227
 30
0.0
 40
0.0295193058790667
 50
179.9939646879309123
 51
270.0507318024626784
  0
ARC
  5
886D
  8
0
 10
538.6743164489806759
 20
90.6624172420059011
 30
0.0
 40
0.0295275591
 50
359.994798741648026
 51
90.0006002039024935
  0
ARC
  5
886E
  8
0
 10
538.6028175917482486
 20
90.8336763355312655
 30
0.0
 40
0.019685039404968
 50
240.0006002059757009
 51
270.0009127998167742
  0
ARC
  5
886F
  8
0
 10
538.5583355834512531
 20
90.8635233813492675
 30
0.0
 40
0.0233304822718308
 50
183.2533886711811135
 51
236.7478124764803908
  0
ARC
  5
8870
  8
0
 10
538.5583339742818225
 20
91.0171582790785862
 30
0.0
 40
0.0233304825080305
 50
123.2533871433284958
 51
176.7478118321770921
  0
ARC
  5
8871
  8
0
 10
538.5460557922604039
 20
91.0828417235421739
 30
0.0
 40
0.03972951725549
 50
300.0614593737678888
 51
359.617906925787679
  0
ARC
  5
8872
  8
0
 10
538.5178933841148137
 20
91.2251452079600398
 30
0.0
 40
0.0688940763896116
 50
128.6994789466681937
 51
230.1108618935984964
  0
ARC
  5
8873
  8
0
 10
538.1732471159953093
 20
91.4271055491721967
 30
0.0
 40
0.36192496923956
 50
340.0308853205303876
 51
67.2261016984558637
  0
ARC
  5
8874
  8
0
 10
537.9485994604333428
 20
91.8884433221492003
 30
0.0
 40
0.0300060221780692
 50
180.0100453298468892
 51
266.7621110386535861
  0
ARC
  5
8875
  8
0
 10
537.8885927876142432
 20
91.9505775142630739
 30
0.0
 40
0.0300000000674413
 50
0.0006002038927318
 51
81.5973508598625017
  0
ARC
  5
8876
  8
0
 10
537.9787837411680584
 20
92.4265135952622927
 30
0.0
 40
0.4544327901197294
 50
228.0670970979639094
 51
259.115931158441299
  0
ARC
  5
8877
  8
0
 10
537.8868397359261735
 20
92.2873835786722054
 30
0.0
 40
0.2905288531151704
 50
177.4826973208475067
 51
223.2147552362600891
  0
ARC
  5
8878
  8
0
 10
537.8588129592526457
 20
90.7917338605482769
 30
0.0
 40
1.070382441319603
 50
64.8717361887513562
 51
85.2792590394933541
  0
ARC
  5
8879
  8
0
 10
538.5599108882561268
 20
90.8810304046683513
 30
0.0
 40
0.0162742758147949
 50
175.5411284319833101
 51
227.8261339564461139
  0
ARC
  5
887A
  8
0
 10
538.5599096404639567
 20
90.9996512856032069
 30
0.0
 40
0.0162742745337819
 50
132.0857015158373997
 51
184.4600650395603054
  0
LINE
  5
887B
  8
0
 10
538.543684647901614
 20
90.9983857291828286
 30
0.0
 11
538.5436858675529948
 21
90.8822956232607453
 31
0.0
  0
LINE
  5
887C
  8
0
 10
538.634944782356115
 20
90.8139916327749859
 30
0.0
 11
539.5601545086479973
 21
90.8139964788079936
 31
0.0
  0
LINE
  5
887D
  8
0
 10
515.5601025410880993
 20
90.8139916327749859
 30
0.0
 11
514.6348928147959896
 21
90.8139964788079936
 31
0.0
  0
ARC
  5
8AAF
  8
0
 10
516.1683712266514021
 20
89.1360437360191753
 30
0.0
 40
0.0590551499945698
 50
270.0000181310302878
 51
358.759884995604807
  0
ARC
  5
8AB0
  8
0
 10
516.1683712585073636
 20
88.4273823054136585
 30
0.0
 40
0.0590551181943606
 50
1.240117843066652
 51
89.999999962656517
  0
ARC
  5
8AB1
  8
0
 10
538.026640095646485
 20
88.4273818014569599
 30
0.0
 40
0.0590562586637175
 50
90.266015556307778
 51
177.6200131299937937
  0
ARC
  5
8AB2
  8
0
 10
538.0266758832017331
 20
89.1361353153273512
 30
0.0
 40
0.0591467408065254
 50
183.424872341599098
 51
269.9642468602518761
  0
ENDSEC
  0
EOF
