  0
SECTION
  2
HEADER
  9
$ACADVER
  1
AC1009
  9
$INSBASE
 10
484.8424678665679153
 20
98.2362649409163424
 30
0.0
  9
$EXTMIN
 10
471.3262628749068881
 20
95.6467008632779709
 30
-0.0015258207003583
  9
$EXTMAX
 10
498.358914157292304
 20
99.7405402440105888
 30
0.0000000349246037
  9
$LIMMIN
 10
0.0
 20
0.0
  9
$LIMMAX
 10
11.6929133858000007
 20
8.2677165353999982
  9
$ORTHOMODE
 70
     0
  9
$REGENMODE
 70
     1
  9
$FILLMODE
 70
     1
  9
$QTEXTMODE
 70
     0
  9
$MIRRTEXT
 70
     0
  9
$DRAGMODE
 70
     2
  9
$LTSCALE
 40
0.6431102362
  9
$OSMODE
 70
  4095
  9
$ATTMODE
 70
     1
  9
$TEXTSIZE
 40
0.2
  9
$TRACEWID
 40
0.05
  9
$TEXTSTYLE
  7
STANDARD
  9
$CLAYER
  8
0
  9
$CELTYPE
  6
BYLAYER
  9
$CECOLOR
 62
   256
  9
$DIMSCALE
 40
1.0
  9
$DIMASZ
 40
0.1875
  9
$DIMEXO
 40
0.0625
  9
$DIMDLI
 40
0.4443307087
  9
$DIMRND
 40
0.0
  9
$DIMDLE
 40
0.0
  9
$DIMEXE
 40
0.125
  9
$DIMTP
 40
0.01
  9
$DIMTM
 40
0.01
  9
$DIMTXT
 40
1.0
  9
$DIMCEN
 40
0.1052362205
  9
$DIMTSZ
 40
0.0
  9
$DIMTOL
 70
     1
  9
$DIMLIM
 70
     0
  9
$DIMTIH
 70
     0
  9
$DIMTOH
 70
     1
  9
$DIMSE1
 70
     0
  9
$DIMSE2
 70
     0
  9
$DIMTAD
 70
     0
  9
$DIMZIN
 70
     0
  9
$DIMBLK
  1

  9
$DIMASO
 70
     1
  9
$DIMSHO
 70
     1
  9
$DIMPOST
  1
\X
  9
$DIMAPOST
  1

  9
$DIMALT
 70
     1
  9
$DIMALTD
 70
     2
  9
$DIMALTF
 40
25.3999999999999986
  9
$DIMLFAC
 40
1.0
  9
$DIMTOFL
 70
     0
  9
$DIMTVP
 40
0.0
  9
$DIMTIX
 70
     0
  9
$DIMSOXD
 70
     0
  9
$DIMSAH
 70
     0
  9
$DIMBLK1
  1

  9
$DIMBLK2
  1

  9
$DIMSTYLE
  2
STANDARD
  9
$DIMCLRD
 70
     0
  9
$DIMCLRE
 70
     0
  9
$DIMCLRT
 70
     0
  9
$DIMTFAC
 40
1.0
  9
$DIMGAP
 40
0.09
  9
$LUNITS
 70
     2
  9
$LUPREC
 70
     4
  9
$SKETCHINC
 40
0.1
  9
$FILLETRAD
 40
0.0
  9
$AUNITS
 70
     0
  9
$AUPREC
 70
     0
  9
$MENU
  1
.
  9
$ELEVATION
 40
0.0
  9
$PELEVATION
 40
0.0
  9
$THICKNESS
 40
0.0
  9
$LIMCHECK
 70
     0
  9
$BLIPMODE
 70
     0
  9
$CHAMFERA
 40
0.0
  9
$CHAMFERB
 40
0.0
  9
$SKPOLY
 70
     0
  9
$TDCREATE
 40
2458172.5207638889551163
  9
$TDUPDATE
 40
2459571.8109143520705402
  9
$TDINDWG
 40
0.3271997917
  9
$TDUSRTIMER
 40
0.3271997917
  9
$USRTIMER
 70
     1
  9
$ANGBASE
 50
0.0
  9
$ANGDIR
 70
     0
  9
$PDMODE
 70
     0
  9
$PDSIZE
 40
0.3125
  9
$PLINEWID
 40
0.0
  9
$COORDS
 70
     1
  9
$SPLFRAME
 70
     0
  9
$SPLINETYPE
 70
     6
  9
$SPLINESEGS
 70
     8
  9
$ATTDIA
 70
     1
  9
$ATTREQ
 70
     1
  9
$HANDLING
 70
     1
  9
$HANDSEED
  5
89B6
  9
$SURFTAB1
 70
     6
  9
$SURFTAB2
 70
     6
  9
$SURFTYPE
 70
     6
  9
$SURFU
 70
     6
  9
$SURFV
 70
     6
  9
$UCSNAME
  2

  9
$UCSORG
 10
0.0
 20
0.0
 30
0.0
  9
$UCSXDIR
 10
1.0
 20
0.0
 30
0.0
  9
$UCSYDIR
 10
0.0
 20
1.0
 30
0.0
  9
$PUCSNAME
  2

  9
$PUCSORG
 10
0.0
 20
0.0
 30
0.0
  9
$PUCSXDIR
 10
1.0
 20
0.0
 30
0.0
  9
$PUCSYDIR
 10
0.0
 20
1.0
 30
0.0
  9
$USERI1
 70
     0
  9
$USERI2
 70
     0
  9
$USERI3
 70
     0
  9
$USERI4
 70
     0
  9
$USERI5
 70
     0
  9
$USERR1
 40
0.0
  9
$USERR2
 40
0.0
  9
$USERR3
 40
0.0
  9
$USERR4
 40
0.0
  9
$USERR5
 40
0.0
  9
$WORLDVIEW
 70
     1
  9
$SHADEDGE
 70
     3
  9
$SHADEDIF
 70
    70
  9
$TILEMODE
 70
     1
  9
$MAXACTVP
 70
    64
  9
$PLIMCHECK
 70
     0
  9
$PEXTMIN
 10
1.0000000000000000E+20
 20
1.0000000000000000E+20
 30
1.0000000000000000E+20
  9
$PEXTMAX
 10
-1.0000000000000000E+20
 20
-1.0000000000000000E+20
 30
-1.0000000000000000E+20
  9
$PLIMMIN
 10
0.0
 20
0.0
  9
$PLIMMAX
 10
12.0
 20
9.0
  9
$UNITMODE
 70
     0
  9
$VISRETAIN
 70
     1
  9
$PLINEGEN
 70
     0
  9
$PSLTSCALE
 70
     1
  0
ENDSEC
  0
SECTION
  2
TABLES
  0
TABLE
  2
VPORT
 70
     1
  0
VPORT
  2
*ACTIVE
 70
     0
 10
0.0
 20
0.0
 11
1.0
 21
1.0
 12
0.0001202543809296
 22
-0.0013409942072826
 13
0.0
 23
0.0
 14
1.0
 24
1.0
 15
0.0
 25
0.0
 16
0.0
 26
0.0
 36
100.317206664565802
 17
484.8424682617186932
 27
97.6949615478515767
 37
0.0
 40
16.257832545158589
 41
1.67063492063492
 42
50.0
 43
0.0
 44
0.0
 50
0.0
 51
0.0
 71
     0
 72
   100
 73
     1
 74
     1
 75
     0
 76
     0
 77
     0
 78
     0
  0
ENDTAB
  0
TABLE
  2
LTYPE
 70
     2
  0
LTYPE
  2
CONTINUOUS
 70
     0
  3
Solid line
 72
    65
 73
     0
 40
0.0
  0
LTYPE
  2
PHANTOM2
 70
     0
  3
___ _ _ ___ _ _ ___ _ _ ___ _ _
 72
    65
 73
     6
 40
1.25
 49
0.625
 49
-0.125
 49
0.125
 49
-0.125
 49
0.125
 49
-0.125
  0
ENDTAB
  0
TABLE
  2
LAYER
 70
     2
  0
LAYER
  2
0
 70
     0
 62
   255
  6
CONTINUOUS
  0
LAYER
  2
DEFPOINTS
 70
     0
 62
     7
  6
CONTINUOUS
  0
ENDTAB
  0
TABLE
  2
STYLE
 70
     1
  0
STYLE
  2
STANDARD
 70
     0
 40
0.0
 41
0.8
 50
0.0
 71
     0
 42
0.2
  3
txt
  4

  0
ENDTAB
  0
TABLE
  2
VIEW
 70
     0
  0
ENDTAB
  0
TABLE
  2
UCS
 70
     0
  0
ENDTAB
  0
TABLE
  2
APPID
 70
    10
  0
APPID
  2
ACAD
 70
     0
  0
APPID
  2
ACAD_MLEADERVER
 70
     0
  0
APPID
  2
ACAD_EXEMPT_FROM_CAD_STANDARDS
 70
     0
  0
APPID
  2
ACAD_DSTYLE_DIMJAG
 70
     0
  0
APPID
  2
ACAD_DSTYLE_DIMTALN
 70
     0
  0
APPID
  2
ACAD_NAV_VCDISPLAY
 70
     0
  0
APPID
  2
ACAECLAYERSTANDARD
 70
     0
  0
APPID
  2
ACCMTRANSPARENCY
 70
     0
  0
APPID
  2
DCO15
 70
     0
  0
APPID
  2
ACDBATTR
 70
     0
  0
ENDTAB
  0
TABLE
  2
DIMSTYLE
 70
     1
  0
DIMSTYLE
  2
STANDARD
 70
     0
  3

  4

  5

  6

  7

 40
1.0
 41
0.1875
 42
0.0625
 43
0.38
 44
0.125
 45
0.0
 46
0.0
 47
0.01
 48
0.01
140
0.15625
141
0.09
142
0.0
143
25.3999999999999986
144
1.0
145
0.0
146
1.0
147
0.09
 71
     1
 72
     0
 73
     1
 74
     1
 75
     0
 76
     0
 77
     0
 78
     4
170
     0
171
     2
172
     0
173
     0
174
     0
175
     0
176
     0
177
     0
178
     0
  0
ENDTAB
  0
ENDSEC
  0
SECTION
  2
BLOCKS
  0
BLOCK
  8
0
  2
$MODEL_SPACE
 70
     0
 10
0.0
 20
0.0
 30
0.0
  3
$MODEL_SPACE
  1

  0
ENDBLK
  5
21
  8
0
  0
BLOCK
 67
     1
  8
0
  2
$PAPER_SPACE
 70
     0
 10
0.0
 20
0.0
 30
0.0
  3
$PAPER_SPACE
  1

  0
ENDBLK
  5
1D
 67
     1
  8
0
  0
BLOCK
  8
0
  2
_FILLED
 70
     0
 10
0.0
 20
0.0
 30
0.0
  3
_FILLED
  1

  0
SOLID
  5
8521
  8
0
  6
BYBLOCK
 62
     0
 10
0.0
 20
0.0
 30
0.0
 11
-1.0
 21
0.1666666667
 31
0.0
 12
-1.0
 22
-0.1666666667
 32
0.0
 13
-1.0
 23
-0.1666666667
 33
0.0
  0
ENDBLK
  5
8522
  8
0
  6
BYBLOCK
 62
     0
  0
ENDSEC
  0
SECTION
  2
ENTITIES
  0
ATTDEF
  5
829
  8
DEFPOINTS
 10
484.8391492552528916
 20
98.2418937628557671
 30
0.0
 40
0.001
  1
K-72568
  3

  2
MODELNUMBER
 70
     0
1001
ACDBATTR
1070
     0
1070
     1
  0
ATTDEF
  5
82A
  8
DEFPOINTS
 10
484.8391492552528916
 20
98.240227096189102
 30
0.0
 40
0.001
  1
ARTIFACTS
  3

  2
TRADENAME
 70
     0
1001
ACDBATTR
1070
     0
1070
     1
  0
ATTDEF
  5
82B
  8
DEFPOINTS
 10
484.8391492552528916
 20
98.2385604295224368
 30
0.0
 40
0.001
  1
TOWEL BAR
  3

  2
PRODUCT
 70
     0
1001
ACDBATTR
1070
     0
1070
     1
  0
LINE
  5
848A
  8
0
 10
472.5471740095989048
 20
97.0744540655033177
 30
0.0
 11
472.547174010292224
 21
98.2359230048900685
 31
0.0
  0
LINE
  5
848B
  8
0
 10
473.1377251906922083
 20
97.0620099639799605
 30
0.0
 11
473.1377251899921816
 21
98.2359215799351659
 31
0.0
  0
LINE
  5
848C
  8
0
 10
494.6299018184876104
 20
95.8028721512356327
 30
0.0
 11
475.055033914648277
 21
95.8028721512356043
 31
0.0
  0
LINE
  5
848D
  8
0
 10
473.6652842457921793
 20
95.940667426835617
 30
0.0
 11
473.9171487020748259
 21
95.940667426835617
 31
0.0
  0
LINE
  5
848E
  8
0
 10
473.6652842457921793
 20
96.5312186079356138
 30
0.0
 11
473.9131128022842177
 21
96.5312186079356138
 31
0.0
  0
LINE
  5
848F
  8
0
 10
494.6299018184876104
 20
96.6690138835356265
 30
0.0
 11
475.0550339146483907
 21
96.6690138835356549
 31
0.0
  0
ARC
  5
8490
  8
0
 10
472.8424496001921966
 20
98.2359430173356145
 30
0.0
 40
0.5826771654
 50
300.5134043866991078
 51
239.4865956133004943
  0
ARC
  5
8491
  8
0
 10
472.8424496001921966
 20
98.2359430173356145
 30
0.0
 40
0.2952755906
 50
359.995840250226081
 51
180.003883249089597
  0
ARC
  5
8492
  8
0
 10
472.8424496001355237
 20
98.2359430174274024
 30
0.0
 40
1.178938513443327
 50
284.5046665307515923
 51
255.4953334698774086
  0
ARC
  5
8493
  8
0
 10
473.6627802556224083
 20
97.0562987628296838
 30
0.0
 40
0.525086125345484
 50
179.3767990461250861
 51
270.2732287248019247
  0
ARC
  5
8494
  8
0
 10
473.6754758560118717
 20
97.0689367336329951
 30
0.0
 40
1.1283153360563181
 50
179.7198291292831982
 51
269.4824636571008796
  0
ARC
  5
8495
  8
0
 10
472.8422466605837826
 20
98.2360810880308293
 30
0.0
 40
1.5014151906377191
 50
284.3830655255305828
 51
89.9922555844857754
  0
ARC
  5
8496
  8
0
 10
472.8426383970320899
 20
98.2360893682088232
 30
0.0
 40
1.5014069086146811
 50
90.0072047504750827
 51
260.3698326000471184
  0
LINE
  5
8497
  8
0
 10
473.9723567492483767
 20
96.6057827205356148
 30
0.0
 11
473.9723567492483767
 21
95.866103314235616
 31
0.0
  0
LINE
  5
8498
  8
0
 10
474.1849551744484188
 20
96.6158642772356302
 30
0.0
 11
474.1849551744484188
 21
95.8560217575356148
 31
0.0
  0
LINE
  5
8499
  8
0
 10
474.3430156552482799
 20
95.8942495017356293
 30
0.0
 11
474.3430156552482799
 21
96.5776365330356299
 31
0.0
  0
LINE
  5
849A
  8
0
 10
474.7677110981483111
 20
95.7121151587356138
 30
0.0
 11
474.7677110981483111
 21
96.7597708760356312
 31
0.0
  0
LINE
  5
849B
  8
0
 10
474.8903521845484192
 20
95.6879245529356268
 30
0.0
 11
474.8903521845484192
 21
96.7839614817356164
 31
0.0
  0
LINE
  5
849C
  8
0
 10
475.055033914648277
 20
95.749722544935608
 30
0.0
 11
475.055033914648277
 21
96.7221634898355944
 31
0.0
  0
LINE
  5
849D
  8
0
 10
474.9429838063484226
 20
95.7201949858356187
 30
0.0
 11
475.025506355548373
 21
95.7201949858356187
 31
0.0
  0
LINE
  5
849E
  8
0
 10
474.1849551744484188
 20
95.8560217575356148
 30
0.0
 11
474.2914655828483887
 21
95.8560217575356148
 31
0.0
  0
LINE
  5
849F
  8
0
 10
474.1849551744484188
 20
96.6158642772356302
 30
0.0
 11
474.2914655828483887
 21
96.6158642772356302
 31
0.0
  0
LINE
  5
84A0
  8
0
 10
474.9429838063484226
 20
96.7516910488356103
 30
0.0
 11
475.025506355548373
 21
96.7516910488356103
 31
0.0
  0
ARC
  5
84A1
  8
0
 10
474.4343235335484223
 20
95.5807091813356209
 30
0.0
 40
0.3700787402
 50
33.9156878928012873
 51
72.4347470726013256
  0
ARC
  5
84A2
  8
0
 10
474.4806616402483996
 20
95.7270933574356206
 30
0.0
 40
0.2165354331
 50
72.4347470726013256
 51
129.4700055112988935
  0
ARC
  5
84A3
  8
0
 10
474.0788949988482841
 20
95.866103314235616
 30
0.0
 40
0.1065382496
 50
180.0
 51
354.5700608436998209
  0
ARC
  5
84A4
  8
0
 10
474.4046309259484246
 20
95.8194244272356457
 30
0.0
 40
0.0969290119
 50
129.4700055112018049
 51
146.1267076104005014
  0
ARC
  5
84A5
  8
0
 10
474.2914655828483887
 20
95.8953918362356177
 30
0.0
 40
0.0393700787
 50
270.0
 51
326.1267076103998193
  0
ARC
  5
84A6
  8
0
 10
474.4343235335484223
 20
96.8911768534356241
 30
0.0
 40
0.3700787402
 50
287.5652529273986033
 51
326.0843121071986843
  0
ARC
  5
84A7
  8
0
 10
474.4806616402483996
 20
96.7447926773356244
 30
0.0
 40
0.2165354331
 50
230.5299944887009929
 51
287.5652529273986033
  0
ARC
  5
84A8
  8
0
 10
474.0788949988482841
 20
96.6057827205356148
 30
0.0
 40
0.1065382496
 50
5.429939156300259
 51
180.0
  0
ARC
  5
84A9
  8
0
 10
474.4046309259484246
 20
96.6524616075356278
 30
0.0
 40
0.0969290119
 50
213.8732923895994986
 51
230.5299944887981951
  0
ARC
  5
84AA
  8
0
 10
474.2914655828483887
 20
96.5764941984356255
 30
0.0
 40
0.0393700787
 50
33.8732923895995199
 51
90.0
  0
ARC
  5
84AB
  8
0
 10
474.6107503649483874
 20
95.6993332242356161
 30
0.0
 40
0.157480315
 50
4.6555494409999101
 51
33.9156878929004293
  0
ARC
  5
84AC
  8
0
 10
474.8324574005483782
 20
95.7173877067355932
 30
0.0
 40
0.0649606299
 50
184.6555494412000087
 51
333.0280652281996936
  0
ARC
  5
84AD
  8
0
 10
474.9429838063484226
 20
95.6611398677356277
 30
0.0
 40
0.0590551181
 50
90.0
 51
153.0280652286002976
  0
ARC
  5
84AE
  8
0
 10
475.025506355548373
 20
95.749722544935608
 30
0.0
 40
0.0295275591
 50
270.0
 51
0.0
  0
ARC
  5
84AF
  8
0
 10
474.6107503649483874
 20
96.772552810535629
 30
0.0
 40
0.157480315
 50
326.0843121070996062
 51
355.3444505590001086
  0
ARC
  5
84B0
  8
0
 10
474.8324574005483782
 20
96.7544983280356092
 30
0.0
 40
0.0649606299
 50
26.9719347718002282
 51
175.344450558799906
  0
ARC
  5
84B1
  8
0
 10
474.9429838063484226
 20
96.8107461669356155
 30
0.0
 40
0.0590551181
 50
206.9719347713997024
 51
270.0
  0
ARC
  5
84B2
  8
0
 10
475.025506355548373
 20
96.7221634898355944
 30
0.0
 40
0.0295275591
 50
0.0
 51
90.0
  0
LINE
  5
84B3
  8
0
 10
497.1377617235369257
 20
97.0744540655033177
 30
0.0
 11
497.1377617228437202
 21
98.2359230048900685
 31
0.0
  0
LINE
  5
84B4
  8
0
 10
496.5472105424436791
 20
97.0620099639799605
 30
0.0
 11
496.5472105431437058
 21
98.2359215799351659
 31
0.0
  0
LINE
  5
84B5
  8
0
 10
496.0196514873437081
 20
95.940667426835617
 30
0.0
 11
495.7708739414147772
 21
95.940667426835617
 31
0.0
  0
LINE
  5
84B6
  8
0
 10
496.0196514873437081
 20
96.5312186079356138
 30
0.0
 11
495.7713805187823937
 21
96.531218607935628
 31
0.0
  0
ARC
  5
84B7
  8
0
 10
496.8424861329435771
 20
98.2359430173356145
 30
0.0
 40
0.5826771654
 50
300.5134043866955267
 51
239.4865956133045017
  0
ARC
  5
84B8
  8
0
 10
496.8424861329435771
 20
98.2359430173356145
 30
0.0
 40
0.2952755906
 50
359.9961167509105167
 51
180.0041597497738053
  0
ARC
  5
84B9
  8
0
 10
496.8424861330003068
 20
98.2359430174274024
 30
0.0
 40
1.178938513443327
 50
284.5046665301293274
 51
255.4953334692517046
  0
ARC
  5
84BA
  8
0
 10
496.0221554775134791
 20
97.0562987628296838
 30
0.0
 40
0.525086125345484
 50
269.7267712752013722
 51
0.6232009538749202
  0
ARC
  5
84BB
  8
0
 10
496.0094598771239021
 20
97.0689367336329951
 30
0.0
 40
1.1283153360563181
 50
270.5175363429024173
 51
0.2801708707167828
  0
ARC
  5
84BC
  8
0
 10
496.8422978923077835
 20
98.2360894150268251
 30
0.0
 40
1.5014068617268059
 50
279.6301461746559767
 51
89.9928164748237549
  0
ARC
  5
84BD
  8
0
 10
496.8426891510061978
 20
98.2360810781368059
 30
0.0
 40
1.5014152005422441
 50
90.007747409362949
 51
255.6169314806139994
  0
LINE
  5
84BE
  8
0
 10
495.7125789838875107
 20
96.6057827205356148
 30
0.0
 11
495.7125789838875107
 21
95.866103314235616
 31
0.0
  0
LINE
  5
84BF
  8
0
 10
495.4999805586875254
 20
96.6158642772356302
 30
0.0
 11
495.4999805586875254
 21
95.8560217575356148
 31
0.0
  0
LINE
  5
84C0
  8
0
 10
495.3419200778873801
 20
95.8942495017356293
 30
0.0
 11
495.3419200778873801
 21
96.5776365330356299
 31
0.0
  0
LINE
  5
84C1
  8
0
 10
494.9172246349875195
 20
95.7121151587356138
 30
0.0
 11
494.9172246349875195
 21
96.7597708760356312
 31
0.0
  0
LINE
  5
84C2
  8
0
 10
494.7945835485874113
 20
95.6879245529356268
 30
0.0
 11
494.7945835485874113
 21
96.7839614817356164
 31
0.0
  0
LINE
  5
84C3
  8
0
 10
494.6299018184876104
 20
95.749722544935608
 30
0.0
 11
494.6299018184876104
 21
96.7221634898355944
 31
0.0
  0
LINE
  5
84C4
  8
0
 10
494.741951926787408
 20
95.7201949858356187
 30
0.0
 11
494.6594293775875144
 21
95.7201949858356187
 31
0.0
  0
LINE
  5
84C5
  8
0
 10
495.4999805586875254
 20
95.8560217575356148
 30
0.0
 11
495.393470150287385
 21
95.8560217575356148
 31
0.0
  0
LINE
  5
84C6
  8
0
 10
495.4999805586875254
 20
96.6158642772356302
 30
0.0
 11
495.393470150287385
 21
96.6158642772356302
 31
0.0
  0
LINE
  5
84C7
  8
0
 10
494.741951926787408
 20
96.7516910488356103
 30
0.0
 11
494.6594293775875144
 21
96.7516910488356103
 31
0.0
  0
ARC
  5
84C8
  8
0
 10
495.2506121995875219
 20
95.5807091813356209
 30
0.0
 40
0.3700787402
 50
107.5652529274055951
 51
146.0843121071993949
  0
ARC
  5
84C9
  8
0
 10
495.2042740928874878
 20
95.7270933574356206
 30
0.0
 40
0.2165354331
 50
50.5299944886969783
 51
107.5652529274055951
  0
ARC
  5
84CA
  8
0
 10
495.6060407342874896
 20
95.866103314235616
 30
0.0
 40
0.1065382496
 50
185.4299391563002075
 51
0.0
  0
ARC
  5
84CB
  8
0
 10
495.2803048071874059
 20
95.8194244272356457
 30
0.0
 40
0.0969290119
 50
33.8732923895988378
 51
50.5299944887941521
  0
ARC
  5
84CC
  8
0
 10
495.393470150287385
 20
95.8953918362356177
 30
0.0
 40
0.0393700787
 50
213.8732923895989018
 51
270.0
  0
ARC
  5
84CD
  8
0
 10
495.2506121995875219
 20
96.8911768534356241
 30
0.0
 40
0.3700787402
 50
213.9156878928006051
 51
252.4347470725944049
  0
ARC
  5
84CE
  8
0
 10
495.2042740928874878
 20
96.7447926773356244
 30
0.0
 40
0.2165354331
 50
252.4347470725944049
 51
309.4700055113029862
  0
ARC
  5
84CF
  8
0
 10
495.6060407342874896
 20
96.6057827205356148
 30
0.0
 40
0.1065382496
 50
0.0
 51
174.5700608436997072
  0
ARC
  5
84D0
  8
0
 10
495.2803048071874059
 20
96.6524616075356278
 30
0.0
 40
0.0969290119
 50
309.4700055112057839
 51
326.1267076104011835
  0
ARC
  5
84D1
  8
0
 10
495.393470150287385
 20
96.5764941984356255
 30
0.0
 40
0.0393700787
 50
90.0
 51
146.1267076104010982
  0
ARC
  5
84D2
  8
0
 10
495.0741853681875
 20
95.6993332242356161
 30
0.0
 40
0.157480315
 50
146.0843121071033863
 51
175.3444505589999949
  0
ARC
  5
84D3
  8
0
 10
494.8524783325876228
 20
95.7173877067355932
 30
0.0
 40
0.0649606299
 50
206.9719347718009033
 51
355.3444505587991102
  0
ARC
  5
84D4
  8
0
 10
494.741951926787408
 20
95.6611398677356277
 30
0.0
 40
0.0590551181
 50
26.9719347713996704
 51
90.0
  0
ARC
  5
84D5
  8
0
 10
494.6594293775875144
 20
95.749722544935608
 30
0.0
 40
0.0295275591
 50
180.0
 51
270.0
  0
ARC
  5
84D6
  8
0
 10
495.0741853681875
 20
96.772552810535629
 30
0.0
 40
0.157480315
 50
184.6555494409998914
 51
213.9156878928966137
  0
ARC
  5
84D7
  8
0
 10
494.8524783325876228
 20
96.7544983280356092
 30
0.0
 40
0.0649606299
 50
4.6555494412008702
 51
153.0280652281990115
  0
ARC
  5
84D8
  8
0
 10
494.741951926787408
 20
96.8107461669356155
 30
0.0
 40
0.0590551181
 50
270.0
 51
333.028065228600326
  0
ARC
  5
84D9
  8
0
 10
494.6594293775875144
 20
96.7221634898355944
 30
0.0
 40
0.0295275591
 50
90.0
 51
180.0
  0
ARC
  5
85CB
  8
0
 10
495.7711560272080078
 20
95.881845248835873
 30
0.0
 40
0.0588228543767482
 50
90.274763739599976
 51
174.7601766937461889
  0
ARC
  5
85CC
  8
0
 10
495.7716182173355719
 20
96.5905128911530539
 30
0.0
 40
0.0592947596577521
 50
185.3211228611021113
 51
269.7703142675885033
  0
ARC
  5
85CD
  8
0
 10
473.912865492393621
 20
95.881211641245514
 30
0.0
 40
0.0596098676840499
 50
3.6150371233731149
 51
85.8795160185361652
  0
ARC
  5
85CE
  8
0
 10
473.9127405585771839
 20
96.5908351395689948
 30
0.0
 40
0.0596176937609044
 50
270.3577483556853736
 51
359.593141465866097
  0
ENDSEC
  0
EOF
