  0
SECTION
  2
HEADER
  9
$ACADVER
  1
AC1009
  9
$INSBASE
 10
18.9745584214746295
 20
3.8934437630654539
 30
0.0
  9
$EXTMIN
 10
14.8722229689269199
 20
1.3094482832931069
 30
-0.0015258207003583
  9
$EXTMAX
 10
18.9760742664524287
 20
5.3949890397430726
 30
0.0000000349246037
  9
$LIMMIN
 10
0.0
 20
0.0
  9
$LIMMAX
 10
22.0
 20
17.0
  9
$ORTHOMODE
 70
     0
  9
$REGENMODE
 70
     1
  9
$FILLMODE
 70
     1
  9
$QTEXTMODE
 70
     0
  9
$MIRRTEXT
 70
     0
  9
$DRAGMODE
 70
     2
  9
$LTSCALE
 40
1.2099999999999991
  9
$OSMODE
 70
  4095
  9
$ATTMODE
 70
     1
  9
$TEXTSIZE
 40
0.2
  9
$TRACEWID
 40
0.05
  9
$TEXTSTYLE
  7
STANDARD
  9
$CLAYER
  8
0
  9
$CELTYPE
  6
BYLAYER
  9
$CECOLOR
 62
   256
  9
$DIMSCALE
 40
1.0
  9
$DIMASZ
 40
0.1875
  9
$DIMEXO
 40
0.0625
  9
$DIMDLI
 40
0.8359999999999999
  9
$DIMRND
 40
0.0
  9
$DIMDLE
 40
0.0
  9
$DIMEXE
 40
0.125
  9
$DIMTP
 40
0.01
  9
$DIMTM
 40
0.01
  9
$DIMTXT
 40
0.15625
  9
$DIMCEN
 40
0.198
  9
$DIMTSZ
 40
0.0
  9
$DIMTOL
 70
     1
  9
$DIMLIM
 70
     0
  9
$DIMTIH
 70
     1
  9
$DIMTOH
 70
     1
  9
$DIMSE1
 70
     0
  9
$DIMSE2
 70
     0
  9
$DIMTAD
 70
     0
  9
$DIMZIN
 70
     0
  9
$DIMBLK
  1

  9
$DIMASO
 70
     1
  9
$DIMSHO
 70
     1
  9
$DIMPOST
  1

  9
$DIMAPOST
  1

  9
$DIMALT
 70
     0
  9
$DIMALTD
 70
     2
  9
$DIMALTF
 40
25.3999999999999986
  9
$DIMLFAC
 40
1.0
  9
$DIMTOFL
 70
     0
  9
$DIMTVP
 40
0.0
  9
$DIMTIX
 70
     0
  9
$DIMSOXD
 70
     0
  9
$DIMSAH
 70
     0
  9
$DIMBLK1
  1

  9
$DIMBLK2
  1

  9
$DIMSTYLE
  2
STANDARD
  9
$DIMCLRD
 70
     0
  9
$DIMCLRE
 70
     0
  9
$DIMCLRT
 70
     0
  9
$DIMTFAC
 40
1.0
  9
$DIMGAP
 40
0.09
  9
$LUNITS
 70
     2
  9
$LUPREC
 70
     4
  9
$SKETCHINC
 40
0.1
  9
$FILLETRAD
 40
0.0
  9
$AUNITS
 70
     0
  9
$AUPREC
 70
     0
  9
$MENU
  1
.
  9
$ELEVATION
 40
0.0
  9
$PELEVATION
 40
0.0
  9
$THICKNESS
 40
0.0
  9
$LIMCHECK
 70
     0
  9
$BLIPMODE
 70
     0
  9
$CHAMFERA
 40
0.0
  9
$CHAMFERB
 40
0.0
  9
$SKPOLY
 70
     0
  9
$TDCREATE
 40
2457564.4407523148693144
  9
$TDUPDATE
 40
2459571.9342245371080935
  9
$TDINDWG
 40
0.2458299884
  9
$TDUSRTIMER
 40
0.2458299884
  9
$USRTIMER
 70
     1
  9
$ANGBASE
 50
0.0
  9
$ANGDIR
 70
     0
  9
$PDMODE
 70
     0
  9
$PDSIZE
 40
0.3125
  9
$PLINEWID
 40
0.0
  9
$COORDS
 70
     1
  9
$SPLFRAME
 70
     0
  9
$SPLINETYPE
 70
     6
  9
$SPLINESEGS
 70
     8
  9
$ATTDIA
 70
     1
  9
$ATTREQ
 70
     1
  9
$HANDLING
 70
     1
  9
$HANDSEED
  5
116E
  9
$SURFTAB1
 70
     6
  9
$SURFTAB2
 70
     6
  9
$SURFTYPE
 70
     6
  9
$SURFU
 70
     6
  9
$SURFV
 70
     6
  9
$UCSNAME
  2

  9
$UCSORG
 10
0.0
 20
0.0
 30
0.0
  9
$UCSXDIR
 10
1.0
 20
0.0
 30
0.0
  9
$UCSYDIR
 10
0.0
 20
1.0
 30
0.0
  9
$PUCSNAME
  2

  9
$PUCSORG
 10
0.0
 20
0.0
 30
0.0
  9
$PUCSXDIR
 10
1.0
 20
0.0
 30
0.0
  9
$PUCSYDIR
 10
0.0
 20
1.0
 30
0.0
  9
$USERI1
 70
     0
  9
$USERI2
 70
     0
  9
$USERI3
 70
     0
  9
$USERI4
 70
     0
  9
$USERI5
 70
     0
  9
$USERR1
 40
0.0
  9
$USERR2
 40
0.0
  9
$USERR3
 40
0.0
  9
$USERR4
 40
0.0
  9
$USERR5
 40
0.0
  9
$WORLDVIEW
 70
     1
  9
$SHADEDGE
 70
     3
  9
$SHADEDIF
 70
    70
  9
$TILEMODE
 70
     1
  9
$MAXACTVP
 70
    64
  9
$PLIMCHECK
 70
     0
  9
$PEXTMIN
 10
1.0000000000000000E+20
 20
1.0000000000000000E+20
 30
1.0000000000000000E+20
  9
$PEXTMAX
 10
-1.0000000000000000E+20
 20
-1.0000000000000000E+20
 30
-1.0000000000000000E+20
  9
$PLIMMIN
 10
0.0
 20
0.0
  9
$PLIMMAX
 10
12.0
 20
9.0
  9
$UNITMODE
 70
     0
  9
$VISRETAIN
 70
     1
  9
$PLINEGEN
 70
     0
  9
$PSLTSCALE
 70
     1
  0
ENDSEC
  0
SECTION
  2
TABLES
  0
TABLE
  2
VPORT
 70
     1
  0
VPORT
  2
*ACTIVE
 70
     0
 10
0.0
 20
0.0
 11
1.0
 21
1.0
 12
-0.0002173796247755
 22
-0.0012989304351869
 13
0.0
 23
0.0
 14
1.0
 24
1.0
 15
0.0
 25
0.0
 16
-0.0000000000000071
 26
0.0
 36
24.0193646060532906
 17
16.9243659973144496
 27
3.3535175919532771
 37
0.0
 40
4.1179228496318681
 41
1.67063492063492
 42
50.0
 43
0.0
 44
0.0
 50
0.0
 51
0.0
 71
     0
 72
   100
 73
     1
 74
     1
 75
     0
 76
     0
 77
     0
 78
     0
  0
ENDTAB
  0
TABLE
  2
LTYPE
 70
     1
  0
LTYPE
  2
CONTINUOUS
 70
     0
  3
Solid line
 72
    65
 73
     0
 40
0.0
  0
ENDTAB
  0
TABLE
  2
LAYER
 70
     2
  0
LAYER
  2
0
 70
     0
 62
     7
  6
CONTINUOUS
  0
LAYER
  2
DEFPOINTS
 70
     0
 62
     7
  6
CONTINUOUS
  0
ENDTAB
  0
TABLE
  2
STYLE
 70
     1
  0
STYLE
  2
STANDARD
 70
     0
 40
0.0
 41
0.8
 50
0.0
 71
     0
 42
0.2
  3
txt
  4

  0
ENDTAB
  0
TABLE
  2
VIEW
 70
     0
  0
ENDTAB
  0
TABLE
  2
UCS
 70
     0
  0
ENDTAB
  0
TABLE
  2
APPID
 70
     5
  0
APPID
  2
ACAD
 70
     0
  0
APPID
  2
ACAD_MLEADERVER
 70
     0
  0
APPID
  2
ACAD_NAV_VCDISPLAY
 70
     0
  0
APPID
  2
ACAD_EXEMPT_FROM_CAD_STANDARDS
 70
     0
  0
APPID
  2
ACDBATTR
 70
     0
  0
ENDTAB
  0
TABLE
  2
DIMSTYLE
 70
     1
  0
DIMSTYLE
  2
STANDARD
 70
     0
  3

  4

  5

  6

  7

 40
1.0
 41
0.1875
 42
0.0625
 43
0.38
 44
0.125
 45
0.0
 46
0.0
 47
0.01
 48
0.01
140
0.15625
141
0.09
142
0.0
143
25.3999999999999986
144
1.0
145
0.0
146
1.0
147
0.09
 71
     1
 72
     0
 73
     1
 74
     1
 75
     0
 76
     0
 77
     0
 78
     4
170
     0
171
     2
172
     0
173
     0
174
     0
175
     0
176
     0
177
     0
178
     0
  0
ENDTAB
  0
ENDSEC
  0
SECTION
  2
BLOCKS
  0
BLOCK
  8
0
  2
$MODEL_SPACE
 70
     0
 10
0.0
 20
0.0
 30
0.0
  3
$MODEL_SPACE
  1

  0
ENDBLK
  5
21
  8
0
  0
BLOCK
 67
     1
  8
0
  2
$PAPER_SPACE
 70
     0
 10
0.0
 20
0.0
 30
0.0
  3
$PAPER_SPACE
  1

  0
ENDBLK
  5
1D
 67
     1
  8
0
  0
BLOCK
  8
0
  2
_FILLED
 70
     0
 10
0.0
 20
0.0
 30
0.0
  3
_FILLED
  1

  0
SOLID
  5
E0C
  8
0
  6
BYBLOCK
 62
     0
 10
0.0
 20
0.0
 30
0.0
 11
-1.0
 21
0.1666666667
 31
0.0
 12
-1.0
 22
-0.1666666667
 32
0.0
 13
-1.0
 23
-0.1666666667
 33
0.0
  0
ENDBLK
  5
E0D
  8
0
  6
BYBLOCK
 62
     0
  0
ENDSEC
  0
SECTION
  2
ENTITIES
  0
ATTDEF
  5
CB2
  8
DEFPOINTS
 10
18.9633202006190409
 20
3.8921758975293299
 30
0.0
 40
0.001
  1
K-72567
  3

  2
MODELNUMBER
 70
     0
1001
ACDBATTR
1070
     0
1070
     1
  0
ATTDEF
  5
CB3
  8
DEFPOINTS
 10
18.9633202006190409
 20
3.8905092308626652
 30
0.0
 40
0.001
  1
ARTIFACTS
  3

  2
TRADENAME
 70
     0
1001
ACDBATTR
1070
     0
1070
     1
  0
ATTDEF
  5
CB4
  8
DEFPOINTS
 10
18.9633202006190409
 20
3.8888425641960001
 30
0.0
 40
0.001
  1
TOWEL BAR
  3

  2
PRODUCT
 70
     0
1001
ACDBATTR
1070
     0
1070
     1
  0
LINE
  5
E7E
  8
0
 10
15.1608526234472603
 20
1.893443762924458
 30
0.0
 11
15.1608526234472603
 21
3.1926563613244578
 31
0.0
  0
LINE
  5
E7F
  8
0
 10
15.7514038045472606
 20
1.893443762924458
 30
0.0
 11
15.7514038045472606
 21
3.1926563613244578
 31
0.0
  0
ARC
  5
E80
  8
0
 10
15.4561282140472596
 20
1.8934437630001579
 30
0.0
 40
0.5835159405347068
 50
120.3996382991636978
 51
59.6003617122207672
  0
ARC
  5
E81
  8
0
 10
15.4561282140472596
 20
1.893443762979284
 30
0.0
 40
0.2952755906000002
 50
179.9986158027386978
 51
359.9986157814614103
  0
ARC
  5
E82
  8
0
 10
16.1530268158216188
 20
3.196545160951056
 30
0.0
 40
0.4016418379949294
 50
90.5544432193454583
 51
180.5547611487019992
  0
ARC
  5
E83
  8
0
 10
16.1614385928291391
 20
3.1881334051999519
 30
0.0
 40
1.000596191905589
 50
90.258993981502698
 51
179.741007230015498
  0
LINE
  5
E84
  8
0
 10
17.5366194420746204
 20
3.3309437843881451
 30
0.0
 11
17.6929019471746187
 21
3.3309437843881451
 31
0.0
  0
LINE
  5
E85
  8
0
 10
17.809193375974619
 20
3.3816878163881459
 30
0.0
 11
17.7568971261746285
 21
3.3816878163881459
 31
0.0
  0
LINE
  5
E86
  8
0
 10
17.4588831355746308
 20
3.4013178000881461
 30
0.0
 11
17.3958910095746191
 21
3.4013178000881461
 31
0.0
  0
LINE
  5
E87
  8
0
 10
17.3368358914746317
 20
3.4997429969881448
 30
0.0
 11
17.292334079274621
 21
3.4997429969881448
 31
0.0
  0
LINE
  5
E88
  8
0
 10
16.4458603035746194
 20
3.5391130756881481
 30
0.0
 11
16.36321384417462
 21
3.5391130756881481
 31
0.0
  0
LINE
  5
E89
  8
0
 10
16.259276836374621
 20
3.5981681937881458
 30
0.0
 11
16.1491402447666488
 21
3.5981681938978478
 31
0.0
  0
LINE
  5
E8A
  8
0
 10
17.7228884737746206
 20
3.3618819720881481
 30
0.0
 11
17.7110884805746203
 21
3.341443784388149
 31
0.0
  0
LINE
  5
E8B
  8
0
 10
17.4910479897746214
 20
3.388875855088147
 30
0.0
 11
17.5184329085746207
 21
3.3414437843881459
 31
0.0
  0
LINE
  5
E8C
  8
0
 10
16.259276836374621
 20
3.5455099563881469
 30
0.0
 11
16.259276836374621
 21
4.2413776119881437
 31
0.0
  0
LINE
  5
E8D
  8
0
 10
16.36321384417462
 20
3.5391130756881481
 30
0.0
 11
16.36321384417462
 21
4.2477744926881433
 31
0.0
  0
LINE
  5
E8E
  8
0
 10
17.3663634504746298
 20
3.430845359188146
 30
0.0
 11
17.3663634504746298
 21
4.3560422091881454
 31
0.0
  0
LINE
  5
E8F
  8
0
 10
17.4884106945746183
 20
4.3881691935881459
 30
0.0
 11
17.4884106945746183
 21
3.3987183747881451
 31
0.0
  0
LINE
  5
E90
  8
0
 10
17.8391933762816102
 20
4.4977009735434974
 30
0.0
 11
17.839192051631251
 21
3.2894665766695059
 31
0.0
  0
LINE
  5
E91
  8
0
 10
17.9602263768746191
 20
4.5009150756365583
 30
0.0
 11
17.9602264173745994
 21
3.285972798381076
 31
0.0
  0
LINE
  5
E92
  8
0
 10
18.5330286614746207
 20
2.7413855380881471
 30
0.0
 11
18.5330286614746207
 21
5.0455020301933891
 31
0.0
  0
LINE
  5
E93
  8
0
 10
18.6542285521746187
 20
2.6912838121881451
 30
0.0
 11
18.6542285521746294
 21
5.095603756188142
 31
0.0
  0
ARC
  5
E94
  8
0
 10
16.8842775724746197
 20
3.7867576965881451
 30
0.0
 40
0.4759910775
 50
214.9751457858000094
 51
319.6989600115999224
  0
ARC
  5
E95
  8
0
 10
16.4458603035746194
 20
3.4800579575881461
 30
0.0
 40
0.0590551181
 50
34.9751457856997732
 51
90.0
  0
ARC
  5
E96
  8
0
 10
17.292334079274621
 20
3.4406878788881472
 30
0.0
 40
0.0590551181
 50
90.0
 51
139.6989600113998051
  0
ARC
  5
E97
  8
0
 10
16.3114421906746188
 20
3.5455099563881469
 30
0.0
 40
0.0521653543
 50
180.0
 51
352.9562617162001175
  0
ARC
  5
E98
  8
0
 10
17.3368358914746317
 20
3.4702154378881489
 30
0.0
 40
0.0295275591
 50
0.0
 51
90.0
  0
ARC
  5
E99
  8
0
 10
17.7572631078257714
 20
3.3419583060431308
 30
0.0
 40
0.0397311959903499
 50
90.5277842768216487
 51
149.9032592295916118
  0
ARC
  5
E9A
  8
0
 10
17.8091913742485985
 20
3.351687070852249
 30
0.0
 40
0.0300007456026756
 50
359.9989444562755807
 51
89.9961770799192777
  0
ARC
  5
E9B
  8
0
 10
17.3958910095746191
 20
3.430845359188146
 30
0.0
 40
0.0295275591
 50
180.0
 51
270.0
  0
ARC
  5
E9C
  8
0
 10
17.4588831355746308
 20
3.430845359188146
 30
0.0
 40
0.0295275591
 50
270.0
 51
0.0
  0
ARC
  5
E9D
  8
0
 10
17.5080957339746313
 20
3.3987183747881451
 30
0.0
 40
0.0196850394
 50
180.0
 51
210.0
  0
LINE
  5
E9E
  8
0
 10
17.72290088282287
 20
4.4249842021007693
 30
0.0
 11
17.7228883726735909
 21
3.3618817969760242
 31
0.0
  0
LINE
  5
E9F
  8
0
 10
18.9745587054746316
 20
2.392506695988152
 30
0.0
 11
18.9745581374746415
 21
5.3943808301427572
 31
0.0
  0
ARC
  5
EA0
  8
0
 10
19.0042168685966004
 20
2.7912720800850281
 30
0.0
 40
0.3998667755561875
 50
231.7866467822867946
 51
265.7464596454324806
  0
ARC
  5
EA1
  8
0
 10
19.1004030566424916
 20
2.7733909537033319
 30
0.0
 40
0.4536664756458637
 50
190.4271788946649053
 51
220.7773596740616995
  0
ARC
  5
EA2
  8
0
 10
18.6250043944836889
 20
2.6845052708257122
 30
0.0
 40
0.0300000002624501
 50
13.0588288364241301
 51
89.9953216303986636
  0
LINE
  5
EA3
  8
0
 10
18.6250068440722991
 20
2.7145052709881461
 30
0.0
 11
18.5628641672746184
 21
2.7145052712881448
 31
0.0
  0
ARC
  5
EA4
  8
0
 10
18.5628660142503783
 20
2.7445052778338721
 30
0.0
 40
0.0300000066025804
 50
185.9690540908646881
 51
269.9964725369206917
  0
ARC
  5
EA5
  8
0
 10
17.2431085435679705
 20
2.6185523791991279
 30
0.0
 40
1.2957553378343589
 50
5.4396111755302696
 51
17.0726997949132198
  0
ARC
  5
EA6
  8
0
 10
17.9364979900155213
 20
2.8435297178813759
 30
0.0
 40
0.5669880604335197
 50
15.9110567884741005
 51
42.3228849009066224
  0
ARC
  5
EA7
  8
0
 10
18.11307607908034
 20
2.9948640867889349
 30
0.0
 40
0.3346115064353881
 50
43.5216738334527591
 51
95.4541320973979737
  0
ARC
  5
EA8
  8
0
 10
18.1207961651671496
 20
2.804442179649834
 30
0.0
 40
0.5250083849512615
 50
94.3175182858268784
 51
105.3352358421311976
  0
ARC
  5
EA9
  8
0
 10
17.9899404715412707
 20
3.2818416965075361
 30
0.0
 40
0.0299998502947889
 50
105.4487921928166969
 51
172.084986877091211
  0
ARC
  5
EAA
  8
0
 10
17.9309046189990084
 20
3.289858020819997
 30
0.0
 40
0.0295780799474606
 50
318.8407840897065739
 51
352.4521126232606889
  0
ARC
  5
EAB
  8
0
 10
17.8996221133176086
 20
3.313908436135903
 30
0.0
 40
0.0690036704070113
 50
220.1191117747972044
 51
320.9017195221499037
  0
ARC
  5
EAC
  8
0
 10
17.8691885807442787
 20
3.2894685022275838
 30
0.0
 40
0.0299965291748294
 50
180.0036779705567938
 51
221.8792317498322859
  0
ARC
  5
EAD
  8
0
 10
17.5366194420976207
 20
3.351943784316143
 30
0.0
 40
0.0209999999279962
 50
230.7182083527144982
 51
269.9999999372466846
  0
ARC
  5
EAE
  8
0
 10
17.5377871921382003
 20
3.352936181438233
 30
0.0
 40
0.0225091866182733
 50
210.7014542224139859
 51
230.0167550007859063
  0
ARC
  5
EAF
  8
0
 10
17.6678616198978098
 20
3.3514084421635522
 30
0.0
 40
0.0204648995184404
 50
270.2784904041395748
 51
333.3199665901969979
  0
ARC
  5
EB0
  8
0
 10
17.1375218729925507
 20
3.5096224752438889
 30
0.0
 40
0.5735973378119642
 50
343.0314064735532043
 51
359.4041338950892737
  0
ARC
  5
EB1
  8
0
 10
17.1640792607890589
 20
3.4990823393439272
 30
0.0
 40
0.5470280621687964
 50
0.4791843892984991
 51
17.3747353035322512
  0
ARC
  5
EB2
  8
0
 10
17.5616597692514382
 20
3.3514084421635522
 30
0.0
 40
0.0204648995184404
 50
206.6800334098028884
 51
269.7215095958604252
  0
ARC
  5
EB3
  8
0
 10
18.0919131860227402
 20
3.5096091380485479
 30
0.0
 40
0.5735108737794303
 50
180.5946234372669892
 51
196.9698361940893108
  0
ARC
  5
EB4
  8
0
 10
18.0654421283601891
 20
3.4990823393439272
 30
0.0
 40
0.5470280621687964
 50
162.6252646964672977
 51
179.5208156107015043
  0
ARC
  5
EB5
  8
0
 10
17.6990633986620516
 20
3.6656749716988259
 30
0.0
 40
0.0133157915183213
 50
165.9212907749466126
 51
194.0786791543494871
  0
ARC
  5
EB6
  8
0
 10
17.5304579904872
 20
3.6656749716988259
 30
0.0
 40
0.0133157915183213
 50
345.921320845649916
 51
14.0787092250533394
  0
LINE
  5
EB7
  8
0
 10
17.6857476071437212
 20
3.6656749716988259
 30
0.0
 11
17.5437737820055197
 21
3.6656749716988259
 31
0.0
  0
ARC
  5
EB8
  8
0
 10
17.6908776757675916
 20
3.355449925160459
 30
0.0
 40
0.0245896037032274
 50
274.7220610676312731
 51
325.2779391492113064
  0
LINE
  5
EB9
  8
0
 10
17.5366194420746204
 20
4.4559437839881451
 30
0.0
 11
17.6929019471746187
 21
4.4559437839881451
 31
0.0
  0
LINE
  5
EBA
  8
0
 10
17.809193375974619
 20
4.4051997519881452
 30
0.0
 11
17.7568971261746285
 21
4.4051997519881452
 31
0.0
  0
LINE
  5
EBB
  8
0
 10
17.4588831355746308
 20
4.3855697682881454
 30
0.0
 11
17.3958910095746191
 21
4.3855697682881454
 31
0.0
  0
LINE
  5
EBC
  8
0
 10
17.3368358914746317
 20
4.2871445713881462
 30
0.0
 11
17.292334079274621
 21
4.2871445713881462
 31
0.0
  0
LINE
  5
EBD
  8
0
 10
16.4458603035746194
 20
4.2477744926881433
 30
0.0
 11
16.36321384417462
 21
4.2477744926881433
 31
0.0
  0
LINE
  5
EBE
  8
0
 10
16.259276836374621
 20
4.1887193745881453
 30
0.0
 11
16.1569156155473586
 21
4.1887193744861868
 31
0.0
  0
LINE
  5
EBF
  8
0
 10
17.7228884737746206
 20
4.4250055962881429
 30
0.0
 11
17.7110884805746203
 21
4.4454437839881411
 31
0.0
  0
LINE
  5
EC0
  8
0
 10
17.4910479897746214
 20
4.3980117132881444
 30
0.0
 11
17.5184329085746207
 21
4.4454437839881447
 31
0.0
  0
ARC
  5
EC1
  8
0
 10
16.8842775724746197
 20
4.0001298717881451
 30
0.0
 40
0.4759910775
 50
40.3010399884000492
 51
145.0248542141999906
  0
ARC
  5
EC2
  8
0
 10
16.4458603035746194
 20
4.3068296107881441
 30
0.0
 40
0.0590551181
 50
270.0
 51
325.0248542142998076
  0
ARC
  5
EC3
  8
0
 10
17.292334079274621
 20
4.3461996894881443
 30
0.0
 40
0.0590551181
 50
220.3010399886001949
 51
270.0
  0
ARC
  5
EC4
  8
0
 10
16.3114421906746188
 20
4.2413776119881437
 30
0.0
 40
0.0521653543
 50
7.0437382837998497
 51
180.0
  0
ARC
  5
EC5
  8
0
 10
17.3368358914746317
 20
4.3166721304881417
 30
0.0
 40
0.0295275591
 50
270.0
 51
0.0
  0
ARC
  5
EC6
  8
0
 10
17.7572631078257714
 20
4.4449292623331598
 30
0.0
 40
0.0397311959903499
 50
210.096740770408104
 51
269.4722157231784081
  0
ARC
  5
EC7
  8
0
 10
17.8091913742485985
 20
4.4352004975240424
 30
0.0
 40
0.0300007456026756
 50
270.0038229200807223
 51
0.001055543724405
  0
ARC
  5
EC8
  8
0
 10
17.3958910095746191
 20
4.3560422091881454
 30
0.0
 40
0.0295275591
 50
90.0
 51
180.0
  0
ARC
  5
EC9
  8
0
 10
17.4588831355746308
 20
4.3560422091881454
 30
0.0
 40
0.0295275591
 50
0.0
 51
90.0
  0
ARC
  5
ECA
  8
0
 10
17.5080957339746313
 20
4.3881691935881459
 30
0.0
 40
0.0196850394
 50
150.0
 51
180.0
  0
ARC
  5
ECB
  8
0
 10
19.0042168685966004
 20
4.9956154882912633
 30
0.0
 40
0.3998667755561875
 50
94.2535403545674768
 51
128.2133532177130917
  0
ARC
  5
ECC
  8
0
 10
19.1004030566424916
 20
5.0134966146729578
 30
0.0
 40
0.4536664756458637
 50
139.2226403259381868
 51
169.5728211053350094
  0
ARC
  5
ECD
  8
0
 10
18.6250043944836889
 20
5.1023822975505793
 30
0.0
 40
0.0300000002624501
 50
270.0046783696013222
 51
346.9411711635758024
  0
LINE
  5
ECE
  8
0
 10
18.6250068440722991
 20
5.0723822973881436
 30
0.0
 11
18.5628641672746184
 21
5.0723822970881463
 31
0.0
  0
ARC
  5
ECF
  8
0
 10
18.5628660142503783
 20
5.0423822905424194
 30
0.0
 40
0.0300000066025804
 50
90.0035274630790951
 51
174.030945909135113
  0
ARC
  5
ED0
  8
0
 10
17.2431085435679705
 20
5.1683351891771618
 30
0.0
 40
1.2957553378343589
 50
342.9273002050866808
 51
354.5603888244697259
  0
ARC
  5
ED1
  8
0
 10
17.9364979900155213
 20
4.9433578504949152
 30
0.0
 40
0.5669880604335197
 50
317.6771150990931005
 51
344.0889432115258728
  0
ARC
  5
ED2
  8
0
 10
18.11307607908034
 20
4.7920234815873561
 30
0.0
 40
0.3346115064353881
 50
264.5458679026020263
 51
316.4783261665472196
  0
ARC
  5
ED3
  8
0
 10
18.1207961651671496
 20
4.9824453887264557
 30
0.0
 40
0.5250083849512615
 50
254.6647641578684897
 51
265.6824817141730932
  0
ARC
  5
ED4
  8
0
 10
17.9899404715412707
 20
4.505045871868754
 30
0.0
 40
0.0299998502947889
 50
187.9150131229087037
 51
254.5512078071832036
  0
ARC
  5
ED5
  8
0
 10
17.9309046189990084
 20
4.497029547556294
 30
0.0
 40
0.0295780799474606
 50
7.5478873767392436
 51
41.1592159102932769
  0
ARC
  5
ED6
  8
0
 10
17.8996221133176086
 20
4.472979132240388
 30
0.0
 40
0.0690036704070113
 50
39.0982804778501531
 51
139.8808882252027104
  0
ARC
  5
ED7
  8
0
 10
17.8691885807442787
 20
4.4974190661487068
 30
0.0
 40
0.0299965291748294
 50
138.1207682501672878
 51
179.9963220294430073
  0
ARC
  5
ED8
  8
0
 10
17.5366194420976207
 20
4.4349437840601471
 30
0.0
 40
0.0209999999279962
 50
90.0000000627531023
 51
129.2817916472853028
  0
ARC
  5
ED9
  8
0
 10
17.5377871921382003
 20
4.433951386938058
 30
0.0
 40
0.0225091866182733
 50
129.9832449992140084
 51
149.2985457775859004
  0
ARC
  5
EDA
  8
0
 10
17.6678616198978098
 20
4.4354791262127389
 30
0.0
 40
0.0204648995184404
 50
26.6800334098029701
 51
89.7215095958602546
  0
ARC
  5
EDB
  8
0
 10
17.1375218729925507
 20
4.2772650931324021
 30
0.0
 40
0.5735973378119642
 50
0.5958661049106074
 51
16.9685935264468206
  0
ARC
  5
EDC
  8
0
 10
17.1640792607890589
 20
4.2878052290323643
 30
0.0
 40
0.5470280621687964
 50
342.6252646964672977
 51
359.5208156107013906
  0
ARC
  5
EDD
  8
0
 10
17.5616597692514382
 20
4.4354791262127389
 30
0.0
 40
0.0204648995184404
 50
90.2784904041395606
 51
153.3199665901969979
  0
ARC
  5
EDE
  8
0
 10
18.0919131860227402
 20
4.2772784303277431
 30
0.0
 40
0.5735108737794303
 50
163.030163805910604
 51
179.4053765627328971
  0
ARC
  5
EDF
  8
0
 10
18.0654421283601891
 20
4.2878052290323643
 30
0.0
 40
0.5470280621687964
 50
180.4791843892984105
 51
197.3747353035321055
  0
ARC
  5
EE0
  8
0
 10
17.6990633986620516
 20
4.1212125966774646
 30
0.0
 40
0.0133157915183213
 50
165.9213208456500013
 51
194.0787092250533021
  0
ARC
  5
EE1
  8
0
 10
17.5304579904872
 20
4.1212125966774646
 30
0.0
 40
0.0133157915183213
 50
345.9212907749467263
 51
14.07867915435002
  0
LINE
  5
EE2
  8
0
 10
17.6857476071437212
 20
4.1212125966774646
 30
0.0
 11
17.5437737820055197
 21
4.1212125966774646
 31
0.0
  0
ARC
  5
EE3
  8
0
 10
17.6908776757675916
 20
4.4314376432158316
 30
0.0
 40
0.0245896037032274
 50
34.7220608507885586
 51
85.2779389323687127
  0
ARC
  5
EE4
  8
0
 10
18.2559195663783598
 20
3.8934437841881451
 30
0.0
 40
0.7470843569573064
 50
162.5098837675477057
 51
197.4901162324518964
  0
ARC
  5
EE5
  8
0
 10
16.6669366481064003
 20
3.8934437841881451
 30
0.0
 40
1.0436496080145561
 50
347.5763204450946091
 51
12.4236795549054495
  0
ARC
  5
EE6
  8
0
 10
15.4561282140472596
 20
1.893443762979284
 30
0.0
 40
0.4763764948051655
 50
128.3042036950984937
 51
51.6957963202286166
  0
ENDSEC
  0
EOF
