  0
SECTION
  2
HEADER
  9
$ACADVER
  1
AC1009
  9
$INSBASE
 10
285.31515310950761
 20
50.170325833931507
 30
0.0
  9
$EXTMIN
 10
282.36973814929598
 20
47.224884430769862
 30
0.0
  9
$EXTMAX
 10
285.62068448445763
 20
50.4758572088815
 30
0.0
  9
$LIMMIN
 10
0.0
 20
0.0
  9
$LIMMAX
 10
11.692913385800001
 20
8.2677165353999982
  9
$ORTHOMODE
 70
     1
  9
$REGENMODE
 70
     1
  9
$FILLMODE
 70
     1
  9
$QTEXTMODE
 70
     0
  9
$MIRRTEXT
 70
     0
  9
$DRAGMODE
 70
     2
  9
$LTSCALE
 40
0.6431102362
  9
$OSMODE
 70
  3071
  9
$ATTMODE
 70
     1
  9
$TEXTSIZE
 40
0.2
  9
$TRACEWID
 40
0.05
  9
$TEXTSTYLE
  7
STANDARD
  9
$CLAYER
  8
0
  9
$CELTYPE
  6
BYLAYER
  9
$CECOLOR
 62
   256
  9
$DIMSCALE
 40
1.0
  9
$DIMASZ
 40
0.1875
  9
$DIMEXO
 40
0.0625
  9
$DIMDLI
 40
0.4443307087
  9
$DIMRND
 40
0.0
  9
$DIMDLE
 40
0.0
  9
$DIMEXE
 40
0.125
  9
$DIMTP
 40
0.01
  9
$DIMTM
 40
0.01
  9
$DIMTXT
 40
2.0
  9
$DIMCEN
 40
0.1052362205
  9
$DIMTSZ
 40
0.0
  9
$DIMTOL
 70
     1
  9
$DIMLIM
 70
     0
  9
$DIMTIH
 70
     1
  9
$DIMTOH
 70
     1
  9
$DIMSE1
 70
     0
  9
$DIMSE2
 70
     0
  9
$DIMTAD
 70
     0
  9
$DIMZIN
 70
     0
  9
$DIMBLK
  1

  9
$DIMASO
 70
     1
  9
$DIMSHO
 70
     1
  9
$DIMPOST
  1
\X
  9
$DIMAPOST
  1

  9
$DIMALT
 70
     1
  9
$DIMALTD
 70
     2
  9
$DIMALTF
 40
25.399999999999999
  9
$DIMLFAC
 40
1.0
  9
$DIMTOFL
 70
     0
  9
$DIMTVP
 40
0.0
  9
$DIMTIX
 70
     0
  9
$DIMSOXD
 70
     0
  9
$DIMSAH
 70
     0
  9
$DIMBLK1
  1

  9
$DIMBLK2
  1

  9
$DIMSTYLE
  2
STANDARD
  9
$DIMCLRD
 70
     0
  9
$DIMCLRE
 70
     0
  9
$DIMCLRT
 70
     0
  9
$DIMTFAC
 40
1.0
  9
$DIMGAP
 40
0.09
  9
$LUNITS
 70
     2
  9
$LUPREC
 70
     4
  9
$SKETCHINC
 40
0.1
  9
$FILLETRAD
 40
0.0
  9
$AUNITS
 70
     0
  9
$AUPREC
 70
     0
  9
$MENU
  1
.
  9
$ELEVATION
 40
0.0
  9
$PELEVATION
 40
0.0
  9
$THICKNESS
 40
0.0
  9
$LIMCHECK
 70
     0
  9
$BLIPMODE
 70
     0
  9
$CHAMFERA
 40
0.0
  9
$CHAMFERB
 40
0.0
  9
$SKPOLY
 70
     0
  9
$TDCREATE
 40
2458060.4683680669
  9
$TDUPDATE
 40
2458544.8332479289
  9
$TDINDWG
 40
0.2432359144
  9
$TDUSRTIMER
 40
0.2432359144
  9
$USRTIMER
 70
     1
  9
$ANGBASE
 50
0.0
  9
$ANGDIR
 70
     0
  9
$PDMODE
 70
     0
  9
$PDSIZE
 40
0.3125
  9
$PLINEWID
 40
0.0
  9
$COORDS
 70
     1
  9
$SPLFRAME
 70
     0
  9
$SPLINETYPE
 70
     6
  9
$SPLINESEGS
 70
     8
  9
$ATTDIA
 70
     1
  9
$ATTREQ
 70
     1
  9
$HANDLING
 70
     1
  9
$HANDSEED
  5
4970
  9
$SURFTAB1
 70
     6
  9
$SURFTAB2
 70
     6
  9
$SURFTYPE
 70
     6
  9
$SURFU
 70
     6
  9
$SURFV
 70
     6
  9
$UCSNAME
  2

  9
$UCSORG
 10
0.0
 20
0.0
 30
0.0
  9
$UCSXDIR
 10
1.0
 20
0.0
 30
0.0
  9
$UCSYDIR
 10
0.0
 20
1.0
 30
0.0
  9
$PUCSNAME
  2

  9
$PUCSORG
 10
0.0
 20
0.0
 30
0.0
  9
$PUCSXDIR
 10
1.0
 20
0.0
 30
0.0
  9
$PUCSYDIR
 10
0.0
 20
1.0
 30
0.0
  9
$USERI1
 70
     0
  9
$USERI2
 70
     0
  9
$USERI3
 70
     0
  9
$USERI4
 70
     0
  9
$USERI5
 70
     0
  9
$USERR1
 40
0.0
  9
$USERR2
 40
0.0
  9
$USERR3
 40
0.0
  9
$USERR4
 40
0.0
  9
$USERR5
 40
0.0
  9
$WORLDVIEW
 70
     1
  9
$SHADEDGE
 70
     3
  9
$SHADEDIF
 70
    70
  9
$TILEMODE
 70
     1
  9
$MAXACTVP
 70
    64
  9
$PLIMCHECK
 70
     0
  9
$PEXTMIN
 10
1.0000000000000000E+020
 20
1.0000000000000000E+020
 30
1.0000000000000000E+020
  9
$PEXTMAX
 10
-1.0000000000000000E+020
 20
-1.0000000000000000E+020
 30
-1.0000000000000000E+020
  9
$PLIMMIN
 10
0.0
 20
0.0
  9
$PLIMMAX
 10
12.0
 20
9.0
  9
$UNITMODE
 70
     0
  9
$VISRETAIN
 70
     1
  9
$PLINEGEN
 70
     0
  9
$PSLTSCALE
 70
     1
  0
ENDSEC
  0
SECTION
  2
TABLES
  0
TABLE
  2
VPORT
 70
     1
  0
VPORT
  2
*ACTIVE
 70
     0
 10
0.0
 20
0.0
 11
1.0
 21
1.0
 12
0.0
 22
0.0
 13
0.0
 23
0.0
 14
1.0
 24
1.0
 15
0.0
 25
0.0
 16
0.0
 26
0.0
 36
12.99830749378488
 17
283.99521131687681
 27
48.850370819825677
 37
0.0
 40
4.5991466113016513
 41
2.112723214285714
 42
50.0
 43
0.0
 44
0.0
 50
0.0
 51
0.0
 71
     0
 72
   100
 73
     1
 74
     1
 75
     0
 76
     0
 77
     0
 78
     0
  0
ENDTAB
  0
TABLE
  2
LTYPE
 70
     2
  0
LTYPE
  2
CONTINUOUS
 70
     0
  3
Solid line
 72
    65
 73
     0
 40
0.0
  0
LTYPE
  2
PHANTOM2
 70
     0
  3
___ _ _ ___ _ _ ___ _ _ ___ _ _
 72
    65
 73
     6
 40
1.25
 49
0.625
 49
-0.125
 49
0.125
 49
-0.125
 49
0.125
 49
-0.125
  0
ENDTAB
  0
TABLE
  2
LAYER
 70
     2
  0
LAYER
  2
0
 70
     0
 62
   255
  6
CONTINUOUS
  0
LAYER
  2
DEFPOINTS
 70
     0
 62
     7
  6
CONTINUOUS
  0
ENDTAB
  0
TABLE
  2
STYLE
 70
     1
  0
STYLE
  2
STANDARD
 70
     0
 40
0.0
 41
0.8
 50
0.0
 71
     0
 42
0.2
  3
txt
  4

  0
ENDTAB
  0
TABLE
  2
VIEW
 70
     0
  0
ENDTAB
  0
TABLE
  2
UCS
 70
     0
  0
ENDTAB
  0
TABLE
  2
APPID
 70
     9
  0
APPID
  2
ACAD
 70
     0
  0
APPID
  2
ACAD_MLEADERVER
 70
     0
  0
APPID
  2
ACAD_EXEMPT_FROM_CAD_STANDARDS
 70
     0
  0
APPID
  2
ACAD_NAV_VCDISPLAY
 70
     0
  0
APPID
  2
ACAECLAYERSTANDARD
 70
     0
  0
APPID
  2
ACCMTRANSPARENCY
 70
     0
  0
APPID
  2
ACAD_DSTYLE_DIMJAG
 70
     0
  0
APPID
  2
ACAD_DSTYLE_DIMTALN
 70
     0
  0
APPID
  2
ACDBATTR
 70
     0
  0
ENDTAB
  0
TABLE
  2
DIMSTYLE
 70
     1
  0
DIMSTYLE
  2
STANDARD
 70
     0
  3

  4

  5

  6

  7

 40
1.0
 41
0.1875
 42
0.0625
 43
0.38
 44
0.125
 45
0.0
 46
0.0
 47
0.01
 48
0.01
140
0.15625
141
0.09
142
0.0
143
25.399999999999999
144
1.0
145
0.0
146
1.0
147
0.09
 71
     1
 72
     0
 73
     1
 74
     1
 75
     0
 76
     0
 77
     0
 78
     4
170
     0
171
     2
172
     0
173
     0
174
     0
175
     0
176
     0
177
     0
178
     0
  0
ENDTAB
  0
ENDSEC
  0
SECTION
  2
BLOCKS
  0
BLOCK
  8
0
  2
$MODEL_SPACE
 70
     0
 10
0.0
 20
0.0
 30
0.0
  3
$MODEL_SPACE
  1

  0
ENDBLK
  5
21
  8
0
  0
BLOCK
 67
     1
  8
0
  2
$PAPER_SPACE
 70
     0
 10
0.0
 20
0.0
 30
0.0
  3
$PAPER_SPACE
  1

  0
ENDBLK
  5
1D
 67
     1
  8
0
  0
ENDSEC
  0
SECTION
  2
ENTITIES
  0
ATTDEF
  5
3930
  8
DEFPOINTS
 10
285.30924473213759
 20
50.182811889720867
 30
0.0
 40
0.001
  1
K-72417
  3

  2
MODELNUMBER
 70
     0
1001
ACDBATTR
1070
     0
1070
     1
  0
ATTDEF
  5
3931
  8
DEFPOINTS
 10
285.30924473213759
 20
50.181145223054202
 30
0.0
 40
0.001
  1
AWAKEN
  3

  2
TRADENAME
 70
     0
1001
ACDBATTR
1070
     0
1070
     1
  0
ATTDEF
  5
3932
  8
DEFPOINTS
 10
285.30924473213759
 20
50.179478556387537
 30
0.0
 40
0.001
  1
SHOWERHEAD
  3

  2
PRODUCT
 70
     0
1001
ACDBATTR
1070
     0
1070
     1
  0
ATTDEF
  5
3933
  8
DEFPOINTS
 10
285.30924473213759
 20
50.177811889720878
 30
0.0
 40
0.001
  1
PREMIUM MATERIALS
  3

  2
MATERIAL
 70
     0
1001
ACDBATTR
1070
     0
1070
     1
  0
LINE
  5
4720
  8
0
 10
283.46662338590761
 20
48.4007570220815
 30
0.0
 11
283.49880044570762
 21
48.43843151858151
 31
0.0
  0
LINE
  5
4721
  8
0
 10
283.5455843063076
 20
48.321796117681501
 30
0.0
 11
283.58364171950763
 21
48.354300219181503
 31
0.0
  0
ARC
  5
4722
  8
0
 10
282.46777017850769
 20
49.636898940381499
 30
0.0
 40
0.0219651573
 50
170.96587377935211
 51
219.46183420129989
  0
ARC
  5
4723
  8
0
 10
284.78172621600771
 20
47.322942902881508
 30
0.0
 40
0.0219651573
 50
230.5381657965992
 51
279.03412600571789
  0
LINE
  5
4724
  8
0
 10
283.00489627961002
 20
50.357264318883843
 30
0.0
 11
282.37562557440998
 21
49.738881679383837
 31
0.0
  0
LINE
  5
4725
  8
0
 10
284.6550463436576
 20
50.121281818081513
 30
0.0
 11
285.00962173455758
 21
50.4758572088815
 31
0.0
  0
LINE
  5
4726
  8
0
 10
284.59838116055761
 20
49.8486004039815
 30
0.0
 11
284.64617133475758
 21
49.89639057818151
 31
0.0
  0
LINE
  5
4727
  8
0
 10
282.37550357646228
 20
49.710921891836179
 30
0.0
 11
284.8557756102623
 21
47.230649857936179
 31
0.0
  0
LINE
  5
4728
  8
0
 10
284.99342767945762
 20
49.453553885081512
 30
0.0
 11
285.0412178537577
 21
49.5013440592815
 31
0.0
  0
LINE
  5
4729
  8
0
 10
285.62068448445763
 20
49.864794458981507
 30
0.0
 11
285.2661107530576
 21
49.510220727681499
 31
0.0
  0
LINE
  5
472A
  8
0
 10
283.03162134911003
 20
50.36854406318384
 30
0.0
 11
285.51339778161002
 21
47.88676763058384
 31
0.0
  0
LINE
  5
472B
  8
0
 10
283.13540448360988
 20
50.360404179783842
 30
0.0
 11
285.50525789830988
 21
47.990550765183841
 31
0.0
  0
LINE
  5
472C
  8
0
 10
283.6672558294099
 20
49.891153656083837
 30
0.0
 11
283.13540448360988
 21
50.360404179783842
 31
0.0
  0
LINE
  5
472D
  8
0
 10
285.03600737451001
 20
48.522402110883853
 30
0.0
 11
285.50525789819062
 21
47.990550765145827
 31
0.0
  0
LINE
  5
472E
  8
0
 10
284.6717590589576
 20
50.025143014381499
 30
0.0
 11
284.66125014495759
 21
50.050489426081512
 31
0.0
  0
LINE
  5
472F
  8
0
 10
285.19423830781
 20
49.155553626883837
 30
0.0
 11
285.19296889741003
 21
49.193785791383853
 31
0.0
  0
LINE
  5
4730
  8
0
 10
285.1699702898577
 20
49.526931783481508
 30
0.0
 11
285.1953167015576
 21
49.516422869481509
 31
0.0
  0
LINE
  5
4731
  8
0
 10
285.18721554765762
 20
49.207050556931513
 30
0.0
 11
284.35190569855757
 21
50.042360406031499
 31
0.0
  0
LINE
  5
4732
  8
0
 10
284.30040592790988
 20
50.04938601628384
 30
0.0
 11
284.33863808871001
 21
50.048116602083837
 31
0.0
  0
LINE
  5
4733
  8
0
 10
285.5150963643099
 20
47.963633823483839
 30
0.0
 11
285.51339778161002
 21
47.88676763058384
 31
0.0
  0
LINE
  5
4734
  8
0
 10
285.5021180374099
 20
47.860042561183839
 30
0.0
 11
284.8837353979099
 21
47.230771855883837
 31
0.0
  0
LINE
  5
4735
  8
0
 10
283.10848754200998
 20
50.370242645883842
 30
0.0
 11
283.03162134911003
 21
50.36854406318384
 31
0.0
  0
LINE
  5
4736
  8
0
 10
285.62068448445763
 20
49.864794458981507
 30
0.0
 11
285.00962173455758
 21
50.4758572088815
 31
0.0
  0
ARC
  5
4737
  8
0
 10
283.03249113350989
 20
50.32918359348384
 30
0.0
 40
0.0393700787
 50
91.265911348999467
 51
134.50000183620011
  0
ARC
  5
4738
  8
0
 10
282.38942300130998
 20
49.724841316683843
 30
0.0
 40
0.0196850394
 50
134.50000183629999
 51
224.99999999999969
  0
ARC
  5
4739
  8
0
 10
283.10935732641002
 20
50.330882176183842
 30
0.0
 40
0.0393700787
 50
48.57815613469932
 51
91.265911347999335
  0
ARC
  5
473A
  8
0
 10
284.86969503510988
 20
47.244569282783843
 30
0.0
 40
0.0196850394
 50
224.99999999999969
 51
315.49999816379949
  0
ARC
  5
473B
  8
0
 10
285.47403731191002
 20
47.887637414983843
 30
0.0
 40
0.0393700787
 50
315.49999816379949
 51
358.73408865099969
  0
ARC
  5
473C
  8
0
 10
285.47573589461001
 20
47.964503607883842
 30
0.0
 40
0.0393700787
 50
358.7340886519998
 51
41.421843865299792
  0
ARC
  5
473D
  8
0
 10
285.12473440265762
 20
49.4178275103815
 30
0.0
 40
0.1181102362
 50
67.480541226800639
 51
135.00000000000031
  0
ARC
  5
473E
  8
0
 10
285.24053896828133
 20
49.625471542300481
 30
0.0
 40
0.1180536591850482
 50
247.476312564061
 51
282.51008993264361
  0
ARC
  5
473F
  8
0
 10
284.77031217933182
 20
50.095714966003527
 30
0.0
 40
0.1180672554048778
 50
167.49382595366299
 51
202.52267085694359
  0
ARC
  5
4740
  8
0
 10
284.5626547858576
 20
49.979907127181498
 30
0.0
 40
0.1181102362
 50
315.00000000000028
 51
22.519458773199801
  0
ARC
  5
4741
  8
0
 10
285.02126652915757
 20
49.425715035381501
 30
0.0
 40
0.0393700787
 50
135.00000000000031
 51
206.22622477439381
  0
ARC
  5
4742
  8
0
 10
284.5705423108576
 20
49.876439253681511
 30
0.0
 40
0.0393700787
 50
243.77377522561929
 51
315.00000000000028
  0
ARC
  5
4743
  8
0
 10
284.29975268970998
 20
50.029711818583841
 30
0.0
 40
0.0196850394
 50
88.098319110601238
 51
131.18515387610009
  0
ARC
  5
4744
  8
0
 10
285.1745641100099
 20
49.154900390683842
 30
0.0
 40
0.0196850394
 50
318.81483414049973
 51
1.901674913900085
  0
ARC
  5
4745
  8
0
 10
284.33798064035892
 20
50.028432699864616
 30
0.0
 40
0.01969487864676
 50
45.005447121691176
 51
88.087014601569024
  0
ARC
  5
4746
  8
0
 10
285.1733044006732
 20
49.193136763084347
 30
0.0
 40
0.0196752044371261
 50
1.8903656053633611
 51
45.005450292429629
  0
ARC
  5
4747
  8
0
 10
233.32046491070619
 20
108.2908817035013
 30
0.0
 40
77.396409532816492
 50
310.93494257894378
 51
311.18635107757632
  0
ARC
  5
4748
  8
0
 10
343.43686758771003
 20
-1.8253955364161589
 30
0.0
 40
77.397926518700004
 50
138.8136398781995
 51
139.0650435146008
  0
LINE
  5
4749
  8
0
 10
283.6672558294822
 20
49.891153656011603
 30
0.0
 11
283.7762202771367
 21
49.803004692157117
 31
0.0
  0
ARC
  5
474A
  8
0
 10
283.89062424462122
 20
49.989452647362029
 30
0.0
 40
0.2187489606290894
 50
238.46683281330959
 51
309.8249817426298
  0
ARC
  5
474B
  8
0
 10
285.13366423589662
 20
48.745818851340879
 30
0.0
 40
0.2182272484626297
 50
140.07676635359991
 51
211.63215374119889
  0
LINE
  5
474C
  8
0
 10
284.9478584107099
 20
48.631366558683837
 30
0.0
 11
285.0360073744377
 21
48.522402110956079
 31
0.0
  0
ARC
  5
474D
  8
0
 10
283.4750016122893
 20
48.393925026911347
 30
0.0
 40
0.0108106815376102
 50
140.80459807337311
 51
215.06120616968391
  0
ARC
  5
474E
  8
0
 10
283.53887096463399
 20
48.329857814428237
 30
0.0
 40
0.0104909442312272
 50
244.60045668592909
 51
309.78568834455422
  0
ARC
  5
474F
  8
0
 10
283.77061767693277
 20
48.627955386541181
 30
0.0
 40
0.3878330615401623
 50
218.2754883066913
 51
232.47229326145629
  0
ARC
  5
4750
  8
0
 10
283.1305529014744
 20
47.982232106001938
 30
0.0
 40
0.5862799313226866
 50
39.39220374327185
 51
51.08927436325618
  0
ARC
  5
4751
  8
0
 10
283.47554122055539
 20
48.413903586901426
 30
0.0
 40
0.0338025293016035
 50
46.520794759910309
 51
59.579307119115292
  0
ARC
  5
4752
  8
0
 10
283.521769233236
 20
48.449124105897603
 30
0.0
 40
0.0297386556253679
 50
191.78054931240479
 51
208.78052222901729
  0
ARC
  5
4753
  8
0
 10
283.56661727453849
 20
48.338950741158293
 30
0.0
 40
0.0229224388338551
 50
22.278006310088159
 51
42.038263066650373
  0
ARC
  5
4754
  8
0
 10
283.59162384082163
 20
48.369639438178702
 30
0.0
 40
0.0223237433765482
 50
237.3745169021602
 51
260.21184382790562
  0
LINE
  5
4755
  8
0
 10
283.44852122626099
 20
48.387084021787558
 30
0.0
 11
283.480698286061
 21
48.424758518287568
 31
0.0
  0
LINE
  5
4756
  8
0
 10
283.52748214666099
 20
48.308123117387566
 30
0.0
 11
283.5408725211189
 21
48.31955957756454
 31
0.0
  0
ARC
  5
4757
  8
0
 10
283.45689945264269
 20
48.38025202661742
 30
0.0
 40
0.0108106815376102
 50
140.80459807337311
 51
215.06120616968391
  0
ARC
  5
4758
  8
0
 10
283.52076880498743
 20
48.316184814134303
 30
0.0
 40
0.0104909442312272
 50
244.60045668592909
 51
309.78568834455422
  0
ARC
  5
4759
  8
0
 10
283.75251551728621
 20
48.61428238624724
 30
0.0
 40
0.3878330615401623
 50
218.2754883066913
 51
232.47229326145629
  0
ARC
  5
475A
  8
0
 10
283.11245074182779
 20
47.968559105707989
 30
0.0
 40
0.5862799313226866
 50
50.611732112344221
 51
51.08927436325618
  0
ARC
  5
475B
  8
0
 10
283.45743906090883
 20
48.400230586607478
 30
0.0
 40
0.0338025293016035
 50
46.520794759910309
 51
59.579307119115292
  0
ARC
  5
475C
  8
0
 10
283.50366707358933
 20
48.435451105603661
 30
0.0
 40
0.0297386556253679
 50
191.78054931240479
 51
208.78052222901729
  0
ARC
  5
475D
  8
0
 10
283.54851511489193
 20
48.325277740864351
 30
0.0
 40
0.0229224388338551
 50
22.278006310088159
 51
38.639910310190643
  0
ARC
  5
475E
  8
0
 10
283.57352168117501
 20
48.35596643788476
 30
0.0
 40
0.0223237433765482
 50
241.0589293384771
 51
260.21184382790562
  0
LINE
  5
475F
  8
0
 10
283.26933011384568
 20
48.694904794915843
 30
0.0
 11
283.30150717364569
 21
48.732579291415853
 31
0.0
  0
LINE
  5
4760
  8
0
 10
283.34829103424568
 20
48.615943890515851
 30
0.0
 11
283.3863484474457
 21
48.648447992015839
 31
0.0
  0
ARC
  5
4761
  8
0
 10
283.27770834022732
 20
48.688072799745697
 30
0.0
 40
0.0108106815376102
 50
140.80459807337311
 51
215.06120616968391
  0
ARC
  5
4762
  8
0
 10
283.34157769257212
 20
48.624005587262587
 30
0.0
 40
0.0104909442312272
 50
244.60045668592909
 51
309.78568834455422
  0
ARC
  5
4763
  8
0
 10
283.57332440487079
 20
48.922103159375517
 30
0.0
 40
0.3878330615401623
 50
218.2754883066913
 51
232.47229326145629
  0
ARC
  5
4764
  8
0
 10
282.93325962941248
 20
48.276379878836281
 30
0.0
 40
0.5862799313226866
 50
39.39220374327185
 51
51.08927436325618
  0
ARC
  5
4765
  8
0
 10
283.2782479484934
 20
48.708051359735769
 30
0.0
 40
0.0338025293016035
 50
46.520794759910309
 51
59.579307119115292
  0
ARC
  5
4766
  8
0
 10
283.32447596117402
 20
48.743271878731939
 30
0.0
 40
0.0297386556253679
 50
191.78054931240479
 51
208.78052222901729
  0
ARC
  5
4767
  8
0
 10
283.36932400247662
 20
48.633098513992643
 30
0.0
 40
0.0229224388338551
 50
22.278006310088159
 51
42.038263066650373
  0
ARC
  5
4768
  8
0
 10
283.3943305687597
 20
48.663787211013037
 30
0.0
 40
0.0223237433765482
 50
237.3745169021602
 51
260.21184382790562
  0
LINE
  5
4769
  8
0
 10
283.23239788114569
 20
48.667140517965841
 30
0.0
 11
283.26457494094569
 21
48.704815014465851
 31
0.0
  0
LINE
  5
476A
  8
0
 10
283.31135880154568
 20
48.588179613565849
 30
0.0
 11
283.34103854156598
 21
48.613528506225599
 31
0.0
  0
ARC
  5
476B
  8
0
 10
283.24077610752738
 20
48.660308522795702
 30
0.0
 40
0.0108106815376102
 50
140.80459807337311
 51
215.06120616968391
  0
ARC
  5
476C
  8
0
 10
283.30464545987212
 20
48.596241310312578
 30
0.0
 40
0.0104909442312272
 50
244.60045668592909
 51
309.78568834455422
  0
ARC
  5
476D
  8
0
 10
283.53639217217079
 20
48.894338882425529
 30
0.0
 40
0.3878330615401623
 50
218.2754883066913
 51
232.47229326145629
  0
ARC
  5
476E
  8
0
 10
282.89632739671248
 20
48.248615601886279
 30
0.0
 40
0.5862799313226866
 50
50.106719858178081
 51
51.08927436325618
  0
ARC
  5
476F
  8
0
 10
283.24131571579341
 20
48.68028708278576
 30
0.0
 40
0.0338025293016035
 50
46.520794759910309
 51
59.579307119115292
  0
ARC
  5
4770
  8
0
 10
283.28754372847402
 20
48.715507601781951
 30
0.0
 40
0.0297386556253679
 50
191.78054931240479
 51
208.78052222901729
  0
ARC
  5
4771
  8
0
 10
283.33239176977662
 20
48.605334237042626
 30
0.0
 40
0.0229224388338551
 50
22.278006310088159
 51
34.846591141637987
  0
ARC
  5
4772
  8
0
 10
283.35739833605959
 20
48.636022934063043
 30
0.0
 40
0.0223237433765482
 50
245.2474173236443
 51
260.21184382790562
  0
LINE
  5
4773
  8
0
 10
283.20104099264569
 20
48.636281591115839
 30
0.0
 11
283.23321805244569
 21
48.673956087615849
 31
0.0
  0
LINE
  5
4774
  8
0
 10
283.28000191304568
 20
48.557320686715848
 30
0.0
 11
283.3180593262457
 21
48.58982478821585
 31
0.0
  0
ARC
  5
4775
  8
0
 10
283.20941921902738
 20
48.629449595945701
 30
0.0
 40
0.0108106815376102
 50
140.80459807337311
 51
215.06120616968391
  0
ARC
  5
4776
  8
0
 10
283.27328857137212
 20
48.565382383462577
 30
0.0
 40
0.0104909442312272
 50
244.60045668592909
 51
309.78568834455422
  0
ARC
  5
4777
  8
0
 10
283.50503528367079
 20
48.863479955575528
 30
0.0
 40
0.3878330615401623
 50
218.2754883066913
 51
232.47229326145629
  0
ARC
  5
4778
  8
0
 10
282.86497050821248
 20
48.217756675036277
 30
0.0
 40
0.5862799313226866
 50
39.39220374327185
 51
39.69526487138009
  0
ARC
  5
4779
  8
0
 10
282.86497050821248
 20
48.217756675036277
 30
0.0
 40
0.5862799313226866
 50
50.717533604460982
 51
51.08927436325618
  0
ARC
  5
477A
  8
0
 10
283.20995882729341
 20
48.649428155935759
 30
0.0
 40
0.0338025293016035
 50
46.520794759910309
 51
59.579307119115292
  0
ARC
  5
477B
  8
0
 10
283.25618683997402
 20
48.684648674931942
 30
0.0
 40
0.0297386556253679
 50
191.78054931240479
 51
208.78052222901729
  0
ARC
  5
477C
  8
0
 10
283.30103488127662
 20
48.574475310192632
 30
0.0
 40
0.0229224388338551
 50
22.278006310088159
 51
42.038263066650373
  0
ARC
  5
477D
  8
0
 10
283.3260414475597
 20
48.605164007213041
 30
0.0
 40
0.0223237433765482
 50
237.3745169021602
 51
260.21184382790562
  0
LINE
  5
477E
  8
0
 10
282.99190395036288
 20
48.927569291789219
 30
0.0
 11
283.02734380322568
 21
48.962192227727137
 31
0.0
  0
LINE
  5
477F
  8
0
 10
283.06343133388742
 20
48.841816829549238
 30
0.0
 11
283.10426190275888
 21
48.870760705575599
 31
0.0
  0
ARC
  5
4780
  8
0
 10
282.99963271340499
 20
48.920010385972539
 30
0.0
 40
0.0108106815376102
 50
135.63657198428001
 51
209.89318008059021
  0
ARC
  5
4781
  8
0
 10
283.0574714550977
 20
48.850450470477362
 30
0.0
 40
0.0104909442312272
 50
239.43243059683491
 51
304.61766225546199
  0
ARC
  5
4782
  8
0
 10
283.31512775474272
 20
49.126461217395281
 30
0.0
 40
0.3878330615401623
 50
213.10746221759939
 51
227.3042671723635
  0
ARC
  5
4783
  8
0
 10
282.61950026206603
 20
48.541017912501196
 30
0.0
 40
0.5862799313226866
 50
34.224177654177822
 51
45.921248274162089
  0
ARC
  5
4784
  8
0
 10
283.00196973307533
 20
48.939859123348469
 30
0.0
 40
0.0338025293016035
 50
41.352768670816317
 51
54.411281030022529
  0
ARC
  5
4785
  8
0
 10
283.05118237270869
 20
48.970772392587882
 30
0.0
 40
0.0297386556253679
 50
186.61252322331191
 51
203.612496139923
  0
ARC
  5
4786
  8
0
 10
283.0859240331464
 20
48.857007133669832
 30
0.0
 40
0.0229224388338551
 50
17.109980220995471
 51
36.870236977556686
  0
ARC
  5
4787
  8
0
 10
283.1135932832795
 20
48.885318563855328
 30
0.0
 40
0.0223237433765482
 50
232.2064908130659
 51
255.0438177388103
  0
LINE
  5
4788
  8
0
 10
282.77163550943533
 20
49.215836897568721
 30
0.0
 11
282.8062074090023
 21
49.251326538652052
 31
0.0
  0
LINE
  5
4789
  8
0
 10
282.845263779959
 20
49.131881378668723
 30
0.0
 11
282.88536532896472
 21
49.161827147671033
 31
0.0
  0
ARC
  5
478A
  8
0
 10
282.77954902509151
 20
49.208471634147259
 30
0.0
 40
0.0108106815376102
 50
137.05507698374379
 51
211.31168508005501
  0
ARC
  5
478B
  8
0
 10
282.83909200134963
 20
49.140364836670038
 30
0.0
 40
0.0104909442312272
 50
240.85093559629979
 51
306.03616725492532
  0
ARC
  5
478C
  8
0
 10
283.0898366805294
 20
49.422669294700583
 30
0.0
 40
0.3878330615401623
 50
214.52596721706271
 51
228.72277217182861
  0
ARC
  5
478D
  8
0
 10
282.40891504560182
 20
48.82018510494926
 30
0.0
 40
0.5862799313226866
 50
35.642682653642119
 51
47.339753273625611
  0
ARC
  5
478E
  8
0
 10
282.78139397201608
 20
49.228372141859452
 30
0.0
 40
0.0338025293016035
 50
42.77127367028195
 51
55.829786029487259
  0
ARC
  5
478F
  8
0
 10
282.82982627063592
 20
49.260494199159012
 30
0.0
 40
0.0297386556253679
 50
188.03102822277609
 51
205.0310011393872
  0
ARC
  5
4790
  8
0
 10
282.86737354946303
 20
49.147623835646982
 30
0.0
 40
0.0229224388338551
 50
18.528485220459569
 51
38.288741977019392
  0
ARC
  5
4791
  8
0
 10
282.89433346929059
 20
49.176611543472347
 30
0.0
 40
0.0223237433765482
 50
233.62499581252939
 51
256.46232273827633
  0
LINE
  5
4792
  8
0
 10
282.7499935234647
 20
49.177868016138113
 30
0.0
 11
282.7728047704627
 21
49.199274461226253
 31
0.0
  0
LINE
  5
4793
  8
0
 10
282.81978293319128
 20
49.090695258558121
 30
0.0
 11
282.86118699256781
 21
49.118812640743208
 31
0.0
  0
ARC
  5
4794
  8
0
 10
282.75756880003331
 20
49.170155298055803
 30
0.0
 40
0.0108106815376102
 50
134.48491566738139
 51
208.74152376369071
  0
ARC
  5
4795
  8
0
 10
282.81399778448719
 20
49.099446942129532
 30
0.0
 40
0.0104909442312272
 50
238.28077427993529
 51
303.46600593856323
  0
ARC
  5
4796
  8
0
 10
283.07714953316992
 20
49.370223341260001
 30
0.0
 40
0.3878330615401623
 50
211.95580590069909
 51
226.15261085546271
  0
ARC
  5
4797
  8
0
 10
282.3698958267355
 20
48.798879603613777
 30
0.0
 40
0.5862799313226866
 50
33.072521337278239
 51
35.029211278040101
  0
ARC
  5
4798
  8
0
 10
282.8425763963869
 20
49.105430417016088
 30
0.0
 40
0.0229224388338551
 50
15.9583239040942
 51
35.718580660655647
  0
ARC
  5
4799
  8
0
 10
282.87080908421069
 20
49.133180008370203
 30
0.0
 40
0.0223237433765482
 50
231.0548344961652
 51
253.89216142191151
  0
LINE
  5
479A
  8
0
 10
282.52977424180369
 20
49.45547467737304
 30
0.0
 11
282.56449390893772
 21
49.490819770073522
 31
0.0
  0
LINE
  5
479B
  8
0
 10
282.60305159564052
 20
49.3712127002496
 30
0.0
 11
282.64327773416409
 21
49.400990898537557
 31
0.0
  0
ARC
  5
479C
  8
0
 10
282.53765695952671
 20
49.448076461601119
 30
0.0
 40
0.0108106815376102
 50
136.81602912690869
 51
211.07263722321801
  0
ARC
  5
479D
  8
0
 10
282.59691526509198
 20
49.37972183406341
 30
0.0
 40
0.0104909442312272
 50
240.6118877394623
 51
305.79711939808999
  0
ARC
  5
479E
  8
0
 10
282.84883558130269
 20
49.660977688120141
 30
0.0
 40
0.3878330615401623
 50
214.28691936022511
 51
228.48372431498979
  0
ARC
  5
479F
  8
0
 10
282.16540621229711
 20
49.061339656142913
 30
0.0
 40
0.5862799313226866
 50
35.403634796805008
 51
47.100705416789587
  0
ARC
  5
47A0
  8
0
 10
282.53958491849738
 20
49.467969098695399
 30
0.0
 40
0.0338025293016035
 50
42.532225813443318
 51
55.59073817265061
  0
ARC
  5
47A1
  8
0
 10
282.58815081395159
 20
49.499888809118417
 30
0.0
 40
0.0297386556253679
 50
187.791980365939
 51
204.79195328255
  0
ARC
  5
47A2
  8
0
 10
282.62522685276252
 20
49.386862774715993
 30
0.0
 40
0.0229224388338551
 50
18.289437363622199
 51
38.049694120182828
  0
ARC
  5
47A3
  8
0
 10
282.65230747930161
 20
49.415737749145983
 30
0.0
 40
0.0223237433765482
 50
233.38594795569259
 51
256.22327488143759
  0
LINE
  5
47A4
  8
0
 10
282.97996745143348
 20
48.896380064693439
 30
0.0
 11
282.9935547609204
 21
48.909654175840409
 31
0.0
  0
LINE
  5
47A5
  8
0
 10
283.05149483495802
 20
48.810627602453458
 30
0.0
 11
283.09232540382948
 21
48.839571478479833
 31
0.0
  0
ARC
  5
47A6
  8
0
 10
282.98769621447559
 20
48.888821158876773
 30
0.0
 40
0.0108106815376102
 50
135.63657198428001
 51
209.89318008059021
  0
ARC
  5
47A7
  8
0
 10
283.04553495616841
 20
48.819261243381582
 30
0.0
 40
0.0104909442312272
 50
239.43243059683491
 51
304.61766225546199
  0
ARC
  5
47A8
  8
0
 10
283.30319125581332
 20
49.095271990299501
 30
0.0
 40
0.3878330615401623
 50
213.10746221759939
 51
227.3042671723635
  0
ARC
  5
47A9
  8
0
 10
282.60756376313662
 20
48.509828685405431
 30
0.0
 40
0.5862799313226866
 50
34.224177654177822
 51
36.03629268491904
  0
ARC
  5
47AA
  8
0
 10
283.073987534217
 20
48.825817906574052
 30
0.0
 40
0.0229224388338551
 50
17.109980220995471
 51
36.870236977556686
  0
ARC
  5
47AB
  8
0
 10
283.1016567843501
 20
48.854129336759563
 30
0.0
 40
0.0223237433765482
 50
232.2064908130659
 51
255.0438177388103
  0
LINE
  5
47AC
  8
0
 10
283.76215003074572
 20
48.202247068115852
 30
0.0
 11
283.79432709054572
 21
48.239921564615848
 31
0.0
  0
LINE
  5
47AD
  8
0
 10
283.84111095114559
 20
48.123286163715839
 30
0.0
 11
283.87916836434567
 21
48.155790265215849
 31
0.0
  0
ARC
  5
47AE
  8
0
 10
283.77052825712741
 20
48.195415072945693
 30
0.0
 40
0.0108106815376102
 50
140.80459807337311
 51
215.06120616968391
  0
ARC
  5
47AF
  8
0
 10
283.83439760947209
 20
48.131347860462583
 30
0.0
 40
0.0104909442312272
 50
244.60045668592909
 51
309.78568834455422
  0
ARC
  5
47B0
  8
0
 10
284.06614432177082
 20
48.42944543257552
 30
0.0
 40
0.3878330615401623
 50
218.2754883066913
 51
232.47229326145629
  0
ARC
  5
47B1
  8
0
 10
283.42607954631251
 20
47.783722152036283
 30
0.0
 40
0.5862799313226866
 50
39.39220374327185
 51
51.08927436325618
  0
ARC
  5
47B2
  8
0
 10
283.77106786539338
 20
48.215393632935772
 30
0.0
 40
0.0338025293016035
 50
46.520794759910309
 51
59.579307119115292
  0
ARC
  5
47B3
  8
0
 10
283.81729587807411
 20
48.250614151931941
 30
0.0
 40
0.0297386556253679
 50
191.78054931240479
 51
208.78052222901729
  0
ARC
  5
47B4
  8
0
 10
283.86214391937648
 20
48.140440787192631
 30
0.0
 40
0.0229224388338551
 50
22.278006310088159
 51
42.038263066650373
  0
ARC
  5
47B5
  8
0
 10
283.88715048565962
 20
48.171129484213033
 30
0.0
 40
0.0223237433765482
 50
237.3745169021602
 51
260.21184382790562
  0
LINE
  5
47B6
  8
0
 10
283.73056383109571
 20
48.16890573831585
 30
0.0
 11
283.76274089089571
 21
48.206580234815853
 31
0.0
  0
LINE
  5
47B7
  8
0
 10
283.8095247514957
 20
48.089944833915851
 30
0.0
 11
283.84758216469572
 21
48.122448935415846
 31
0.0
  0
ARC
  5
47B8
  8
0
 10
283.7389420574774
 20
48.16207374314569
 30
0.0
 40
0.0108106815376102
 50
140.80459807337311
 51
215.06120616968391
  0
ARC
  5
47B9
  8
0
 10
283.80281140982208
 20
48.09800653066258
 30
0.0
 40
0.0104909442312272
 50
244.60045668592909
 51
309.78568834455422
  0
ARC
  5
47BA
  8
0
 10
284.03455812212081
 20
48.396104102775517
 30
0.0
 40
0.3878330615401623
 50
218.2754883066913
 51
232.47229326145629
  0
ARC
  5
47BB
  8
0
 10
283.3944933466625
 20
47.750380822236281
 30
0.0
 40
0.5862799313226866
 50
39.39220374327185
 51
39.865198279927512
  0
ARC
  5
47BC
  8
0
 10
283.3944933466625
 20
47.750380822236281
 30
0.0
 40
0.5862799313226866
 50
50.858084172059797
 51
51.08927436325618
  0
ARC
  5
47BD
  8
0
 10
283.73948166574343
 20
48.182052303135762
 30
0.0
 40
0.0338025293016035
 50
46.520794759910309
 51
59.579307119115292
  0
ARC
  5
47BE
  8
0
 10
283.78570967842398
 20
48.217272822131939
 30
0.0
 40
0.0297386556253679
 50
191.78054931240479
 51
208.78052222901729
  0
ARC
  5
47BF
  8
0
 10
283.83055771972653
 20
48.107099457392628
 30
0.0
 40
0.0229224388338551
 50
22.278006310088159
 51
42.038263066650373
  0
ARC
  5
47C0
  8
0
 10
283.85556428600972
 20
48.137788154413037
 30
0.0
 40
0.0223237433765482
 50
237.3745169021602
 51
260.21184382790562
  0
LINE
  5
47C1
  8
0
 10
283.69863391529572
 20
48.138521827465851
 30
0.0
 11
283.73081097509561
 21
48.176196323965847
 31
0.0
  0
LINE
  5
47C2
  8
0
 10
283.77759483569571
 20
48.059560923065838
 30
0.0
 11
283.81565224889567
 21
48.092065024565848
 31
0.0
  0
ARC
  5
47C3
  8
0
 10
283.70701214167741
 20
48.131689832295692
 30
0.0
 40
0.0108106815376102
 50
140.80459807337311
 51
215.06120616968391
  0
ARC
  5
47C4
  8
0
 10
283.77088149402209
 20
48.067622619812582
 30
0.0
 40
0.0104909442312272
 50
244.60045668592909
 51
309.78568834455422
  0
ARC
  5
47C5
  8
0
 10
284.00262820632082
 20
48.365720191925519
 30
0.0
 40
0.3878330615401623
 50
218.2754883066913
 51
232.47229326145629
  0
ARC
  5
47C6
  8
0
 10
283.36256343086239
 20
47.719996911386282
 30
0.0
 40
0.5862799313226866
 50
39.39220374327185
 51
39.623587925161722
  0
ARC
  5
47C7
  8
0
 10
283.36256343086239
 20
47.719996911386282
 30
0.0
 40
0.5862799313226866
 50
50.644786112530078
 51
51.08927436325618
  0
ARC
  5
47C8
  8
0
 10
283.70755174994338
 20
48.151668392285771
 30
0.0
 40
0.0338025293016035
 50
46.520794759910309
 51
59.579307119115292
  0
ARC
  5
47C9
  8
0
 10
283.75377976262399
 20
48.18688891128194
 30
0.0
 40
0.0297386556253679
 50
191.78054931240479
 51
208.78052222901729
  0
ARC
  5
47CA
  8
0
 10
283.79862780392648
 20
48.07671554654263
 30
0.0
 40
0.0229224388338551
 50
22.278006310088159
 51
42.038263066650373
  0
ARC
  5
47CB
  8
0
 10
283.82363437020962
 20
48.107404243563032
 30
0.0
 40
0.0223237433765482
 50
237.3745169021602
 51
260.21184382790562
  0
LINE
  5
47CC
  8
0
 10
283.98324474761631
 20
47.91932854234102
 30
0.0
 11
284.01169823160632
 21
47.959888745899839
 31
0.0
  0
LINE
  5
47CD
  8
0
 10
284.06934803058851
 20
47.84822385870131
 30
0.0
 11
284.10414634381158
 21
47.884195524086991
 31
0.0
  0
ARC
  5
47CE
  8
0
 10
283.99223396868939
 20
47.913323149780403
 30
0.0
 40
0.0108106815376102
 50
146.25446371239761
 51
220.5110718087067
  0
ARC
  5
47CF
  8
0
 10
284.06189937783631
 20
47.855611516181249
 30
0.0
 40
0.0104909442312272
 50
250.05032232495299
 51
315.23555398358008
  0
ARC
  5
47D0
  8
0
 10
284.26428678378238
 20
48.174371675353207
 30
0.0
 40
0.3878330615401622
 50
223.72535394571489
 51
237.92215890047879
  0
ARC
  5
47D1
  8
0
 10
283.68844270106661
 20
47.470777286366108
 30
0.0
 40
0.5862799313226864
 50
44.84206938229638
 51
56.539140002280199
  0
ARC
  5
47D2
  8
0
 10
283.99087367932162
 20
47.933262649503149
 30
0.0
 40
0.0338025293016035
 50
51.970660398934321
 51
65.029172758140049
  0
ARC
  5
47D3
  8
0
 10
284.03354766729677
 20
47.97271445383506
 30
0.0
 40
0.0297386556253679
 50
197.23041495142871
 51
214.23038786804051
  0
ARC
  5
47D4
  8
0
 10
284.08865666732828
 20
47.867298538422872
 30
0.0
 40
0.0229224388338551
 50
27.727871949112561
 51
47.488128705672267
  0
ARC
  5
47D5
  8
0
 10
284.11063554515511
 20
47.900223504809418
 30
0.0
 40
0.0223237433765482
 50
242.8243825411829
 51
265.66170946692893
  0
LINE
  5
47D6
  8
0
 10
284.26204850223689
 20
47.705589702980113
 30
0.0
 11
284.29186446254198
 21
47.745159127729238
 31
0.0
  0
LINE
  5
47D7
  8
0
 10
284.34568466777188
 20
47.631598871192203
 30
0.0
 11
284.38168579317028
 21
47.666366705232441
 31
0.0
  0
ARC
  5
47D8
  8
0
 10
284.27082836177709
 20
47.699282175591321
 30
0.0
 40
0.0108106815376102
 50
144.30620506414451
 51
218.56281316045551
  0
ARC
  5
47D9
  8
0
 10
284.33849147883211
 20
47.639235489798487
 30
0.0
 40
0.0104909442312272
 50
248.10206367670051
 51
313.28729533532709
  0
ARC
  5
47DA
  8
0
 10
284.55159877325832
 20
47.950930825379892
 30
0.0
 40
0.3878330615401622
 50
221.7770952974634
 51
235.97390025222691
  0
ARC
  5
47DB
  8
0
 10
283.9521674840351
 20
47.267320116486999
 30
0.0
 40
0.5862799313226864
 50
42.89381073404234
 51
54.590881354026479
  0
ARC
  5
47DC
  8
0
 10
284.27014674143288
 20
47.719256394726592
 30
0.0
 40
0.0338025293016035
 50
50.022401750681887
 51
63.080914109887338
  0
ARC
  5
47DD
  8
0
 10
284.31413730313659
 20
47.757234606845437
 30
0.0
 40
0.0297386556253679
 50
195.28215630317661
 51
212.282129219788
  0
ARC
  5
47DE
  8
0
 10
284.36563062430321
 20
47.650006089267862
 30
0.0
 40
0.0229224388338551
 50
25.779613300858959
 51
45.539870057421922
  0
ARC
  5
47DF
  8
0
 10
284.38871614621058
 20
47.682164807531251
 30
0.0
 40
0.0223237433765482
 50
240.8761238929317
 51
263.71345081867548
  0
LINE
  5
47E0
  8
0
 10
284.50843280957707
 20
47.462496437997189
 30
0.0
 11
284.5373238696406
 21
47.50274612758993
 31
0.0
  0
LINE
  5
47E1
  8
0
 10
284.59376101900529
 20
47.390463472975249
 30
0.0
 11
284.6289468449072
 21
47.426056182473118
 31
0.0
  0
ARC
  5
47E2
  8
0
 10
284.5173564684377
 20
47.45639404929711
 30
0.0
 40
0.0108106815376102
 50
145.6339699531716
 51
219.89057804948121
  0
ARC
  5
47E3
  8
0
 10
284.5863928072917
 20
47.397931362034782
 30
0.0
 40
0.0104909442312272
 50
249.42982856572709
 51
314.61506022435168
  0
ARC
  5
47E4
  8
0
 10
284.79222034158022
 20
47.714481085284703
 30
0.0
 40
0.3878330615401623
 50
223.1048601864899
 51
237.3016651412523
  0
ARC
  5
47E5
  8
0
 10
284.20879048804039
 20
47.01716402840777
 30
0.0
 40
0.5862799313226866
 50
44.221575623067878
 51
55.91864624305245
  0
ARC
  5
47E6
  8
0
 10
284.5162121926009
 20
47.476347110946072
 30
0.0
 40
0.0338025293016035
 50
51.35016663970805
 51
64.40867899891299
  0
ARC
  5
47E7
  8
0
 10
284.55931091940562
 20
47.515334466108698
 30
0.0
 40
0.0297386556253679
 50
196.60992119220279
 51
213.6098941088145
  0
ARC
  5
47E8
  8
0
 10
284.61327509172389
 20
47.4093279322881
 30
0.0
 40
0.0229224388338551
 50
27.107378189884908
 51
46.867634946447339
  0
ARC
  5
47E9
  8
0
 10
284.63560923989689
 20
47.442012948847157
 30
0.0
 40
0.0223237433765482
 50
242.2038887819551
 51
265.04121570770172
  0
LINE
  5
47EA
  8
0
 10
283.95487946965062
 20
47.906719270647272
 30
0.0
 11
283.98333295364063
 21
47.947279474206098
 31
0.0
  0
LINE
  5
47EB
  8
0
 10
284.04098275262282
 20
47.835614587007569
 30
0.0
 11
284.05365875001661
 21
47.848718001927622
 31
0.0
  0
ARC
  5
47EC
  8
0
 10
283.9638686907237
 20
47.900713878086648
 30
0.0
 40
0.0108106815376102
 50
146.25446371239761
 51
220.5110718087067
  0
ARC
  5
47ED
  8
0
 10
284.03353409987062
 20
47.843002244487508
 30
0.0
 40
0.0104909442312272
 50
250.05032232495299
 51
315.23555398358008
  0
ARC
  5
47EE
  8
0
 10
284.23592150581658
 20
48.16176240365948
 30
0.0
 40
0.3878330615401622
 50
223.72535394571489
 51
237.92215890047879
  0
ARC
  5
47EF
  8
0
 10
283.6600774231008
 20
47.458168014672367
 30
0.0
 40
0.5862799313226864
 50
54.97726599188146
 51
56.539140002280199
  0
ARC
  5
47F0
  8
0
 10
283.96250840135582
 20
47.920653377809401
 30
0.0
 40
0.0338025293016035
 50
51.970660398934321
 51
65.029172758140049
  0
ARC
  5
47F1
  8
0
 10
284.00518238933108
 20
47.960105182141312
 30
0.0
 40
0.0297386556253679
 50
197.23041495142871
 51
214.23038786804051
  0
LINE
  5
47F2
  8
0
 10
284.21746317733948
 20
47.680507627003067
 30
0.0
 11
284.24727913764468
 21
47.72007705175222
 31
0.0
  0
LINE
  5
47F3
  8
0
 10
284.30109934287458
 20
47.606516795215178
 30
0.0
 11
284.32892669233291
 21
47.633390862540629
 31
0.0
  0
ARC
  5
47F4
  8
0
 10
284.22624303687968
 20
47.674200099614289
 30
0.0
 40
0.0108106815376102
 50
144.30620506414451
 51
218.56281316045551
  0
ARC
  5
47F5
  8
0
 10
284.2939061539347
 20
47.614153413821462
 30
0.0
 40
0.0104909442312272
 50
248.10206367670051
 51
313.28729533532709
  0
ARC
  5
47F6
  8
0
 10
284.50701344836102
 20
47.925848749402867
 30
0.0
 40
0.3878330615401622
 50
221.7770952974634
 51
235.97390025222691
  0
ARC
  5
47F7
  8
0
 10
283.90758215913769
 20
47.242238040509989
 30
0.0
 40
0.5862799313226864
 50
52.585891352253633
 51
54.590881354026479
  0
ARC
  5
47F8
  8
0
 10
284.22556141653553
 20
47.69417431874956
 30
0.0
 40
0.0338025293016035
 50
50.022401750681887
 51
63.080914109887338
  0
ARC
  5
47F9
  8
0
 10
284.26955197823918
 20
47.732152530868412
 30
0.0
 40
0.0297386556253679
 50
195.28215630317661
 51
212.282129219788
  0
ARC
  5
47FA
  8
0
 10
291.06505524460329
 20
55.920227969017361
 30
0.0
 40
10.670568812323401
 50
216.16800662048399
 51
217.11190875383099
  0
ARC
  5
47FB
  8
0
 10
291.06505524460329
 20
55.920227969017361
 30
0.0
 40
10.670568812323401
 50
217.74084340158731
 51
218.9686539472678
  0
ARC
  5
47FC
  8
0
 10
291.06505524460329
 20
55.920227969017361
 30
0.0
 40
10.670568812323401
 50
219.65321659719871
 51
220.89467440545241
  0
ARC
  5
47FD
  8
0
 10
291.06505524460329
 20
55.920227969017361
 30
0.0
 40
10.670568812323401
 50
221.6041267963675
 51
222.74935337617779
  0
ARC
  5
47FE
  8
0
 10
291.06505524460329
 20
55.920227969017361
 30
0.0
 40
10.670568812323401
 50
223.41901352419009
 51
224.6656098214369
  0
ARC
  5
47FF
  8
0
 10
291.06505524460329
 20
55.920227969017361
 30
0.0
 40
10.670568812323401
 50
225.3080664926207
 51
226.556752138375
  0
ARC
  5
4800
  8
0
 10
291.06505524460329
 20
55.920227969017361
 30
0.0
 40
10.670568812323401
 50
227.22893441385861
 51
228.39203782065059
  0
ARC
  5
4801
  8
0
 10
291.06505524460329
 20
55.920227969017361
 30
0.0
 40
10.670568812323401
 50
229.0889903312702
 51
230.2608052114627
  0
ARC
  5
4802
  8
0
 10
291.06505524460329
 20
55.920227969017361
 30
0.0
 40
10.670568812323401
 50
230.9688549187762
 51
232.21022593116979
  0
ARC
  5
4803
  8
0
 10
291.06505524460329
 20
55.920227969017361
 30
0.0
 40
10.670568812323401
 50
232.8389482350467
 51
233.8319933790039
  0
LINE
  5
4805
  8
0
 10
283.566574366743
 20
48.424756086998642
 30
0.0
 11
283.78864903987102
 21
48.242630023966193
 31
0.0
  0
LINE
  5
4806
  8
0
 10
283.82955716987527
 20
48.209080783259189
 30
0.0
 11
284.09520838449492
 21
47.991217083734313
 31
0.0
  0
LINE
  5
4807
  8
0
 10
283.58225336820459
 20
48.355984492251778
 30
0.0
 11
283.75962987750682
 21
48.20298185916495
 31
0.0
  0
LINE
  5
4808
  8
0
 10
283.566574366743
 20
48.424756086998642
 30
0.0
 11
283.3522783241383
 21
48.61934935779496
 31
0.0
  0
LINE
  5
4809
  8
0
 10
283.26087449295892
 20
48.702349352831362
 30
0.0
 11
283.08805964399681
 21
48.859275287127623
 31
0.0
  0
LINE
  5
480A
  8
0
 10
283.0019946047704
 20
48.937427348550237
 30
0.0
 11
282.9766175443487
 21
48.960471195420382
 31
0.0
  0
LINE
  5
480B
  8
0
 10
283.57932746251402
 20
48.350615495617127
 30
0.0
 11
283.74097704699858
 21
48.181098047635793
 31
0.0
  0
LINE
  5
480C
  8
0
 10
283.81965172636791
 20
48.098594087542338
 30
0.0
 11
283.90875886657278
 21
48.005149894335091
 31
0.0
  0
LINE
  5
480D
  8
0
 10
284.00245785091619
 20
47.946716660475019
 30
0.0
 11
283.84705398753192
 21
48.117150219967911
 31
0.0
  0
LINE
  5
480E
  8
0
 10
283.76568620176482
 20
48.206387392418641
 30
0.0
 11
283.566574366743
 21
48.424756086998642
 31
0.0
  0
LINE
  5
480F
  8
0
 10
283.50073241563791
 20
48.436865238500438
 30
0.0
 11
283.34661066307598
 21
48.61480074512545
 31
0.0
  0
LINE
  5
4810
  8
0
 10
283.27325093048711
 20
48.699495481378499
 30
0.0
 11
282.8777320538826
 21
49.156127011441669
 31
0.0
  0
LINE
  5
4811
  8
0
 10
282.80041965827633
 20
49.245385146986571
 30
0.0
 11
282.53752420047988
 21
49.548901267812013
 31
0.0
  0
LINE
  5
4812
  8
0
 10
283.566574366743
 20
48.424756086998642
 30
0.0
 11
283.38427014173288
 21
48.646672951250942
 31
0.0
  0
LINE
  5
4813
  8
0
 10
283.34827679246109
 20
48.690487246854289
 30
0.0
 11
283.1289306434968
 21
48.957494824771182
 31
0.0
  0
LINE
  5
4814
  8
0
 10
283.98790249785901
 20
47.962679716844391
 30
0.0
 11
284.00481100686937
 21
47.950071064614072
 31
0.0
  0
LINE
  5
4815
  8
0
 10
284.09953883241081
 20
47.879432653619382
 30
0.0
 11
284.28745335517181
 21
47.739305048928593
 31
0.0
  0
LINE
  5
4816
  8
0
 10
284.37301157189751
 20
47.675504402787972
 30
0.0
 11
284.52208467959741
 21
47.564340788614523
 31
0.0
  0
LINE
  5
4817
  8
0
 10
284.7682038808033
 20
47.318221587398703
 30
0.0
 11
284.61938106102838
 21
47.435660789739558
 31
0.0
  0
LINE
  5
4818
  8
0
 10
284.53139021552028
 20
47.505096207811818
 30
0.0
 11
284.35710519533552
 21
47.642628165487551
 31
0.0
  0
LINE
  5
4819
  8
0
 10
284.26774240775688
 20
47.713146211766009
 30
0.0
 11
284.08113157380711
 21
47.860404727095698
 31
0.0
  0
LINE
  5
481A
  8
0
 10
284.47913455647381
 20
47.524592944303812
 30
0.0
 11
284.35324918390887
 21
47.638904249530697
 31
0.0
  0
LINE
  5
481B
  8
0
 10
284.26926497265117
 20
47.715166841535869
 30
0.0
 11
284.09431448609791
 21
47.874032149398992
 31
0.0
  0
LINE
  5
481C
  8
0
 10
283.8506523693386
 20
48.118128657683791
 30
0.0
 11
284.31327059030599
 21
47.773154877914358
 31
0.0
  0
LINE
  5
481D
  8
0
 10
284.65698373581762
 20
47.429441732388973
 30
0.0
 11
284.37047033454189
 21
47.655535454821191
 31
0.0
  0
LINE
  5
481E
  8
0
 10
283.01650352389271
 20
48.951601825494052
 30
0.0
 11
282.8544255362437
 21
49.138722905845633
 31
0.0
  0
LINE
  5
481F
  8
0
 10
282.78010302105918
 20
49.224529186744803
 30
0.0
 11
282.63351661747328
 21
49.393765037965281
 31
0.0
  0
LINE
  5
4820
  8
0
 10
282.55649992254342
 20
49.482681783350849
 30
0.0
 11
282.54569835968329
 21
49.495152323867757
 31
0.0
  0
LINE
  5
4821
  8
0
 10
283.28968316848432
 20
48.71873516010502
 30
0.0
 11
282.93068080414082
 21
49.155744664135312
 31
0.0
  0
ENDSEC
  0
EOF
