  0
SECTION
  2
HEADER
  9
$ACADVER
  1
AC1009
  9
$INSBASE
 10
-2.2702062772999998
 20
-0.2516658823
 30
0.0
  9
$EXTMIN
 10
-4.4237849772339137
 20
-0.6065992097903213
 30
-0.0000000349181948
  9
$EXTMAX
 10
-0.0907838951319846
 20
9.2661043147708035
 30
0.0000000814935746
  9
$LIMMIN
 10
0.0
 20
0.0
  9
$LIMMAX
 10
11.692913385800001
 20
8.2677165353999982
  9
$ORTHOMODE
 70
     0
  9
$REGENMODE
 70
     1
  9
$FILLMODE
 70
     1
  9
$QTEXTMODE
 70
     0
  9
$MIRRTEXT
 70
     0
  9
$DRAGMODE
 70
     2
  9
$LTSCALE
 40
0.6431102362
  9
$OSMODE
 70
   231
  9
$ATTMODE
 70
     1
  9
$TEXTSIZE
 40
0.2
  9
$TRACEWID
 40
0.05
  9
$TEXTSTYLE
  7
STANDARD
  9
$CLAYER
  8
0
  9
$CELTYPE
  6
BYLAYER
  9
$CECOLOR
 62
   256
  9
$DIMSCALE
 40
1.0
  9
$DIMASZ
 40
0.1875
  9
$DIMEXO
 40
0.0625
  9
$DIMDLI
 40
0.4443307087
  9
$DIMRND
 40
0.0
  9
$DIMDLE
 40
0.0
  9
$DIMEXE
 40
0.125
  9
$DIMTP
 40
0.0
  9
$DIMTM
 40
0.0
  9
$DIMTXT
 40
1.0
  9
$DIMCEN
 40
0.1052362205
  9
$DIMTSZ
 40
0.0
  9
$DIMTOL
 70
     0
  9
$DIMLIM
 70
     0
  9
$DIMTIH
 70
     1
  9
$DIMTOH
 70
     1
  9
$DIMSE1
 70
     0
  9
$DIMSE2
 70
     0
  9
$DIMTAD
 70
     0
  9
$DIMZIN
 70
     0
  9
$DIMBLK
  1

  9
$DIMASO
 70
     1
  9
$DIMSHO
 70
     1
  9
$DIMPOST
  1
\X
  9
$DIMAPOST
  1

  9
$DIMALT
 70
     1
  9
$DIMALTD
 70
     2
  9
$DIMALTF
 40
25.399999999999999
  9
$DIMLFAC
 40
1.0
  9
$DIMTOFL
 70
     0
  9
$DIMTVP
 40
0.0
  9
$DIMTIX
 70
     0
  9
$DIMSOXD
 70
     0
  9
$DIMSAH
 70
     0
  9
$DIMBLK1
  1

  9
$DIMBLK2
  1

  9
$DIMSTYLE
  2
STANDARD
  9
$DIMCLRD
 70
     0
  9
$DIMCLRE
 70
     0
  9
$DIMCLRT
 70
     0
  9
$DIMTFAC
 40
1.0
  9
$DIMGAP
 40
0.09
  9
$LUNITS
 70
     2
  9
$LUPREC
 70
     4
  9
$SKETCHINC
 40
0.1
  9
$FILLETRAD
 40
0.0
  9
$AUNITS
 70
     0
  9
$AUPREC
 70
     0
  9
$MENU
  1
.
  9
$ELEVATION
 40
0.0
  9
$PELEVATION
 40
0.0
  9
$THICKNESS
 40
0.0
  9
$LIMCHECK
 70
     0
  9
$BLIPMODE
 70
     0
  9
$CHAMFERA
 40
0.0
  9
$CHAMFERB
 40
0.0
  9
$SKPOLY
 70
     0
  9
$TDCREATE
 40
2457865.4813281018
  9
$TDUPDATE
 40
2457871.5914075579
  9
$TDINDWG
 40
0.1313119329
  9
$TDUSRTIMER
 40
0.1313119329
  9
$USRTIMER
 70
     1
  9
$ANGBASE
 50
0.0
  9
$ANGDIR
 70
     0
  9
$PDMODE
 70
     3
  9
$PDSIZE
 40
0.3125
  9
$PLINEWID
 40
0.0
  9
$COORDS
 70
     1
  9
$SPLFRAME
 70
     0
  9
$SPLINETYPE
 70
     6
  9
$SPLINESEGS
 70
     8
  9
$ATTDIA
 70
     1
  9
$ATTREQ
 70
     1
  9
$HANDLING
 70
     1
  9
$HANDSEED
  5
3EB9
  9
$SURFTAB1
 70
     6
  9
$SURFTAB2
 70
     6
  9
$SURFTYPE
 70
     6
  9
$SURFU
 70
     6
  9
$SURFV
 70
     6
  9
$UCSNAME
  2

  9
$UCSORG
 10
0.0
 20
0.0
 30
0.0
  9
$UCSXDIR
 10
1.0
 20
0.0
 30
0.0
  9
$UCSYDIR
 10
0.0
 20
1.0
 30
0.0
  9
$PUCSNAME
  2

  9
$PUCSORG
 10
0.0
 20
0.0
 30
0.0
  9
$PUCSXDIR
 10
1.0
 20
0.0
 30
0.0
  9
$PUCSYDIR
 10
0.0
 20
1.0
 30
0.0
  9
$USERI1
 70
     0
  9
$USERI2
 70
     0
  9
$USERI3
 70
     0
  9
$USERI4
 70
     0
  9
$USERI5
 70
     0
  9
$USERR1
 40
0.0
  9
$USERR2
 40
0.0
  9
$USERR3
 40
0.0
  9
$USERR4
 40
0.0
  9
$USERR5
 40
0.0
  9
$WORLDVIEW
 70
     1
  9
$SHADEDGE
 70
     3
  9
$SHADEDIF
 70
    70
  9
$TILEMODE
 70
     1
  9
$MAXACTVP
 70
    48
  9
$PLIMCHECK
 70
     0
  9
$PEXTMIN
 10
1.0000000000000000E+020
 20
1.0000000000000000E+020
 30
1.0000000000000000E+020
  9
$PEXTMAX
 10
-1.0000000000000000E+020
 20
-1.0000000000000000E+020
 30
-1.0000000000000000E+020
  9
$PLIMMIN
 10
0.0
 20
0.0
  9
$PLIMMAX
 10
12.0
 20
9.0
  9
$UNITMODE
 70
     0
  9
$VISRETAIN
 70
     1
  9
$PLINEGEN
 70
     0
  9
$PSLTSCALE
 70
     1
  0
ENDSEC
  0
SECTION
  2
TABLES
  0
TABLE
  2
VPORT
 70
     1
  0
VPORT
  2
*ACTIVE
 70
     0
 10
0.0
 20
0.0
 11
1.0
 21
1.0
 12
-2.2572844361829492
 22
4.3297525524902412
 13
0.0
 23
0.0
 14
1.0
 24
1.0
 15
0.0
 25
0.0
 16
0.0
 26
0.0
 36
1.0
 17
0.0
 27
0.0
 37
0.0
 40
9.9355203020238676
 41
1.786624203821656
 42
50.0
 43
0.0
 44
0.0
 50
0.0
 51
0.0
 71
     0
 72
   100
 73
     1
 74
     1
 75
     0
 76
     0
 77
     0
 78
     0
  0
ENDTAB
  0
TABLE
  2
LTYPE
 70
     3
  0
LTYPE
  2
CONTINUOUS
 70
     0
  3
Solid line
 72
    65
 73
     0
 40
0.0
  0
LTYPE
  2
PHANTOM2
 70
     0
  3
___ _ _ ___ _ _ ___ _ _ ___ _ _
 72
    65
 73
     6
 40
1.25
 49
0.625
 49
-0.125
 49
0.125
 49
-0.125
 49
0.125
 49
-0.125
  0
ENDTAB
  0
TABLE
  2
LAYER
 70
     2
  0
LAYER
  2
0
 70
     0
 62
     7
  6
CONTINUOUS
  0
LAYER
  2
DEFPOINTS
 70
     0
 62
     7
  6
CONTINUOUS
  0
ENDTAB
  0
TABLE
  2
STYLE
 70
     1
  0
STYLE
  2
STANDARD
 70
     0
 40
0.0
 41
0.8
 50
0.0
 71
     0
 42
0.2
  3
txt
  4

  0
ENDTAB
  0
TABLE
  2
VIEW
 70
     0
  0
ENDTAB
  0
TABLE
  2
UCS
 70
     0
  0
ENDTAB
  0
TABLE
  2
APPID
 70
     7
  0
APPID
  2
ACAD
 70
     0
  0
APPID
  2
ACAD_MLEADERVER
 70
     0
  0
APPID
  2
ACAD_NAV_VCDISPLAY
 70
     0
  0
APPID
  2
ACAD_EXEMPT_FROM_CAD_STANDARDS
 70
     0
  0
APPID
  2
ACAD_DSTYLE_DIMJAG
 70
     0
  0
APPID
  2
ACAD_DSTYLE_DIMTALN
 70
     0
  0
APPID
  2
ACDBATTR
 70
     0
  0
ENDTAB
  0
TABLE
  2
DIMSTYLE
 70
     2
  0
DIMSTYLE
  2
STANDARD
 70
     0
  3

  4

  5

  6

  7

 40
1.0
 41
0.1875
 42
0.0625
 43
0.38
 44
0.125
 45
0.0
 46
0.0
 47
1.5
 48
1.5
140
0.15625
141
0.09
142
0.0
143
25.399999999999999
144
1.0
145
0.0
146
1.0
147
0.09
 71
     0
 72
     0
 73
     1
 74
     1
 75
     0
 76
     0
 77
     0
 78
     4
170
     0
171
     2
172
     0
173
     0
174
     0
175
     0
176
     0
177
     0
178
     0
  0
ENDTAB
  0
ENDSEC
  0
SECTION
  2
BLOCKS
  0
BLOCK
  8
0
  2
$MODEL_SPACE
 70
     0
 10
0.0
 20
0.0
 30
0.0
  3
$MODEL_SPACE
  1

  0
ENDBLK
  5
21
  8
0
  0
BLOCK
 67
     1
  8
0
  2
$PAPER_SPACE
 70
     0
 10
0.0
 20
0.0
 30
0.0
  3
$PAPER_SPACE
  1

  0
ENDBLK
  5
1D
 67
     1
  8
0
  0
ENDSEC
  0
SECTION
  2
ENTITIES
  0
LINE
  5
B65
  8
0
 10
-2.6116772890000002
 20
-0.6059965910000001
 30
0.0
 11
-1.928735265699999
 21
-0.6059965910000001
 31
0.0
  0
LINE
  5
B6D
  8
0
 10
-2.7571223278999999
 20
-0.2516658823
 30
0.0
 11
-1.783290226699999
 21
-0.2516658823
 31
0.0
  0
LINE
  5
B7B
  8
0
 10
-2.6753710734
 20
-0.5184180034
 30
0.0
 11
-2.6313676947000002
 21
-0.5410284016000001
 31
0.0
  0
LINE
  5
B7C
  8
0
 10
-2.6753869094999989
 20
-0.3755763536
 30
0.0
 11
-2.6313676947000002
 21
-0.3981741364
 31
0.0
  0
LINE
  5
B7D
  8
0
 10
-2.6753710750999988
 20
-0.3041322825
 30
0.0
 11
-2.6313676947000002
 21
-0.3267439666
 31
0.0
  0
LINE
  5
B7E
  8
0
 10
-2.6754855944
 20
-0.4469855371
 30
0.0
 11
-2.6313676947000002
 21
-0.4696632581000001
 31
0.0
  0
LINE
  5
BB0
  8
0
 10
-1.8649239936999991
 20
-0.3256610759
 30
0.0
 11
-1.9089067737000001
 21
-0.3027264489
 31
0.0
  0
LINE
  5
BB1
  8
0
 10
-2.639115370299999
 20
-0.2516658823
 30
0.0
 11
-2.6315027750999991
 21
-0.2556364874
 31
0.0
  0
LINE
  5
BB2
  8
0
 10
-1.8650174595999991
 20
-0.4685184038
 30
0.0
 11
-1.9090448600000001
 21
-0.4458746841
 31
0.0
  0
LINE
  5
BB3
  8
0
 10
-1.865019333899999
 20
-0.3970710658
 30
0.0
 11
-1.9090448600000001
 21
-0.3744480752
 31
0.0
  0
LINE
  5
BD1
  8
0
 10
-1.8650174581000001
 20
-0.2542326957
 30
0.0
 11
-1.8699374826999999
 21
-0.2516658823
 31
0.0
  0
LINE
  5
BD7
  8
0
 10
-2.6116826553000001
 20
-0.6059965910000001
 30
0.0
 11
-2.6313676947000002
 21
-0.5863115515999999
 31
0.0
  0
LINE
  5
BD8
  8
0
 10
-2.675369885299999
 20
-0.5184186226000001
 30
0.0
 11
-2.675949598599999
 21
-0.5178162008000001
 31
0.0
  0
LINE
  5
BD9
  8
0
 10
-2.675485432299999
 20
-0.4469856217000001
 30
0.0
 11
-2.676051489799999
 21
-0.4463968465
 31
0.0
  0
LINE
  5
C0B
  8
0
 10
-2.6753698874
 20
-0.3041329014
 30
0.0
 11
-2.6759496018000002
 21
-0.3035304804
 31
0.0
  0
LINE
  5
CC7
  8
0
 10
-4.4228014121000001
 20
6.8425231226999994
 30
0.0
 11
-4.4217437790999989
 21
7.3450783592999986
 31
0.0
  0
LINE
  5
1077
  8
0
 10
-2.6759641735000002
 20
-0.5048107794
 30
0.0
 11
-2.6759496552000002
 21
-0.5178161714
 31
0.0
  0
LINE
  5
1078
  8
0
 10
-2.6759641732000001
 20
-0.2905250726
 30
0.0
 11
-2.6759496556000002
 21
-0.3035304525
 31
0.0
  0
LINE
  5
1079
  8
0
 10
-2.675970858299999
 20
-0.3619757272
 30
0.0
 11
-2.675957359099999
 21
-0.374981274
 31
0.0
  0
LINE
  5
107A
  8
0
 10
-2.7768106210000001
 20
4.9700662607000003
 30
0.0
 11
-2.7768106210000001
 21
-0.231980843
 31
0.0
  0
LINE
  5
107B
  8
0
 10
-2.6760517083000002
 20
-0.4333895006000001
 30
0.0
 11
-2.676052171399999
 21
-0.4463964920000001
 31
0.0
  0
LINE
  5
107C
  8
0
 10
-2.6313676947000002
 20
-0.255377506
 30
0.0
 11
-2.6313676947000002
 21
-0.2669554538
 31
0.0
  0
LINE
  5
107D
  8
0
 10
-2.6313676947000002
 20
-0.3267439666
 30
0.0
 11
-2.6313676947000002
 21
-0.3384025762
 31
0.0
  0
LINE
  5
107E
  8
0
 10
-2.6313676947000002
 20
-0.398176363
 30
0.0
 11
-2.6313676947000002
 21
-0.4097972739
 31
0.0
  0
LINE
  5
107F
  8
0
 10
-2.6313676947000002
 20
-0.4696632581000001
 30
0.0
 11
-2.6313676947000002
 21
-0.4812411291
 31
0.0
  0
LINE
  5
1080
  8
0
 10
-2.6313676947000002
 20
-0.5410297167
 30
0.0
 11
-2.6313676947000002
 21
-0.5863115515999999
 31
0.0
  0
LINE
  5
12DE
  8
0
 10
-2.2045549856000002
 20
4.679135315099999
 30
0.0
 11
-2.2045062230000019
 21
5.3984101494999956
 31
0.0
  0
LINE
  5
12E9
  8
0
 10
-1.9090448600000001
 20
-0.2913773084
 30
0.0
 11
-1.9090448600000001
 21
-0.3029912252
 31
0.0
  0
LINE
  5
12EA
  8
0
 10
-1.9090448600000001
 20
-0.3628498256
 30
0.0
 11
-1.9090448600000001
 21
-0.3744468034
 31
0.0
  0
LINE
  5
12EB
  8
0
 10
-1.9090448600000001
 20
-0.4342103971000001
 30
0.0
 11
-1.9090448600000001
 21
-0.4458723327000001
 31
0.0
  0
LINE
  5
12EC
  8
0
 10
-1.9090448600000001
 20
-0.5056630619
 30
0.0
 11
-1.9090448600000001
 21
-0.5863115515999999
 31
0.0
  0
LINE
  5
12ED
  8
0
 10
-1.8670508175
 20
-0.5522514767
 30
0.0
 11
-1.8670508175
 21
-0.5392461996
 31
0.0
  0
LINE
  5
12EE
  8
0
 10
-1.8643603832
 20
-0.3392536318999999
 30
0.0
 11
-1.864360846399999
 21
-0.3262466467
 31
0.0
  0
LINE
  5
12EF
  8
0
 10
-1.8644551955999991
 20
-0.2678384129
 30
0.0
 11
-1.864441696299999
 21
-0.2548328721
 31
0.0
  0
LINE
  5
12F0
  8
0
 10
-1.8644551954999999
 20
-0.4821241351
 30
0.0
 11
-1.864441696399999
 21
-0.4691185823
 31
0.0
  0
LINE
  5
12F1
  8
0
 10
-1.8644628993000001
 20
-0.4106733119
 30
0.0
 11
-1.864448381299999
 21
-0.397667926
 31
0.0
  0
LINE
  5
141A
  8
0
 10
-1.7636019335999999
 20
4.9681155165000002
 30
0.0
 11
-1.7636019335999999
 21
-0.231980843
 31
0.0
  0
LINE
  5
19FE
  8
0
 10
-2.6753877573999998
 20
-0.3613717213
 30
0.0
 11
-2.6759664008000001
 21
-0.361973407
 31
0.0
  0
LINE
  5
1A5D
  8
0
 10
-1.865028339
 20
-0.2684348959
 30
0.0
 11
-1.8644569975999989
 21
-0.2678393499
 31
0.0
  0
LINE
  5
1AA2
  8
0
 10
-1.9287298993999999
 20
-0.6059965910000001
 30
0.0
 11
-1.9090448600000001
 21
-0.5863115515999999
 31
0.0
  0
LINE
  5
1AA4
  8
0
 10
-2.6307187828999989
 20
-0.2666168032
 30
0.0
 11
-2.6753932206000002
 21
-0.2899282129
 31
0.0
  0
LINE
  5
1AA5
  8
0
 10
-2.6313676947000002
 20
-0.3384025762
 30
0.0
 11
-2.6753877560685879
 21
-0.3613717199155704
 31
0.0
  0
LINE
  5
1AD0
  8
0
 10
-2.6313676947000002
 20
-0.4812411291
 30
0.0
 11
-2.6753932209999989
 21
-0.5042139188000001
 31
0.0
  0
LINE
  5
1AD2
  8
0
 10
-2.6313676947000002
 20
-0.4097972739
 30
0.0
 11
-2.675488563
 21
-0.4328039317
 31
0.0
  0
LINE
  5
1AD4
  8
0
 10
-1.9090448600000001
 20
-0.3628498256
 30
0.0
 11
-1.8649269621
 21
-0.3398426787
 31
0.0
  0
LINE
  5
1AD6
  8
0
 10
-1.9090448600000001
 20
-0.2913773084
 30
0.0
 11
-1.8650256455000001
 21
-0.2684334923
 31
0.0
  0
LINE
  5
1AF5
  8
0
 10
-1.9090448600000001
 20
-0.4342103971000001
 30
0.0
 11
-1.8650414804
 21
-0.4112751429000001
 31
0.0
  0
LINE
  5
1AF7
  8
0
 10
-1.9090448600000001
 20
-0.5056630619
 30
0.0
 11
-1.8650256448
 21
-0.4827192149
 31
0.0
  0
ARC
  5
1B1E
  8
0
 10
-1.7832869730000001
 20
-0.231980843
 30
0.0
 40
0.0196850394
 50
269.99999999990001
 51
359.9999999998999
  0
ARC
  5
1B1F
  8
0
 10
-2.7571255816999991
 20
-0.231980843
 30
0.0
 40
0.0196850394
 50
179.99999999990001
 51
269.99999999990001
  0
ARC
  5
1F11
  8
0
 10
-2.8395900723435399
 20
4.6832466658594853
 30
0.0
 40
0.3040588001013184
 50
5.1947488930469161
 51
53.228839254926761
  0
ARC
  5
1F12
  8
0
 10
-2.8117248721555659
 20
4.676358731580212
 30
0.0
 40
0.29408685604504
 50
58.387556622319387
 51
76.273412574114815
  0
ARC
  5
1F13
  8
0
 10
-2.220027655176402
 20
7.4885271892056977
 30
0.0
 40
2.579258503449168
 50
251.08276435737349
 51
258.33722670781748
  0
ARC
  5
1F14
  8
0
 10
2218.0666732691361
 20
-0.6511515596775379
 30
0.0
 40
2220.6099273896361
 50
179.86165200568459
 51
179.96487142761131
  0
ARC
  5
1F15
  8
0
 10
-1373.763411825701
 20
0.6725898691056355
 30
0.0
 40
1371.773301541614
 50
0.0015761051723112
 51
0.1686710686793727
  0
ARC
  5
1F16
  8
0
 10
-1.712207085321199
 20
4.6886891118154521
 30
0.0
 40
0.284794566557578
 50
105.98403278566271
 51
175.54291755861121
  0
ARC
  5
1F17
  8
0
 10
-2.17077212849787
 20
7.059747009774294
 30
0.0
 40
2.131961187491517
 50
280.28163726286192
 51
311.42412144895752
  0
ARC
  5
1F18
  8
0
 10
-1.8882734747859431
 20
6.8578790185031124
 30
0.0
 40
1.79539177416236
 50
308.92567473466409
 51
1.7414818744689271
  0
ARC
  5
1F19
  8
0
 10
-3.4256906497098729
 20
7.0428309744425768
 30
0.0
 40
3.3345299923927509
 50
357.7589912691011
 51
15.58249903551445
  0
ARC
  5
1F1A
  8
0
 10
-2.2200569650608961
 20
7.0860337428976337
 30
0.0
 40
2.1799537294341378
 50
23.021747766195659
 51
90.991145258690949
  0
ARC
  5
1F1B
  8
0
 10
-2.2812446953499279
 20
7.0202882591184501
 30
0.0
 40
2.2454958029196939
 50
89.400898379594651
 51
143.83174213442331
  0
ARC
  5
1F1C
  8
0
 10
-2.7182187590779199
 20
7.341883686583782
 30
0.0
 40
1.702940757202924
 50
143.89014908873091
 51
179.67040214221959
  0
ARC
  5
1F1D
  8
0
 10
-2.5806666364340431
 20
6.8584108132869872
 30
0.0
 40
1.8421985355068491
 50
180.49414297720199
 51
234.7048398667238
  0
ARC
  5
1F1E
  8
0
 10
0.3767559696927361
 20
12.33812400285696
 30
0.0
 40
8.0586237143993031
 50
240.06145401608731
 51
244.77044358008661
  0
ARC
  5
1F28
  8
0
 10
-1.9347592865102821
 20
6.8278771509581668
 30
0.0
 40
1.8429894107049161
 50
2.629881062976422
 51
63.787874577900517
  0
ARC
  5
1F29
  8
0
 10
-2.249458187033154
 20
6.3845403280818207
 30
0.0
 40
2.3813089811442119
 50
61.70576741990871
 51
130.0772497217832
  0
ARC
  5
1F2A
  8
0
 10
-2.596644884079812
 20
6.8177830433015147
 30
0.0
 40
1.8263241049603931
 50
130.49359213493091
 51
179.22382588771561
  0
ARC
  5
1F2C
  8
0
 10
-2.284263703211713
 20
4.6780719773736887
 30
0.0
 40
0.0797152618580584
 50
312.21562296610279
 51
0.7381917119723358
  0
ARC
  5
1F2D
  8
0
 10
-2.2661065782315779
 20
4.659364286917091
 30
0.0
 40
0.0536669372402166
 50
229.0593118174429
 51
311.27881468203469
  0
ARC
  5
1F2E
  8
0
 10
-2.2429971552212491
 20
4.6802607109602867
 30
0.0
 40
0.084678615536344
 50
180.7614978484566
 51
226.51189914894849
  0
ARC
  5
1F2F
  8
0
 10
55.05101171265315
 20
4.5845129420249346
 30
0.0
 40
57.378757917306153
 50
179.18732479056439
 51
179.90552159122271
  0
ARC
  5
1F31
  8
0
 10
-2.3125325254523479
 20
7.0852894048968338
 30
0.0
 40
2.0836561953997812
 50
253.47198451854749
 51
269.61847756528499
  0
ARC
  5
1F32
  8
0
 10
-2.6361638321653311
 20
6.641552300246885
 30
0.0
 40
1.57696006197049
 50
225.5417874634214
 51
260.17336891605078
  0
ARC
  5
1F33
  8
0
 10
-2.5618346955277791
 20
6.8637376531418139
 30
0.0
 40
1.7905465282133859
 50
190.4661103690851
 51
228.82549899703611
  0
ARC
  5
1F34
  8
0
 10
-2.68558410474086
 20
6.8262251213032128
 30
0.0
 40
1.6621041551600271
 50
169.810661627358
 51
189.96940452658399
  0
ARC
  5
1F35
  8
0
 10
-2.5264898170950358
 20
6.7731329886018656
 30
0.0
 40
1.828240369938398
 50
140.88827476345261
 51
169.05502534063629
  0
ARC
  5
1F36
  8
0
 10
-2.3277589724397778
 20
6.5751658507340363
 30
0.0
 40
2.107512807206346
 50
105.6138231421821
 51
140.12051100371389
  0
ARC
  5
1F37
  8
0
 10
-2.2496763369706758
 20
6.3620569085128489
 30
0.0
 40
2.3338418473338778
 50
73.87896181302321
 51
106.05185966192759
  0
ARC
  5
1F38
  8
0
 10
-2.165260224448792
 20
6.5990471640321307
 30
0.0
 40
2.0827872326876382
 50
39.687365204887342
 51
74.299640656674214
  0
ARC
  5
1F39
  8
0
 10
-1.8799779154364911
 20
6.837168463935682
 30
0.0
 40
1.711187483750795
 50
350.2290339428796
 51
39.651765716710493
  0
ARC
  5
1F43
  8
0
 10
-2.0144312931275841
 20
6.8903807744325833
 30
0.0
 40
1.8529579459422081
 50
292.12545478982281
 51
349.31303591163771
  0
ARC
  5
1F44
  8
0
 10
-2.2975694112943059
 20
7.4775004381826609
 30
0.0
 40
2.50382120388588
 50
272.13134916715558
 51
293.06732735215422
  0
ARC
  5
1F45
  8
0
 10
-2.2632655951205281
 20
5.422506353743211
 30
0.0
 40
0.063508195305246
 50
202.30936978874209
 51
337.70231259154588
  0
ARC
  5
1F46
  8
0
 10
-2.268049591614862
 20
0.7062401682389545
 30
0.0
 40
0.2748175193606208
 50
179.14836886422799
 51
244.0448178246711
  0
ARC
  5
1F47
  8
0
 10
-2.2663776862654248
 20
0.7182864148829573
 30
0.0
 40
0.2864052811751925
 50
244.79883029567711
 51
319.99105531215531
  0
ARC
  5
1F48
  8
0
 10
-2.318988338532487
 20
0.7192670273089511
 30
0.0
 40
0.3289990800069191
 50
325.76046540474749
 51
358.44252369440051
  0
ARC
  5
1F8A
  8
0
 10
-2.3742297781024719
 20
-1.453624108284278
 30
0.0
 40
1.045618218073709
 50
60.9841361336143
 51
63.58370924532543
  0
ARC
  5
1F8B
  8
0
 10
-2.6944708547343001
 20
0.8207256394444199
 30
0.0
 40
1.603025289717245
 50
299.3382692074959
 51
301.07512704498203
  0
LINE
  5
1FCD
  8
0
 10
-2.6753932206000002
 20
-0.2899282129
 30
0.0
 11
-2.6759592721000001
 21
-0.290522521
 31
0.0
  0
ARC
  5
1FCE
  8
0
 10
-2.6559706337459432
 20
-0.3641845006879838
 30
0.0
 40
0.0768099961288308
 50
94.732346151630807
 51
104.4419272603094
  0
ARC
  5
1FCF
  8
0
 10
-2.4087347271202399
 20
-3.4193396252327148
 30
0.0
 40
3.1419523492987218
 50
90.524879883313474
 51
94.62911874319505
  0
ARC
  5
1FD0
  8
0
 10
1.8759455570080921
 20
-146.35900749009991
 30
0.0
 40
146.1451580061883
 50
91.563771704224436
 51
91.69132608389549
  0
ARC
  5
1FD1
  8
0
 10
-2.4468388143509769
 20
10.861436651803549
 30
0.0
 40
11.134741813448789
 50
271.72171882370128
 51
272.69052301849848
  0
ARC
  5
1FD2
  8
0
 10
-1.9393441358840999
 20
0.2500263461601324
 30
0.0
 40
0.5112826672511199
 50
271.70178843443301
 51
278.11081883943638
  0
ARC
  5
1FD3
  8
0
 10
-1.868756911905856
 20
-0.2492811823245174
 30
0.0
 40
0.0070334222546623
 50
282.72038208401011
 51
307.84515972493398
  0
ARC
  5
1FD4
  8
0
 10
-1.86639267602336
 20
-0.2561277444983151
 30
0.0
 40
0.0023415841665164
 50
33.572375517092411
 51
54.01146257063504
  0
ARC
  5
1FDE
  8
0
 10
-2.6567933501459442
 20
-0.3779133232879838
 30
0.0
 40
0.0768099961288308
 50
94.732346151630807
 51
104.4419272603094
  0
ARC
  5
1FDF
  8
0
 10
-2.40955744352024
 20
-3.4330684478327149
 30
0.0
 40
3.1419523492987218
 50
90.524879883313474
 51
94.62911874319505
  0
ARC
  5
1FE0
  8
0
 10
1.8751228406080911
 20
-146.37273631269991
 30
0.0
 40
146.1451580061883
 50
91.563771704224436
 51
91.691326083895433
  0
ARC
  5
1FE1
  8
0
 10
-2.447661530750977
 20
10.84770782920355
 30
0.0
 40
11.134741813448789
 50
271.72171882370128
 51
272.69052301849848
  0
ARC
  5
1FE2
  8
0
 10
-1.927326967845898
 20
0.013886719866504
 30
0.0
 40
0.2886558704492275
 50
270.4652505101887
 51
282.5799959598279
  0
ARC
  5
1FE4
  8
0
 10
-2.656814552845943
 20
-0.4363585979879839
 30
0.0
 40
0.0768099961288308
 50
94.732346151630807
 51
104.4419272603094
  0
ARC
  5
1FE5
  8
0
 10
-2.4095786462202402
 20
-3.4915137225327149
 30
0.0
 40
3.1419523492987218
 50
90.524879883313474
 51
94.62911874319505
  0
ARC
  5
1FE6
  8
0
 10
1.8751016379080909
 20
-146.43118158739989
 30
0.0
 40
146.1451580061883
 50
91.563771704224436
 51
91.691326083895433
  0
ARC
  5
1FE7
  8
0
 10
-2.4476827334509772
 20
10.78926255450355
 30
0.0
 40
11.134741813448789
 50
271.72171882370128
 51
272.69052301849848
  0
ARC
  5
1FE8
  8
0
 10
-1.9401880549841011
 20
0.1778522488601324
 30
0.0
 40
0.5112826672511199
 50
271.70178843443301
 51
278.11081883943638
  0
ARC
  5
1FE9
  8
0
 10
-1.8698047799796991
 20
-0.3208630217348212
 30
0.0
 40
0.0076563588334063
 50
283.23324394640861
 51
315.31912950024332
  0
ARC
  5
1FEA
  8
0
 10
-2.8655935982684149
 20
-0.5577703397753672
 30
0.0
 40
0.2633889628913332
 50
43.766768840042971
 51
43.94671512048798
  0
ARC
  5
1FEB
  8
0
 10
-2.673207758104708
 20
-0.4355609707773506
 30
0.0
 40
0.0035781748761658
 50
129.59980028212101
 51
142.6368126000304
  0
ARC
  5
1FEC
  8
0
 10
-2.7029041305051491
 20
-0.4784686980688925
 30
0.0
 40
0.0376784624459911
 50
315.64288672619818
 51
316.8989263808478
  0
ARC
  5
202E
  8
0
 10
-1.866056852956415
 20
-0.3273147361776774
 30
0.0
 40
0.0020043087017052
 50
32.201382400793591
 51
55.628521146721141
  0
ARC
  5
202F
  8
0
 10
-1.373945503392739
 20
-0.8115964656774446
 30
0.0
 40
0.6808924342047551
 50
136.07537998414
 51
136.14416907656801
  0
ARC
  5
2030
  8
0
 10
-1.8655095477361441
 20
-0.3981107671783343
 30
0.0
 40
0.0011498619545093
 50
22.651532657238779
 51
65.259621416123338
  0
ARC
  5
2031
  8
0
 10
-1.865390315297504
 20
-0.4103610076158481
 30
0.0
 40
0.0009785879614666
 50
290.80892504439697
 51
341.38921701740838
  0
ARC
  5
2032
  8
0
 10
-1.8762034230727209
 20
-0.4798255813668498
 30
0.0
 40
0.0159052835039596
 50
42.312392715907578
 51
45.308760291433153
  0
ARC
  5
2033
  8
0
 10
-1.674644514487339
 20
-0.6650802591281831
 30
0.0
 40
0.2636304950985489
 50
136.05345466345079
 51
136.23323548617699
  0
ARC
  5
2081
  8
0
 10
-2.656895184345943
 20
-0.5207797172879838
 30
0.0
 40
0.0768099961288308
 50
94.732346151630807
 51
104.4419272603094
  0
ARC
  5
2082
  8
0
 10
-2.4096592777202401
 20
-3.5759348418327148
 30
0.0
 40
3.1419523492987218
 50
90.524879883313474
 51
94.62911874319505
  0
ARC
  5
2083
  8
0
 10
1.875021006408091
 20
-146.51560270669989
 30
0.0
 40
146.1451580061883
 50
91.563771704224436
 51
91.691326083895433
  0
ARC
  5
2084
  8
0
 10
-2.4477633649509771
 20
10.70484143520355
 30
0.0
 40
11.134741813448789
 50
271.72171882370128
 51
272.69052301849848
  0
ARC
  5
2085
  8
0
 10
-1.927376964008058
 20
-0.1298776058643666
 30
0.0
 40
0.2877575508412243
 50
270.45638108429472
 51
282.6289119225263
  0
ARC
  5
2087
  8
0
 10
-2.6562279124415129
 20
-0.4499606273137849
 30
0.0
 40
0.0768099961288308
 50
94.732346151630807
 51
104.4419272603094
  0
ARC
  5
2088
  8
0
 10
-2.4089920058158101
 20
-3.5051157518585159
 30
0.0
 40
3.1419523492987218
 50
90.524879883313474
 51
94.62911874319505
  0
ARC
  5
2089
  8
0
 10
1.8756882783125211
 20
-146.44478361672569
 30
0.0
 40
146.1451580061883
 50
91.563771704224436
 51
91.691326083895433
  0
ARC
  5
208A
  8
0
 10
-2.4470960930465471
 20
10.77566052517775
 30
0.0
 40
11.134741813448789
 50
271.72171882370128
 51
272.69052301849848
  0
ARC
  5
208B
  8
0
 10
-1.9238298680820629
 20
-0.1089424520124278
 30
0.0
 40
0.2378652122807027
 50
269.85842367714798
 51
284.4783037413693
  0
ARC
  5
208D
  8
0
 10
-2.6568954028459442
 20
-0.5077723713879841
 30
0.0
 40
0.0768099961288308
 50
94.732346151630807
 51
104.4419272603094
  0
ARC
  5
208E
  8
0
 10
-2.4096594962202409
 20
-3.5629274959327151
 30
0.0
 40
3.1419523492987218
 50
90.524879883313474
 51
94.62911874319505
  0
ARC
  5
208F
  8
0
 10
1.87502078790809
 20
-146.50259536079989
 30
0.0
 40
146.1451580061883
 50
91.563771704224436
 51
91.691326083895433
  0
ARC
  5
2090
  8
0
 10
-2.4477635834509779
 20
10.71784878110355
 30
0.0
 40
11.134741813448789
 50
271.72171882370128
 51
272.69052301849848
  0
ARC
  5
2091
  8
0
 10
-1.9402689049841011
 20
0.1064384754601321
 30
0.0
 40
0.5112826672511199
 50
271.70178843443301
 51
278.11081883943638
  0
ARC
  5
2092
  8
0
 10
-1.8698856299797
 20
-0.3922767951348214
 30
0.0
 40
0.0076563588334063
 50
283.23324394640861
 51
315.31912950024332
  0
ARC
  5
2093
  8
0
 10
-2.656793293145943
 20
-0.5921990715879839
 30
0.0
 40
0.0768099961288308
 50
94.732346151630807
 51
104.4419272603094
  0
ARC
  5
2094
  8
0
 10
-2.4095573865202402
 20
-3.6473541961327149
 30
0.0
 40
3.1419523492987218
 50
90.524879883313474
 51
94.62911874319505
  0
ARC
  5
2095
  8
0
 10
1.875122897608092
 20
-146.58702206099991
 30
0.0
 40
146.1451580061883
 50
91.563771704224436
 51
91.691326083895433
  0
ARC
  5
2096
  8
0
 10
-2.4476614737509772
 20
10.63342208090355
 30
0.0
 40
11.134741813448789
 50
271.72171882370128
 51
272.69052301849848
  0
ARC
  5
2097
  8
0
 10
-1.9273241882898879
 20
-0.2004461881936225
 30
0.0
 40
0.2886086901460297
 50
270.46478605790679
 51
282.58188735630199
  0
ARC
  5
20B7
  8
0
 10
-2.6568078680459442
 20
-0.5791936501879841
 30
0.0
 40
0.0768099961288308
 50
94.732346151630807
 51
104.4419272603094
  0
ARC
  5
20B8
  8
0
 10
-2.40957196142024
 20
-3.634348774732715
 30
0.0
 40
3.1419523492987218
 50
90.524879883313474
 51
94.62911874319505
  0
ARC
  5
20B9
  8
0
 10
1.8751083227080909
 20
-146.5740166395999
 30
0.0
 40
146.1451580061883
 50
91.563771704224436
 51
91.691326083895433
  0
ARC
  5
20BA
  8
0
 10
-2.447676048650977
 20
10.646427502303551
 30
0.0
 40
11.134741813448789
 50
271.72171882370128
 51
272.69052301849848
  0
ARC
  5
20BB
  8
0
 10
-1.9401813701841011
 20
0.0350171966601322
 30
0.0
 40
0.5112826672511199
 50
271.70178843443301
 51
278.11081883943638
  0
ARC
  5
20BC
  8
0
 10
-1.8697980951797
 20
-0.4636980739348214
 30
0.0
 40
0.0076563588334063
 50
283.23324394640861
 51
314.39448051566859
  0
ARC
  5
23A7
  8
0
 10
-3.587655785129563
 20
7.9378621493611341
 30
0.0
 40
0.0132284068799186
 50
99.311887350425124
 51
189.7556834185049
  0
ARC
  5
23A8
  8
0
 10
-3.5859411340014642
 20
7.9348148457934657
 30
0.0
 40
0.0165564692339165
 50
22.423077651070109
 51
103.46473209146571
  0
ARC
  5
23A9
  8
0
 10
-3.583285551087338
 20
7.9369720407578024
 30
0.0
 40
0.0133150198732433
 50
281.16233260518072
 51
18.1973016530062
  0
ARC
  5
23AA
  8
0
 10
-3.5854813146187152
 20
7.9386706665395179
 30
0.0
 40
0.0155143489148092
 50
191.33788066801429
 51
287.91929926490752
  0
ARC
  5
23C3
  8
0
 10
-3.1419279688821788
 20
8.1614066727840928
 30
0.0
 40
0.0132284068799186
 50
99.311887350425124
 51
189.7556834185049
  0
ARC
  5
23C4
  8
0
 10
-3.1402133177540801
 20
8.1583593692164253
 30
0.0
 40
0.0165564692339165
 50
22.423077651070049
 51
103.46473209146571
  0
ARC
  5
23C5
  8
0
 10
-3.137557734839953
 20
8.1605165641807602
 30
0.0
 40
0.0133150198732433
 50
281.16233260518072
 51
18.197301653006161
  0
ARC
  5
23C6
  8
0
 10
-3.1397534983713311
 20
8.1622151899624775
 30
0.0
 40
0.0155143489148092
 50
191.33788066801421
 51
287.91929926490752
  0
ARC
  5
23D5
  8
0
 10
-2.6961404672588318
 20
8.3961200248194565
 30
0.0
 40
0.0132284068799186
 50
99.311887350425181
 51
189.7556834185049
  0
ARC
  5
23D6
  8
0
 10
-2.6944258161307331
 20
8.3930727212517908
 30
0.0
 40
0.0165564692339165
 50
22.423077651070098
 51
103.46473209146571
  0
ARC
  5
23D7
  8
0
 10
-2.691770233216606
 20
8.3952299162161257
 30
0.0
 40
0.0133150198732433
 50
281.16233260518072
 51
18.19730165300621
  0
ARC
  5
23D8
  8
0
 10
-2.6939659967479841
 20
8.3969285419978412
 30
0.0
 40
0.0155143489148092
 50
191.33788066801421
 51
287.91929926490752
  0
ARC
  5
23D9
  8
0
 10
-2.2517423592654482
 20
8.1478194652420335
 30
0.0
 40
0.0132284068799186
 50
99.311887350425181
 51
189.7556834185049
  0
ARC
  5
23DA
  8
0
 10
-2.250027708137349
 20
8.1447721616743642
 30
0.0
 40
0.0165564692339165
 50
22.423077651070098
 51
103.46473209146571
  0
ARC
  5
23DB
  8
0
 10
-2.2473721252232228
 20
8.1469293566387009
 30
0.0
 40
0.0133150198732433
 50
281.16233260518072
 51
18.19730165300621
  0
ARC
  5
23DC
  8
0
 10
-2.2495678887546
 20
8.1486279824204182
 30
0.0
 40
0.0155143489148092
 50
191.33788066801421
 51
287.91929926490752
  0
ARC
  5
23DD
  8
0
 10
-1.8075119979654479
 20
8.3947258245420322
 30
0.0
 40
0.0132284068799186
 50
99.311887350425181
 51
189.7556834185049
  0
ARC
  5
23DE
  8
0
 10
-1.80579734683735
 20
8.3916785209743665
 30
0.0
 40
0.0165564692339165
 50
22.423077651070098
 51
103.46473209146571
  0
ARC
  5
23DF
  8
0
 10
-1.803141763923223
 20
8.3938357159387014
 30
0.0
 40
0.0133150198732433
 50
281.16233260518072
 51
18.19730165300621
  0
ARC
  5
23E0
  8
0
 10
-1.8053375274546
 20
8.3955343417204151
 30
0.0
 40
0.0155143489148092
 50
191.33788066801421
 51
287.91929926490752
  0
ARC
  5
23E1
  8
0
 10
-1.363511996565447
 20
8.1614661160420319
 30
0.0
 40
0.0132284068799186
 50
99.311887350425181
 51
189.7556834185049
  0
ARC
  5
23E2
  8
0
 10
-1.3617973454373491
 20
8.1584188124743662
 30
0.0
 40
0.0165564692339165
 50
22.42307765107012
 51
103.46473209146571
  0
ARC
  5
23E3
  8
0
 10
-1.3591417625232221
 20
8.160576007438701
 30
0.0
 40
0.0133150198732433
 50
281.16233260518072
 51
18.197301653006221
  0
ARC
  5
23E4
  8
0
 10
-1.361337526054599
 20
8.1622746332204166
 30
0.0
 40
0.0155143489148092
 50
191.33788066801421
 51
287.91929926490752
  0
ARC
  5
23E5
  8
0
 10
-0.9198869406654486
 20
7.9376632204420332
 30
0.0
 40
0.0132284068799186
 50
99.311887350425181
 51
189.7556834185049
  0
ARC
  5
23E6
  8
0
 10
-0.9181722895373498
 20
7.9346159168743648
 30
0.0
 40
0.0165564692339165
 50
22.423077651070098
 51
103.46473209146571
  0
ARC
  5
23E7
  8
0
 10
-0.9155167066232232
 20
7.9367731118387006
 30
0.0
 40
0.0133150198732433
 50
281.16233260518061
 51
18.19730165300621
  0
ARC
  5
23E8
  8
0
 10
-0.9177124701546005
 20
7.938471737620417
 30
0.0
 40
0.0155143489148092
 50
191.33788066801421
 51
287.91929926490741
  0
ARC
  5
23E9
  8
0
 10
-0.9214871055154487
 20
7.4601332869420318
 30
0.0
 40
0.0132284068799186
 50
99.311887350425181
 51
189.7556834185049
  0
ARC
  5
23EA
  8
0
 10
-0.91977245438735
 20
7.4570859833743652
 30
0.0
 40
0.0165564692339165
 50
22.423077651070098
 51
103.46473209146571
  0
ARC
  5
23EB
  8
0
 10
-0.9171168714732234
 20
7.4592431783387001
 30
0.0
 40
0.0133150198732433
 50
281.16233260518061
 51
18.1973016530062
  0
ARC
  5
23EC
  8
0
 10
-0.9193126350046005
 20
7.4609418041204174
 30
0.0
 40
0.0155143489148092
 50
191.33788066801421
 51
287.91929926490741
  0
ARC
  5
23ED
  8
0
 10
-0.4782662676654486
 20
7.2508146207920321
 30
0.0
 40
0.0132284068799186
 50
99.311887350425181
 51
189.7556834185049
  0
ARC
  5
23EE
  8
0
 10
-0.4765516165373498
 20
7.2477673172243637
 30
0.0
 40
0.0165564692339165
 50
22.42307765107012
 51
103.46473209146571
  0
ARC
  5
23EF
  8
0
 10
-0.4738960336232232
 20
7.2499245121887004
 30
0.0
 40
0.0133150198732433
 50
281.16233260518072
 51
18.197301653006221
  0
ARC
  5
23F0
  8
0
 10
-0.4760917971546004
 20
7.2516231379704159
 30
0.0
 40
0.0155143489148092
 50
191.33788066801421
 51
287.91929926490752
  0
ARC
  5
23F1
  8
0
 10
-0.4800036804654493
 20
6.7885675305920321
 30
0.0
 40
0.0132284068799186
 50
99.311887350425181
 51
189.7556834185049
  0
ARC
  5
23F2
  8
0
 10
-0.4782890293373506
 20
6.7855202270243637
 30
0.0
 40
0.0165564692339165
 50
22.42307765107012
 51
103.46473209146571
  0
ARC
  5
23F3
  8
0
 10
-0.475633446423224
 20
6.7876774219887004
 30
0.0
 40
0.0133150198732433
 50
281.16233260518072
 51
18.197301653006221
  0
ARC
  5
23F4
  8
0
 10
-0.4778292099546011
 20
6.7893760477704159
 30
0.0
 40
0.0155143489148092
 50
191.33788066801421
 51
287.91929926490752
  0
ARC
  5
23F5
  8
0
 10
-0.4820567301654482
 20
6.3360114864420334
 30
0.0
 40
0.0132284068799186
 50
99.311887350425181
 51
189.7556834185049
  0
ARC
  5
23F6
  8
0
 10
-0.4803420790373494
 20
6.332964182874365
 30
0.0
 40
0.0165564692339165
 50
22.42307765107012
 51
103.46473209146571
  0
ARC
  5
23F7
  8
0
 10
-0.4776864961232228
 20
6.3351213778387008
 30
0.0
 40
0.0133150198732433
 50
281.16233260518072
 51
18.197301653006221
  0
ARC
  5
23F8
  8
0
 10
-0.4798822596546
 20
6.3368200036204181
 30
0.0
 40
0.0155143489148092
 50
191.33788066801421
 51
287.91929926490752
  0
ARC
  5
23F9
  8
0
 10
-0.9284954506654488
 20
6.086907909842032
 30
0.0
 40
0.0132284068799186
 50
99.311887350425181
 51
189.7556834185049
  0
ARC
  5
23FA
  8
0
 10
-0.92678079953735
 20
6.0838606062743636
 30
0.0
 40
0.0165564692339165
 50
22.423077651070098
 51
103.46473209146571
  0
ARC
  5
23FB
  8
0
 10
-0.9241252166232234
 20
6.0860178012387003
 30
0.0
 40
0.0133150198732433
 50
281.16233260518061
 51
18.19730165300621
  0
ARC
  5
23FC
  8
0
 10
-0.9263209801546006
 20
6.0877164270204158
 30
0.0
 40
0.0155143489148092
 50
191.33788066801421
 51
287.91929926490741
  0
ARC
  5
23FD
  8
0
 10
-0.9302270658654485
 20
5.6496522573420309
 30
0.0
 40
0.0132284068799186
 50
99.311887350425181
 51
189.7556834185049
  0
ARC
  5
23FE
  8
0
 10
-0.9285124147373498
 20
5.6466049537743643
 30
0.0
 40
0.0165564692339165
 50
22.42307765107012
 51
103.46473209146571
  0
ARC
  5
23FF
  8
0
 10
-0.9258568318232232
 20
5.6487621487387001
 30
0.0
 40
0.0133150198732433
 50
281.16233260518072
 51
18.197301653006221
  0
ARC
  5
2400
  8
0
 10
-0.9280525953546003
 20
5.6504607745204156
 30
0.0
 40
0.0155143489148092
 50
191.33788066801421
 51
287.91929926490752
  0
ARC
  5
2401
  8
0
 10
-1.3739654693654471
 20
5.8507212736420326
 30
0.0
 40
0.0132284068799186
 50
99.311887350425181
 51
189.7556834185049
  0
ARC
  5
2402
  8
0
 10
-1.372250818237349
 20
5.8476739700743661
 30
0.0
 40
0.0165564692339165
 50
22.42307765107012
 51
103.46473209146571
  0
ARC
  5
2403
  8
0
 10
-1.3695952353232219
 20
5.8498311650387009
 30
0.0
 40
0.0133150198732433
 50
281.16233260518072
 51
18.197301653006221
  0
ARC
  5
2404
  8
0
 10
-1.3717909988545991
 20
5.8515297908204182
 30
0.0
 40
0.0155143489148092
 50
191.33788066801421
 51
287.91929926490752
  0
ARC
  5
2405
  8
0
 10
-1.374492083365447
 20
5.4173672703920319
 30
0.0
 40
0.0132284068799186
 50
99.311887350425181
 51
189.7556834185049
  0
ARC
  5
2406
  8
0
 10
-1.3727774322373489
 20
5.4143199668243653
 30
0.0
 40
0.0165564692339165
 50
22.42307765107012
 51
103.46473209146571
  0
ARC
  5
2407
  8
0
 10
-1.3701218493232219
 20
5.4164771617887011
 30
0.0
 40
0.0133150198732433
 50
281.16233260518072
 51
18.197301653006221
  0
ARC
  5
2408
  8
0
 10
-1.3723176128545991
 20
5.4181757875704166
 30
0.0
 40
0.0155143489148092
 50
191.33788066801421
 51
287.91929926490752
  0
ARC
  5
2409
  8
0
 10
-1.821388975165448
 20
5.1924981370420316
 30
0.0
 40
0.0132284068799186
 50
99.311887350425181
 51
189.7556834185049
  0
ARC
  5
240A
  8
0
 10
-1.819674324037349
 20
5.1894508334743641
 30
0.0
 40
0.0165564692339165
 50
22.423077651070098
 51
103.46473209146571
  0
ARC
  5
240B
  8
0
 10
-1.817018741123223
 20
5.1916080284386998
 30
0.0
 40
0.0133150198732433
 50
281.16233260518072
 51
18.19730165300621
  0
ARC
  5
240C
  8
0
 10
-1.8192145046546
 20
5.1933066542204172
 30
0.0
 40
0.0155143489148092
 50
191.33788066801421
 51
287.91929926490752
  0
ARC
  5
240D
  8
0
 10
-2.2639854762154479
 20
5.4023238299420333
 30
0.0
 40
0.0132284068799186
 50
99.311887350425181
 51
189.7556834185049
  0
ARC
  5
240E
  8
0
 10
-2.2622708250873491
 20
5.3992765263743649
 30
0.0
 40
0.0165564692339165
 50
22.423077651070098
 51
103.46473209146571
  0
ARC
  5
240F
  8
0
 10
-2.2596152421732221
 20
5.4014337213387007
 30
0.0
 40
0.0133150198732433
 50
281.16233260518072
 51
18.19730165300621
  0
ARC
  5
2410
  8
0
 10
-2.2618110057046001
 20
5.403132347120418
 30
0.0
 40
0.0155143489148092
 50
191.33788066801421
 51
287.91929926490752
  0
ARC
  5
2411
  8
0
 10
-2.7108330322154481
 20
5.191855607492033
 30
0.0
 40
0.0132284068799186
 50
99.311887350425181
 51
189.7556834185049
  0
ARC
  5
2412
  8
0
 10
-2.7091183810873489
 20
5.1888083039243647
 30
0.0
 40
0.0165564692339165
 50
22.423077651070098
 51
103.46473209146571
  0
ARC
  5
2413
  8
0
 10
-2.7064627981732219
 20
5.1909654988887013
 30
0.0
 40
0.0133150198732433
 50
281.16233260518072
 51
18.19730165300621
  0
ARC
  5
2414
  8
0
 10
-2.7086585617045991
 20
5.1926641246704168
 30
0.0
 40
0.0155143489148092
 50
191.33788066801421
 51
287.91929926490752
  0
ARC
  5
2415
  8
0
 10
-3.153877378665447
 20
5.4170332194420316
 30
0.0
 40
0.0132284068799186
 50
99.311887350425181
 51
189.7556834185049
  0
ARC
  5
2416
  8
0
 10
-3.1521627275373492
 20
5.4139859158743651
 30
0.0
 40
0.0165564692339165
 50
22.423077651070098
 51
103.46473209146571
  0
ARC
  5
2417
  8
0
 10
-3.1495071446232221
 20
5.4161431108386999
 30
0.0
 40
0.0133150198732433
 50
281.16233260518072
 51
18.19730165300621
  0
ARC
  5
2418
  8
0
 10
-3.1517029081545989
 20
5.4178417366204172
 30
0.0
 40
0.0155143489148092
 50
191.33788066801421
 51
287.91929926490752
  0
ARC
  5
2419
  8
0
 10
-3.5978470204654478
 20
5.6497804063420318
 30
0.0
 40
0.0132284068799186
 50
99.311887350425181
 51
189.7556834185049
  0
ARC
  5
241A
  8
0
 10
-3.596132369337349
 20
5.6467331027743652
 30
0.0
 40
0.0165564692339165
 50
22.423077651070098
 51
103.46473209146571
  0
ARC
  5
241B
  8
0
 10
-3.5934767864232229
 20
5.6488902977387001
 30
0.0
 40
0.0133150198732433
 50
281.16233260518072
 51
18.19730165300621
  0
ARC
  5
241C
  8
0
 10
-3.5956725499546001
 20
5.6505889235204174
 30
0.0
 40
0.0155143489148092
 50
191.33788066801421
 51
287.91929926490752
  0
ARC
  5
241D
  8
0
 10
-2.707727704865448
 20
5.623014746192033
 30
0.0
 40
0.0132284068799186
 50
99.311887350425181
 51
189.7556834185049
  0
ARC
  5
241E
  8
0
 10
-2.7060130537373488
 20
5.6199674426243647
 30
0.0
 40
0.0165564692339165
 50
22.423077651070098
 51
103.46473209146571
  0
ARC
  5
241F
  8
0
 10
-2.7033574708232222
 20
5.6221246375887013
 30
0.0
 40
0.0133150198732433
 50
281.16233260518072
 51
18.19730165300621
  0
ARC
  5
2420
  8
0
 10
-2.7055532343545989
 20
5.6238232633704168
 30
0.0
 40
0.0155143489148092
 50
191.33788066801421
 51
287.91929926490752
  0
ARC
  5
2421
  8
0
 10
-3.1537276014654481
 20
5.8494315779420321
 30
0.0
 40
0.0132284068799186
 50
99.311887350425181
 51
189.7556834185049
  0
ARC
  5
2422
  8
0
 10
-3.1520129503373489
 20
5.8463842743743646
 30
0.0
 40
0.0165564692339165
 50
22.423077651070098
 51
103.46473209146571
  0
ARC
  5
2423
  8
0
 10
-3.1493573674232218
 20
5.8485414693387012
 30
0.0
 40
0.0133150198732433
 50
281.16233260518072
 51
18.19730165300621
  0
ARC
  5
2424
  8
0
 10
-3.151553130954599
 20
5.8502400951204168
 30
0.0
 40
0.0155143489148092
 50
191.33788066801421
 51
287.91929926490752
  0
ARC
  5
2425
  8
0
 10
-3.5935557213654481
 20
6.0903779490420318
 30
0.0
 40
0.0132284068799186
 50
99.311887350425181
 51
189.7556834185049
  0
ARC
  5
2426
  8
0
 10
-3.5918410702373489
 20
6.0873306454743652
 30
0.0
 40
0.0165564692339165
 50
22.423077651070098
 51
103.46473209146571
  0
ARC
  5
2427
  8
0
 10
-3.5891854873232232
 20
6.0894878404387001
 30
0.0
 40
0.0133150198732433
 50
281.16233260518072
 51
18.19730165300621
  0
ARC
  5
2428
  8
0
 10
-3.5913812508545999
 20
6.0911864662204174
 30
0.0
 40
0.0155143489148092
 50
191.33788066801421
 51
287.91929926490752
  0
ARC
  5
2429
  8
0
 10
-3.1487597782154468
 20
6.2949968826420317
 30
0.0
 40
0.0132284068799186
 50
99.311887350425181
 51
189.7556834185049
  0
ARC
  5
242A
  8
0
 10
-3.1470451270873481
 20
6.2919495790743651
 30
0.0
 40
0.0165564692339165
 50
22.423077651070098
 51
103.46473209146571
  0
ARC
  5
242B
  8
0
 10
-3.1443895441732219
 20
6.2941067740387
 30
0.0
 40
0.0133150198732433
 50
281.16233260518072
 51
18.19730165300621
  0
ARC
  5
242C
  8
0
 10
-3.1465853077045991
 20
6.2958053998204173
 30
0.0
 40
0.0155143489148092
 50
191.33788066801421
 51
287.91929926490752
  0
ARC
  5
242D
  8
0
 10
-4.0380627347154476
 20
6.3377285661920331
 30
0.0
 40
0.0132284068799186
 50
99.311887350425181
 51
189.7556834185049
  0
ARC
  5
242E
  8
0
 10
-4.0363480835873489
 20
6.3346812626243647
 30
0.0
 40
0.0165564692339165
 50
22.423077651070098
 51
103.46473209146571
  0
ARC
  5
242F
  8
0
 10
-4.0336925006732232
 20
6.3368384575887013
 30
0.0
 40
0.0133150198732433
 50
281.16233260518072
 51
18.19730165300621
  0
ARC
  5
2430
  8
0
 10
-4.0358882642046003
 20
6.3385370833704169
 30
0.0
 40
0.0155143489148092
 50
191.33788066801421
 51
287.91929926490752
  0
ARC
  5
2431
  8
0
 10
-3.5958992242654482
 20
6.5345863121420322
 30
0.0
 40
0.0132284068799186
 50
99.311887350425181
 51
189.7556834185049
  0
ARC
  5
2432
  8
0
 10
-3.594184573137349
 20
6.5315390085743639
 30
0.0
 40
0.0165564692339165
 50
22.423077651070098
 51
103.46473209146571
  0
ARC
  5
2433
  8
0
 10
-3.5915289902232219
 20
6.5336962035386996
 30
0.0
 40
0.0133150198732433
 50
281.16233260518072
 51
18.19730165300621
  0
ARC
  5
2434
  8
0
 10
-3.5937247537545991
 20
6.535394829320416
 30
0.0
 40
0.0155143489148092
 50
191.33788066801421
 51
287.91929926490752
  0
ARC
  5
2435
  8
0
 10
-4.0363884037154483
 20
6.7899424225420324
 30
0.0
 40
0.0132284068799186
 50
99.311887350425181
 51
189.7556834185049
  0
ARC
  5
2436
  8
0
 10
-4.0346737525873486
 20
6.786895118974364
 30
0.0
 40
0.0165564692339165
 50
22.423077651070098
 51
103.46473209146571
  0
ARC
  5
2437
  8
0
 10
-4.032018169673222
 20
6.7890523139386998
 30
0.0
 40
0.0133150198732433
 50
281.16233260518072
 51
18.19730165300621
  0
ARC
  5
2438
  8
0
 10
-4.0342139332046001
 20
6.7907509397204171
 30
0.0
 40
0.0155143489148092
 50
191.33788066801421
 51
287.91929926490752
  0
ARC
  5
2439
  8
0
 10
-3.590872035965448
 20
6.9962164021420321
 30
0.0
 40
0.0132284068799186
 50
99.311887350425181
 51
189.7556834185049
  0
ARC
  5
243A
  8
0
 10
-3.5891573848373488
 20
6.9931690985743638
 30
0.0
 40
0.0165564692339165
 50
22.423077651070098
 51
103.46473209146571
  0
ARC
  5
243B
  8
0
 10
-3.5865018019232231
 20
6.9953262935387004
 30
0.0
 40
0.0133150198732433
 50
281.16233260518072
 51
18.1973016530062
  0
ARC
  5
243C
  8
0
 10
-3.5886975654545998
 20
6.9970249193204159
 30
0.0
 40
0.0155143489148092
 50
191.33788066801421
 51
287.91929926490752
  0
ARC
  5
243D
  8
0
 10
-4.0360880909654471
 20
7.2504559654420317
 30
0.0
 40
0.0132284068799186
 50
99.311887350425181
 51
189.7556834185049
  0
ARC
  5
243E
  8
0
 10
-4.0343734398373492
 20
7.2474086618743652
 30
0.0
 40
0.0165564692339165
 50
22.423077651070098
 51
103.46473209146571
  0
ARC
  5
243F
  8
0
 10
-4.0317178569232217
 20
7.2495658568387
 30
0.0
 40
0.0133150198732433
 50
281.16233260518072
 51
18.1973016530062
  0
ARC
  5
2440
  8
0
 10
-4.0339136204545989
 20
7.2512644826204173
 30
0.0
 40
0.0155143489148092
 50
191.33788066801421
 51
287.91929926490752
  0
ARC
  5
2441
  8
0
 10
-3.1451844047154478
 20
7.2096467820920331
 30
0.0
 40
0.0132284068799186
 50
99.311887350425181
 51
189.7556834185049
  0
ARC
  5
2442
  8
0
 10
-3.143469753587349
 20
7.2065994785243648
 30
0.0
 40
0.0165564692339165
 50
22.423077651070098
 51
103.46473209146571
  0
ARC
  5
2443
  8
0
 10
-3.140814170673222
 20
7.2087566734887014
 30
0.0
 40
0.0133150198732433
 50
281.16233260518072
 51
18.1973016530062
  0
ARC
  5
2444
  8
0
 10
-3.1430099342046001
 20
7.210455299270417
 30
0.0
 40
0.0155143489148092
 50
191.33788066801421
 51
287.91929926490752
  0
ARC
  5
2445
  8
0
 10
-3.5897088458232331
 20
7.4602548634463517
 30
0.0
 40
0.0132284068799186
 50
99.311887350425181
 51
189.7556834185049
  0
ARC
  5
2446
  8
0
 10
-3.5879941946951339
 20
7.4572075598786851
 30
0.0
 40
0.0165564692339165
 50
22.423077651070098
 51
103.46473209146571
  0
ARC
  5
2447
  8
0
 10
-3.5853386117810082
 20
7.45936475484302
 30
0.0
 40
0.0133150198732433
 50
281.16233260518072
 51
18.1973016530062
  0
ARC
  5
2448
  8
0
 10
-3.5875343753123849
 20
7.4610633806247373
 30
0.0
 40
0.0155143489148092
 50
191.33788066801421
 51
287.91929926490752
  0
ARC
  5
2449
  8
0
 10
-3.140682094815447
 20
7.6843410157920333
 30
0.0
 40
0.0132284068799186
 50
99.311887350425181
 51
189.7556834185049
  0
ARC
  5
244A
  8
0
 10
-3.1389674436873491
 20
7.681293712224365
 30
0.0
 40
0.0165564692339165
 50
22.423077651070098
 51
103.46473209146571
  0
ARC
  5
244B
  8
0
 10
-3.1363118607732221
 20
7.6834509071887007
 30
0.0
 40
0.0133150198732433
 50
281.16233260518072
 51
18.1973016530062
  0
ARC
  5
244C
  8
0
 10
-3.1385076243045988
 20
7.685149532970418
 30
0.0
 40
0.0155143489148092
 50
191.33788066801421
 51
287.91929926490752
  0
ARC
  5
244D
  8
0
 10
-2.7009378660654479
 20
7.432181321542032
 30
0.0
 40
0.0132284068799186
 50
99.311887350425181
 51
189.7556834185049
  0
ARC
  5
244E
  8
0
 10
-2.6992232149373492
 20
7.4291340179743646
 30
0.0
 40
0.0165564692339165
 50
22.423077651070098
 51
103.46473209146571
  0
ARC
  5
244F
  8
0
 10
-2.696567632023223
 20
7.4312912129387012
 30
0.0
 40
0.0133150198732433
 50
281.16233260518072
 51
18.1973016530062
  0
ARC
  5
2450
  8
0
 10
-2.6987633955546002
 20
7.4329898387204167
 30
0.0
 40
0.0155143489148092
 50
191.33788066801421
 51
287.91929926490752
  0
ARC
  5
2451
  8
0
 10
-2.700099215815448
 20
7.9071330586920334
 30
0.0
 40
0.0132284068799186
 50
99.311887350425181
 51
189.7556834185049
  0
ARC
  5
2452
  8
0
 10
-2.6983845646873501
 20
7.9040857551243651
 30
0.0
 40
0.0165564692339165
 50
22.423077651070098
 51
103.46473209146571
  0
ARC
  5
2453
  8
0
 10
-2.6957289817732231
 20
7.9062429500887008
 30
0.0
 40
0.0133150198732433
 50
281.16233260518072
 51
18.19730165300621
  0
ARC
  5
2454
  8
0
 10
-2.6979247453045998
 20
7.9079415758704181
 30
0.0
 40
0.0155143489148092
 50
191.33788066801421
 51
287.91929926490752
  0
ARC
  5
2455
  8
0
 10
-2.256962079565449
 20
7.663040272842033
 30
0.0
 40
0.0132284068799186
 50
99.311887350425181
 51
189.7556834185049
  0
ARC
  5
2456
  8
0
 10
-2.2552474284373498
 20
7.6599929692743647
 30
0.0
 40
0.0165564692339165
 50
22.423077651070098
 51
103.46473209146571
  0
ARC
  5
2457
  8
0
 10
-2.2525918455232228
 20
7.6621501642387013
 30
0.0
 40
0.0133150198732433
 50
281.16233260518072
 51
18.1973016530062
  0
ARC
  5
2458
  8
0
 10
-2.2547876090546
 20
7.6638487900204169
 30
0.0
 40
0.0155143489148092
 50
191.33788066801421
 51
287.91929926490752
  0
ARC
  5
2459
  8
0
 10
-1.8102894056654479
 20
7.9086630569420322
 30
0.0
 40
0.0132284068799186
 50
99.311887350425181
 51
189.7556834185049
  0
ARC
  5
245A
  8
0
 10
-1.8085747545373501
 20
7.9056157533743638
 30
0.0
 40
0.0165564692339165
 50
22.423077651070098
 51
103.46473209146571
  0
ARC
  5
245B
  8
0
 10
-1.805919171623223
 20
7.9077729483386996
 30
0.0
 40
0.0133150198732433
 50
281.16233260518072
 51
18.19730165300621
  0
ARC
  5
245C
  8
0
 10
-1.8081149351546
 20
7.909471574120416
 30
0.0
 40
0.0155143489148092
 50
191.33788066801421
 51
287.91929926490752
  0
ARC
  5
245D
  8
0
 10
-1.365317215215448
 20
7.6810709294420327
 30
0.0
 40
0.0132284068799186
 50
99.311887350425181
 51
189.7556834185049
  0
ARC
  5
245E
  8
0
 10
-1.363602564087349
 20
7.6780236258743662
 30
0.0
 40
0.0165564692339165
 50
22.42307765107012
 51
103.46473209146571
  0
ARC
  5
245F
  8
0
 10
-1.360946981173222
 20
7.680180820838701
 30
0.0
 40
0.0133150198732433
 50
281.16233260518072
 51
18.197301653006221
  0
ARC
  5
2460
  8
0
 10
-1.3631427447046001
 20
7.6818794466204183
 30
0.0
 40
0.0155143489148092
 50
191.33788066801421
 51
287.91929926490752
  0
ARC
  5
2461
  8
0
 10
-1.3676666926654479
 20
7.208818118642033
 30
0.0
 40
0.0132284068799186
 50
99.311887350425181
 51
189.7556834185049
  0
ARC
  5
2462
  8
0
 10
-1.3659520415373489
 20
7.2057708150743647
 30
0.0
 40
0.0165564692339165
 50
22.42307765107012
 51
103.46473209146571
  0
ARC
  5
2463
  8
0
 10
-1.363296458623223
 20
7.2079280100387013
 30
0.0
 40
0.0133150198732433
 50
281.16233260518072
 51
18.197301653006221
  0
ARC
  5
2464
  8
0
 10
-1.3654922221546
 20
7.2096266358204169
 30
0.0
 40
0.0155143489148092
 50
191.33788066801421
 51
287.91929926490752
  0
ARC
  5
2465
  8
0
 10
-0.9245514819154481
 20
6.993641265592033
 30
0.0
 40
0.0132284068799186
 50
99.311887350425181
 51
189.7556834185049
  0
ARC
  5
2466
  8
0
 10
-0.9228368307873494
 20
6.9905939620243647
 30
0.0
 40
0.0165564692339165
 50
22.423077651070098
 51
103.46473209146571
  0
ARC
  5
2467
  8
0
 10
-0.9201812478732228
 20
6.9927511569887013
 30
0.0
 40
0.0133150198732433
 50
281.16233260518061
 51
18.1973016530062
  0
ARC
  5
2468
  8
0
 10
-0.9223770114045999
 20
6.9944497827704168
 30
0.0
 40
0.0155143489148092
 50
191.33788066801421
 51
287.91929926490741
  0
ARC
  5
2469
  8
0
 10
-0.9267623360154484
 20
6.5361934060420319
 30
0.0
 40
0.0132284068799186
 50
99.311887350425181
 51
189.7556834185049
  0
ARC
  5
246A
  8
0
 10
-0.9250476848873496
 20
6.5331461024743653
 30
0.0
 40
0.0165564692339165
 50
22.42307765107012
 51
103.46473209146571
  0
ARC
  5
246B
  8
0
 10
-0.922392101973223
 20
6.5353032974387011
 30
0.0
 40
0.0133150198732433
 50
281.16233260518072
 51
18.197301653006221
  0
ARC
  5
246C
  8
0
 10
-0.9245878655046002
 20
6.5370019232204166
 30
0.0
 40
0.0155143489148092
 50
191.33788066801421
 51
287.91929926490752
  0
ARC
  5
246D
  8
0
 10
-1.369746228665448
 20
6.7457250869920324
 30
0.0
 40
0.0132284068799186
 50
99.311887350425181
 51
189.7556834185049
  0
ARC
  5
246E
  8
0
 10
-1.3680315775373491
 20
6.7426777834243641
 30
0.0
 40
0.0165564692339165
 50
22.42307765107012
 51
103.46473209146571
  0
ARC
  5
246F
  8
0
 10
-1.3653759946232229
 20
6.7448349783886998
 30
0.0
 40
0.0133150198732433
 50
281.16233260518072
 51
18.197301653006221
  0
ARC
  5
2470
  8
0
 10
-1.3675717581546001
 20
6.7465336041704171
 30
0.0
 40
0.0155143489148092
 50
191.33788066801421
 51
287.91929926490752
  0
ARC
  5
2471
  8
0
 10
-1.3685251803654479
 20
6.2966862697420316
 30
0.0
 40
0.0132284068799186
 50
99.311887350425181
 51
189.7556834185049
  0
ARC
  5
2472
  8
0
 10
-1.36681052923735
 20
6.293638966174365
 30
0.0
 40
0.0165564692339165
 50
22.42307765107012
 51
103.46473209146571
  0
ARC
  5
2473
  8
0
 10
-1.364154946323223
 20
6.2957961611386999
 30
0.0
 40
0.0133150198732433
 50
281.16233260518072
 51
18.197301653006221
  0
ARC
  5
2474
  8
0
 10
-1.3663507098545999
 20
6.2974947869204172
 30
0.0
 40
0.0155143489148092
 50
191.33788066801421
 51
287.91929926490752
  0
ARC
  5
2475
  8
0
 10
-1.8121817434654479
 20
6.0641722691420332
 30
0.0
 40
0.0132284068799186
 50
99.311887350425181
 51
189.7556834185049
  0
ARC
  5
2476
  8
0
 10
-1.8104670923373489
 20
6.0611249655743649
 30
0.0
 40
0.0165564692339165
 50
22.423077651070098
 51
103.46473209146571
  0
ARC
  5
2477
  8
0
 10
-1.8078115094232221
 20
6.0632821605387006
 30
0.0
 40
0.0133150198732433
 50
281.16233260518072
 51
18.19730165300621
  0
ARC
  5
2478
  8
0
 10
-1.8100072729545991
 20
6.064980786320417
 30
0.0
 40
0.0155143489148092
 50
191.33788066801421
 51
287.91929926490752
  0
ARC
  5
2479
  8
0
 10
-2.261981292565447
 20
5.837488594242032
 30
0.0
 40
0.0132284068799186
 50
99.311887350425181
 51
189.7556834185049
  0
ARC
  5
247A
  8
0
 10
-2.2602666414373491
 20
5.8344412906743646
 30
0.0
 40
0.0165564692339165
 50
22.423077651070098
 51
103.46473209146571
  0
ARC
  5
247B
  8
0
 10
-2.2576110585232221
 20
5.8365984856387012
 30
0.0
 40
0.0133150198732433
 50
281.16233260518072
 51
18.19730165300621
  0
ARC
  5
247C
  8
0
 10
-2.2598068220545988
 20
5.8382971114204167
 30
0.0
 40
0.0155143489148092
 50
191.33788066801421
 51
287.91929926490752
  0
ARC
  5
247D
  8
0
 10
-2.7031635446654478
 20
6.063286711242033
 30
0.0
 40
0.0132284068799186
 50
99.311887350425181
 51
189.7556834185049
  0
ARC
  5
247E
  8
0
 10
-2.7014488935373491
 20
6.0602394076743646
 30
0.0
 40
0.0165564692339165
 50
22.423077651070098
 51
103.46473209146571
  0
ARC
  5
247F
  8
0
 10
-2.6987933106232229
 20
6.0623966026387013
 30
0.0
 40
0.0133150198732433
 50
281.16233260518072
 51
18.19730165300621
  0
ARC
  5
2480
  8
0
 10
-2.7009890741546001
 20
6.0640952284204168
 30
0.0
 40
0.0155143489148092
 50
191.33788066801421
 51
287.91929926490752
  0
ARC
  5
2481
  8
0
 10
-1.8211178814154481
 20
5.6193824193920321
 30
0.0
 40
0.0132284068799186
 50
99.311887350425181
 51
189.7556834185049
  0
ARC
  5
2482
  8
0
 10
-1.8194032302873491
 20
5.6163351158243646
 30
0.0
 40
0.0165564692339165
 50
22.423077651070098
 51
103.46473209146571
  0
ARC
  5
2483
  8
0
 10
-1.816747647373222
 20
5.6184923107887013
 30
0.0
 40
0.0133150198732433
 50
281.16233260518072
 51
18.19730165300621
  0
ARC
  5
2484
  8
0
 10
-1.8189434109046001
 20
5.6201909365704168
 30
0.0
 40
0.0155143489148092
 50
191.33788066801421
 51
287.91929926490752
  0
ARC
  5
2485
  8
0
 10
-3.148169763565448
 20
6.7460377765920319
 30
0.0
 40
0.0132284068799186
 50
99.311887350425181
 51
189.7556834185049
  0
ARC
  5
2486
  8
0
 10
-3.1464551124373492
 20
6.7429904730243653
 30
0.0
 40
0.0165564692339165
 50
22.423077651070098
 51
103.46473209146571
  0
ARC
  5
2487
  8
0
 10
-3.1437995295232231
 20
6.745147667988701
 30
0.0
 40
0.0133150198732433
 50
281.16233260518072
 51
18.19730165300621
  0
ARC
  5
2488
  8
0
 10
-3.1459952930545998
 20
6.7468462937704166
 30
0.0
 40
0.0155143489148092
 50
191.33788066801421
 51
287.91929926490752
  0
ARC
  5
2489
  8
0
 10
-1.8094099893654481
 20
7.4341419419920323
 30
0.0
 40
0.0132284068799186
 50
99.311887350425181
 51
189.7556834185049
  0
ARC
  5
248A
  8
0
 10
-1.8076953382373491
 20
7.4310946384243639
 30
0.0
 40
0.0165564692339165
 50
22.423077651070098
 51
103.46473209146571
  0
ARC
  5
248B
  8
0
 10
-1.8050397553232229
 20
7.4332518333886997
 30
0.0
 40
0.0133150198732433
 50
281.16233260518072
 51
18.1973016530062
  0
ARC
  5
248C
  8
0
 10
-1.8072355188546001
 20
7.4349504591704161
 30
0.0
 40
0.0155143489148092
 50
191.33788066801421
 51
287.91929926490752
  0
ARC
  5
248D
  8
0
 10
-2.2527028910558919
 20
7.188813506339347
 30
0.0
 40
0.0224352742719511
 50
40.65941143323797
 51
139.12235792211069
  0
ARC
  5
248E
  8
0
 10
-2.249454700891143
 20
7.1923249200508801
 30
0.0
 40
0.0176917780693968
 50
300.395607903155
 51
38.886505547474123
  0
ARC
  5
248F
  8
0
 10
-2.2526090428332681
 20
7.1968270145147697
 30
0.0
 40
0.0231752976163255
 50
222.1040808240449
 51
301.4905754440681
  0
ARC
  5
2490
  8
0
 10
-2.2550673698351011
 20
7.1923018010580506
 30
0.0
 40
0.0183968964718006
 50
142.5194072332886
 51
216.77344932035419
  0
ARC
  5
249F
  8
0
 10
-2.0300544223959718
 20
7.0725944939124066
 30
0.0
 40
0.0224352742719511
 50
40.659411433237977
 51
139.12235792211069
  0
ARC
  5
24A0
  8
0
 10
-2.0268062322312228
 20
7.0761059076239397
 30
0.0
 40
0.0176917780693968
 50
300.395607903155
 51
38.886505547474137
  0
ARC
  5
24A1
  8
0
 10
-2.0299605741733471
 20
7.080608002087831
 30
0.0
 40
0.0231752976163255
 50
222.1040808240449
 51
301.49057544406799
  0
ARC
  5
24A2
  8
0
 10
-2.032418901175181
 20
7.0760827886311111
 30
0.0
 40
0.0183968964718006
 50
142.5194072332886
 51
216.77344932035419
  0
ARC
  5
24A3
  8
0
 10
-1.810806957745972
 20
6.9589574759624071
 30
0.0
 40
0.0224352742719511
 50
40.659411433237977
 51
139.12235792211069
  0
ARC
  5
24A4
  8
0
 10
-1.807558767581223
 20
6.9624688896739402
 30
0.0
 40
0.0176917780693968
 50
300.395607903155
 51
38.886505547474137
  0
ARC
  5
24A5
  8
0
 10
-1.810713109523348
 20
6.9669709841378298
 30
0.0
 40
0.0231752976163255
 50
222.1040808240449
 51
301.49057544406799
  0
ARC
  5
24A6
  8
0
 10
-1.813171436525181
 20
6.9624457706811107
 30
0.0
 40
0.0183968964718006
 50
142.5194072332886
 51
216.77344932035419
  0
ARC
  5
24A7
  8
0
 10
-1.811206671395972
 20
6.7292296579124073
 30
0.0
 40
0.0224352742719511
 50
40.659411433237977
 51
139.12235792211069
  0
ARC
  5
24A8
  8
0
 10
-1.807958481231223
 20
6.7327410716239404
 30
0.0
 40
0.0176917780693968
 50
300.395607903155
 51
38.886505547474137
  0
ARC
  5
24A9
  8
0
 10
-1.811112823173348
 20
6.73724316608783
 30
0.0
 40
0.0231752976163255
 50
222.1040808240449
 51
301.49057544406799
  0
ARC
  5
24AA
  8
0
 10
-1.813571150175181
 20
6.7327179526311109
 30
0.0
 40
0.0183968964718006
 50
142.5194072332886
 51
216.77344932035419
  0
ARC
  5
24AB
  8
0
 10
-1.811751093645972
 20
6.5014362356624069
 30
0.0
 40
0.0224352742719511
 50
40.659411433237977
 51
139.12235792211069
  0
ARC
  5
24AC
  8
0
 10
-1.808502903481223
 20
6.50494764937394
 30
0.0
 40
0.0176917780693968
 50
300.395607903155
 51
38.886505547474137
  0
ARC
  5
24AD
  8
0
 10
-1.8116572454233479
 20
6.5094497438378314
 30
0.0
 40
0.0231752976163255
 50
222.1040808240449
 51
301.49057544406799
  0
ARC
  5
24AE
  8
0
 10
-1.814115572425181
 20
6.5049245303811123
 30
0.0
 40
0.0183968964718006
 50
142.5194072332886
 51
216.77344932035419
  0
ARC
  5
24AF
  8
0
 10
-2.0369052398459719
 20
6.3861853971624072
 30
0.0
 40
0.0224352742719511
 50
40.659411433237977
 51
139.12235792211069
  0
ARC
  5
24B0
  8
0
 10
-2.033657049681223
 20
6.3896968108739403
 30
0.0
 40
0.0176917780693968
 50
300.395607903155
 51
38.886505547474137
  0
ARC
  5
24B1
  8
0
 10
-2.0368113916233481
 20
6.3941989053378299
 30
0.0
 40
0.0231752976163255
 50
222.1040808240449
 51
301.49057544406799
  0
ARC
  5
24B2
  8
0
 10
-2.0392697186251811
 20
6.3896736918811108
 30
0.0
 40
0.0183968964718006
 50
142.5194072332886
 51
216.77344932035419
  0
ARC
  5
24B3
  8
0
 10
-2.2621344508459731
 20
6.2732900050124067
 30
0.0
 40
0.0224352742719511
 50
40.659411433237977
 51
139.12235792211069
  0
ARC
  5
24B4
  8
0
 10
-2.2588862606812241
 20
6.2768014187239398
 30
0.0
 40
0.0176917780693968
 50
300.395607903155
 51
38.886505547474137
  0
ARC
  5
24B5
  8
0
 10
-2.2620406026233479
 20
6.2813035131878312
 30
0.0
 40
0.0231752976163255
 50
222.1040808240449
 51
301.49057544406799
  0
ARC
  5
24B6
  8
0
 10
-2.264498929625181
 20
6.2767782997311121
 30
0.0
 40
0.0183968964718006
 50
142.5194072332886
 51
216.77344932035419
  0
ARC
  5
24B7
  8
0
 10
-2.4792823070459722
 20
6.3870251579124071
 30
0.0
 40
0.0224352742719511
 50
40.659411433237977
 51
139.12235792211069
  0
ARC
  5
24B8
  8
0
 10
-2.4760341168812232
 20
6.3905365716239402
 30
0.0
 40
0.0176917780693968
 50
300.395607903155
 51
38.886505547474137
  0
ARC
  5
24B9
  8
0
 10
-2.479188458823347
 20
6.3950386660878298
 30
0.0
 40
0.0231752976163255
 50
222.1040808240449
 51
301.49057544406799
  0
ARC
  5
24BA
  8
0
 10
-2.4816467858251809
 20
6.3905134526311107
 30
0.0
 40
0.0183968964718006
 50
142.5194072332886
 51
216.77344932035419
  0
ARC
  5
24BB
  8
0
 10
-2.7029287326959719
 20
6.5030976273124068
 30
0.0
 40
0.0224352742719511
 50
40.659411433237977
 51
139.12235792211069
  0
ARC
  5
24BC
  8
0
 10
-2.6996805425312229
 20
6.5066090410239399
 30
0.0
 40
0.0176917780693968
 50
300.395607903155
 51
38.886505547474137
  0
ARC
  5
24BD
  8
0
 10
-2.7028348844733481
 20
6.5111111354878313
 30
0.0
 40
0.0231752976163255
 50
222.1040808240449
 51
301.49057544406799
  0
ARC
  5
24BE
  8
0
 10
-2.7052932114751811
 20
6.5065859220311122
 30
0.0
 40
0.0183968964718006
 50
142.5194072332886
 51
216.77344932035419
  0
ARC
  5
24BF
  8
0
 10
-2.7003756071959719
 20
6.730916969012406
 30
0.0
 40
0.0224352742719511
 50
40.659411433237977
 51
139.12235792211069
  0
ARC
  5
24C0
  8
0
 10
-2.6971274170312229
 20
6.7344283827239391
 30
0.0
 40
0.0176917780693968
 50
300.395607903155
 51
38.886505547474137
  0
ARC
  5
24C1
  8
0
 10
-2.7002817589733481
 20
6.7389304771878296
 30
0.0
 40
0.0231752976163255
 50
222.1040808240449
 51
301.49057544406799
  0
ARC
  5
24C2
  8
0
 10
-2.7027400859751811
 20
6.7344052637311114
 30
0.0
 40
0.0183968964718006
 50
142.5194072332886
 51
216.77344932035419
  0
ARC
  5
24C3
  8
0
 10
-2.697648647895972
 20
6.9606129473624074
 30
0.0
 40
0.0224352742719511
 50
40.659411433237977
 51
139.12235792211069
  0
ARC
  5
24C4
  8
0
 10
-2.6944004577312231
 20
6.9641243610739396
 30
0.0
 40
0.0176917780693968
 50
300.395607903155
 51
38.886505547474137
  0
ARC
  5
24C5
  8
0
 10
-2.6975547996733482
 20
6.9686264555378301
 30
0.0
 40
0.0231752976163255
 50
222.1040808240449
 51
301.49057544406799
  0
ARC
  5
24C6
  8
0
 10
-2.7000131266751808
 20
6.964101242081111
 30
0.0
 40
0.0183968964718006
 50
142.5194072332886
 51
216.77344932035419
  0
ARC
  5
24C7
  8
0
 10
-2.4767637857959719
 20
7.0734414089124069
 30
0.0
 40
0.0224352742719511
 50
40.659411433237977
 51
139.12235792211069
  0
ARC
  5
24C8
  8
0
 10
-2.4735155956312229
 20
7.07695282262394
 30
0.0
 40
0.0176917780693968
 50
300.395607903155
 51
38.886505547474137
  0
ARC
  5
24C9
  8
0
 10
-2.4766699375733481
 20
7.0814549170878314
 30
0.0
 40
0.0231752976163255
 50
222.1040808240449
 51
301.49057544406799
  0
ARC
  5
24CA
  8
0
 10
-2.4791282645751811
 20
7.0769297036311123
 30
0.0
 40
0.0183968964718006
 50
142.5194072332886
 51
216.77344932035419
  0
ATTDEF
  5
25A0
  8
DEFPOINTS
 10
-2.2747825088991021
 20
-0.2590726266702645
 30
0.0
 40
0.001
  1
PREMIUM MATERIALS
  3

  2
MATERIAL
 70
     0
1001
ACDBATTR
1070
     0
1070
     1
  0
ATTDEF
  5
25A1
  8
DEFPOINTS
 10
-2.2747825088991021
 20
-0.2574059600035923
 30
0.0
 40
0.001
  1
HANDSHOWER 
  3

  2
PRODUCT
 70
     0
1001
ACDBATTR
1070
     0
1070
     1
  0
ATTDEF
  5
25A2
  8
DEFPOINTS
 10
-2.2747825088991021
 20
-0.2557392933369271
 30
0.0
 40
0.001
  1
AWAKEN G110
  3

  2
TRADENAME
 70
     0
1001
ACDBATTR
1070
     0
1070
     1
  0
ATTDEF
  5
25A3
  8
DEFPOINTS
 10
-2.2747825088991021
 20
-0.254072626670262
 30
0.0
 40
0.001
  1
K-72415
  3

  2
MODELNUMBER
 70
     0
1001
ACDBATTR
1070
     0
1070
     1
  0
ENDSEC
  0
EOF
