  0
SECTION
  2
HEADER
  9
$ACADVER
  1
AC1009
  9
$INSBASE
 10
703.2937073955088181
 20
15.4820716709861106
 30
0.0
  9
$EXTMIN
 10
702.2834373312075513
 20
6.1374716709861108
 30
0.0
  9
$EXTMAX
 10
706.2404693256755763
 20
16.4923716709861097
 30
0.0
  9
$LIMMIN
 10
0.0
 20
0.0
  9
$LIMMAX
 10
11.6929133858000007
 20
8.2677165353999982
  9
$ORTHOMODE
 70
     1
  9
$REGENMODE
 70
     1
  9
$FILLMODE
 70
     1
  9
$QTEXTMODE
 70
     0
  9
$MIRRTEXT
 70
     0
  9
$DRAGMODE
 70
     2
  9
$LTSCALE
 40
0.6431102362
  9
$OSMODE
 70
  4095
  9
$ATTMODE
 70
     1
  9
$TEXTSIZE
 40
0.2
  9
$TRACEWID
 40
0.05
  9
$TEXTSTYLE
  7
STANDARD
  9
$CLAYER
  8
0
  9
$CELTYPE
  6
BYLAYER
  9
$CECOLOR
 62
   256
  9
$DIMSCALE
 40
1.0
  9
$DIMASZ
 40
0.1875
  9
$DIMEXO
 40
0.0625
  9
$DIMDLI
 40
0.4443307087
  9
$DIMRND
 40
0.0
  9
$DIMDLE
 40
0.0
  9
$DIMEXE
 40
0.125
  9
$DIMTP
 40
0.01
  9
$DIMTM
 40
0.01
  9
$DIMTXT
 40
2.0
  9
$DIMCEN
 40
0.1052362205
  9
$DIMTSZ
 40
0.0
  9
$DIMTOL
 70
     1
  9
$DIMLIM
 70
     0
  9
$DIMTIH
 70
     1
  9
$DIMTOH
 70
     1
  9
$DIMSE1
 70
     0
  9
$DIMSE2
 70
     0
  9
$DIMTAD
 70
     0
  9
$DIMZIN
 70
     0
  9
$DIMBLK
  1

  9
$DIMASO
 70
     1
  9
$DIMSHO
 70
     1
  9
$DIMPOST
  1
\X
  9
$DIMAPOST
  1

  9
$DIMALT
 70
     1
  9
$DIMALTD
 70
     2
  9
$DIMALTF
 40
25.3999999999999986
  9
$DIMLFAC
 40
1.0
  9
$DIMTOFL
 70
     0
  9
$DIMTVP
 40
0.0
  9
$DIMTIX
 70
     0
  9
$DIMSOXD
 70
     0
  9
$DIMSAH
 70
     0
  9
$DIMBLK1
  1

  9
$DIMBLK2
  1

  9
$DIMSTYLE
  2
STANDARD
  9
$DIMCLRD
 70
     0
  9
$DIMCLRE
 70
     0
  9
$DIMCLRT
 70
     0
  9
$DIMTFAC
 40
1.0
  9
$DIMGAP
 40
0.09
  9
$LUNITS
 70
     2
  9
$LUPREC
 70
     4
  9
$SKETCHINC
 40
0.1
  9
$FILLETRAD
 40
0.0
  9
$AUNITS
 70
     0
  9
$AUPREC
 70
     0
  9
$MENU
  1
.
  9
$ELEVATION
 40
0.0
  9
$PELEVATION
 40
0.0
  9
$THICKNESS
 40
0.0
  9
$LIMCHECK
 70
     0
  9
$BLIPMODE
 70
     0
  9
$CHAMFERA
 40
0.0
  9
$CHAMFERB
 40
0.0
  9
$SKPOLY
 70
     0
  9
$TDCREATE
 40
2458060.468368056230247
  9
$TDUPDATE
 40
2458688.6579513889737427
  9
$TDINDWG
 40
0.2598270255
  9
$TDUSRTIMER
 40
0.2598270255
  9
$USRTIMER
 70
     1
  9
$ANGBASE
 50
0.0
  9
$ANGDIR
 70
     0
  9
$PDMODE
 70
     0
  9
$PDSIZE
 40
0.3125
  9
$PLINEWID
 40
0.0
  9
$COORDS
 70
     1
  9
$SPLFRAME
 70
     0
  9
$SPLINETYPE
 70
     6
  9
$SPLINESEGS
 70
     8
  9
$ATTDIA
 70
     1
  9
$ATTREQ
 70
     1
  9
$HANDLING
 70
     1
  9
$HANDSEED
  5
5018
  9
$SURFTAB1
 70
     6
  9
$SURFTAB2
 70
     6
  9
$SURFTYPE
 70
     6
  9
$SURFU
 70
     6
  9
$SURFV
 70
     6
  9
$UCSNAME
  2

  9
$UCSORG
 10
0.0
 20
0.0
 30
0.0
  9
$UCSXDIR
 10
1.0
 20
0.0
 30
0.0
  9
$UCSYDIR
 10
0.0
 20
1.0
 30
0.0
  9
$PUCSNAME
  2

  9
$PUCSORG
 10
0.0
 20
0.0
 30
0.0
  9
$PUCSXDIR
 10
1.0
 20
0.0
 30
0.0
  9
$PUCSYDIR
 10
0.0
 20
1.0
 30
0.0
  9
$USERI1
 70
     0
  9
$USERI2
 70
     0
  9
$USERI3
 70
     0
  9
$USERI4
 70
     0
  9
$USERI5
 70
     0
  9
$USERR1
 40
0.0
  9
$USERR2
 40
0.0
  9
$USERR3
 40
0.0
  9
$USERR4
 40
0.0
  9
$USERR5
 40
0.0
  9
$WORLDVIEW
 70
     1
  9
$SHADEDGE
 70
     3
  9
$SHADEDIF
 70
    70
  9
$TILEMODE
 70
     1
  9
$MAXACTVP
 70
    64
  9
$PLIMCHECK
 70
     0
  9
$PEXTMIN
 10
1.0000000000000000E+20
 20
1.0000000000000000E+20
 30
1.0000000000000000E+20
  9
$PEXTMAX
 10
-1.0000000000000000E+20
 20
-1.0000000000000000E+20
 30
-1.0000000000000000E+20
  9
$PLIMMIN
 10
0.0
 20
0.0
  9
$PLIMMAX
 10
12.0
 20
9.0
  9
$UNITMODE
 70
     0
  9
$VISRETAIN
 70
     1
  9
$PLINEGEN
 70
     0
  9
$PSLTSCALE
 70
     1
  0
ENDSEC
  0
SECTION
  2
TABLES
  0
TABLE
  2
VPORT
 70
     1
  0
VPORT
  2
*ACTIVE
 70
     0
 10
0.0
 20
0.0
 11
1.0
 21
1.0
 12
0.0
 22
0.0
 13
0.0
 23
0.0
 14
1.0
 24
1.0
 15
0.0
 25
0.0
 16
0.0
 26
0.0
 36
31.7574348108704889
 17
704.261932373046875
 27
11.3149220943450892
 37
0.0
 40
11.0860854392734307
 41
2.1481900452488678
 42
50.0
 43
0.0
 44
0.0
 50
0.0
 51
0.0
 71
     0
 72
   100
 73
     1
 74
     1
 75
     0
 76
     0
 77
     0
 78
     0
  0
ENDTAB
  0
TABLE
  2
LTYPE
 70
     2
  0
LTYPE
  2
CONTINUOUS
 70
     0
  3
Solid line
 72
    65
 73
     0
 40
0.0
  0
LTYPE
  2
PHANTOM2
 70
     0
  3
___ _ _ ___ _ _ ___ _ _ ___ _ _
 72
    65
 73
     6
 40
1.25
 49
0.625
 49
-0.125
 49
0.125
 49
-0.125
 49
0.125
 49
-0.125
  0
ENDTAB
  0
TABLE
  2
LAYER
 70
     2
  0
LAYER
  2
0
 70
     0
 62
   255
  6
CONTINUOUS
  0
LAYER
  2
DEFPOINTS
 70
     0
 62
     7
  6
CONTINUOUS
  0
ENDTAB
  0
TABLE
  2
STYLE
 70
     1
  0
STYLE
  2
STANDARD
 70
     0
 40
0.0
 41
0.8
 50
0.0
 71
     0
 42
0.2
  3
txt
  4

  0
ENDTAB
  0
TABLE
  2
VIEW
 70
     0
  0
ENDTAB
  0
TABLE
  2
UCS
 70
     0
  0
ENDTAB
  0
TABLE
  2
APPID
 70
     9
  0
APPID
  2
ACAD
 70
     0
  0
APPID
  2
ACAD_MLEADERVER
 70
     0
  0
APPID
  2
ACAD_EXEMPT_FROM_CAD_STANDARDS
 70
     0
  0
APPID
  2
ACAD_NAV_VCDISPLAY
 70
     0
  0
APPID
  2
ACAECLAYERSTANDARD
 70
     0
  0
APPID
  2
ACCMTRANSPARENCY
 70
     0
  0
APPID
  2
ACAD_DSTYLE_DIMJAG
 70
     0
  0
APPID
  2
ACAD_DSTYLE_DIMTALN
 70
     0
  0
APPID
  2
ACDBATTR
 70
     0
  0
ENDTAB
  0
TABLE
  2
DIMSTYLE
 70
     1
  0
DIMSTYLE
  2
STANDARD
 70
     0
  3

  4

  5

  6

  7

 40
1.0
 41
0.1875
 42
0.0625
 43
0.38
 44
0.125
 45
0.0
 46
0.0
 47
0.01
 48
0.01
140
0.15625
141
0.09
142
0.0
143
25.3999999999999986
144
1.0
145
0.0
146
1.0
147
0.09
 71
     1
 72
     0
 73
     1
 74
     1
 75
     0
 76
     0
 77
     0
 78
     4
170
     0
171
     2
172
     0
173
     0
174
     0
175
     0
176
     0
177
     0
178
     0
  0
ENDTAB
  0
ENDSEC
  0
SECTION
  2
BLOCKS
  0
BLOCK
  8
0
  2
$MODEL_SPACE
 70
     0
 10
0.0
 20
0.0
 30
0.0
  3
$MODEL_SPACE
  1

  0
ENDBLK
  5
21
  8
0
  0
BLOCK
 67
     1
  8
0
  2
$PAPER_SPACE
 70
     0
 10
0.0
 20
0.0
 30
0.0
  3
$PAPER_SPACE
  1

  0
ENDBLK
  5
1D
 67
     1
  8
0
  0
ENDSEC
  0
SECTION
  2
ENTITIES
  0
ATTDEF
  5
3930
  8
DEFPOINTS
 10
703.2907694673182277
 20
15.4879287492319708
 30
0.0
 40
0.001
  1
K-72218-B7
  3

  2
MODELNUMBER
 70
     0
1001
ACDBATTR
1070
     0
1070
     1
  0
ATTDEF
  5
3931
  8
DEFPOINTS
 10
703.2907694673182277
 20
15.4862620825653003
 30
0.0
 40
0.001
  1
SENSATE
  3

  2
TRADENAME
 70
     0
1001
ACDBATTR
1070
     0
1070
     1
  0
ATTDEF
  5
3932
  8
DEFPOINTS
 10
703.2907694673182277
 20
15.4845954158986405
 30
0.0
 40
0.001
  1
KITCHEN SINK FAUCET
  3

  2
PRODUCT
 70
     0
1001
ACDBATTR
1070
     0
1070
     1
  0
ATTDEF
  5
3933
  8
DEFPOINTS
 10
703.2907694673182277
 20
15.4829287492319807
 30
0.0
 40
0.001
  1
METAL
  3

  2
MATERIAL
 70
     0
1001
ACDBATTR
1070
     0
1070
     1
  0
LINE
  5
4EFA
  8
0
 10
705.1889861257086523
 20
14.6502864101863306
 30
0.0
 11
705.1889861257086523
 21
16.3220881038863297
 31
0.0
  0
LINE
  5
4EFB
  8
0
 10
705.1989861257086432
 20
14.6682202401863293
 30
0.0
 11
705.1989861257086432
 21
15.1792251539863301
 31
0.0
  0
LINE
  5
4EFC
  8
0
 10
705.1989861257086432
 20
15.7931539874863294
 30
0.0
 11
705.1989861257086432
 21
16.3041595480863286
 31
0.0
  0
LINE
  5
4EFD
  8
0
 10
705.2090055088090139
 20
15.87834779470721
 30
0.0
 11
705.2090055453114701
 21
15.0940269994487295
 31
0.0
  0
LINE
  5
4EFE
  8
0
 10
705.2360648658086575
 20
16.3251174580863285
 30
0.0
 11
705.2360648658086575
 21
15.9162015638506595
 31
0.0
  0
LINE
  5
4EFF
  8
0
 10
705.2360648658086575
 20
15.0561776787772796
 30
0.0
 11
705.2360648658086575
 21
14.6472616835863292
 31
0.0
  0
LINE
  5
4F00
  8
0
 10
705.1910559379087999
 20
14.6602198981863303
 30
0.0
 11
705.1889861257086523
 21
14.6602018351863297
 31
0.0
  0
LINE
  5
4F01
  8
0
 10
703.8694087115087541
 20
14.67213826408633
 30
0.0
 11
703.8696699335700941
 21
14.6721267176643
 31
0.0
  0
LINE
  5
4F02
  8
0
 10
703.8840628398829722
 20
14.6714905287850197
 30
0.0
 11
705.0633529526087386
 21
14.6193640687863304
 31
0.0
  0
LINE
  5
4F03
  8
0
 10
705.2360648658086575
 20
14.7041004207863306
 30
0.0
 11
705.2039424930087534
 21
14.7038200930863301
 31
0.0
  0
LINE
  5
4F04
  8
0
 10
705.2090054886087955
 20
15.4117606802863403
 30
0.0
 11
705.1889861422088188
 21
15.41169140418633
 31
0.0
  0
LINE
  5
4F05
  8
0
 10
705.1910559383087502
 20
15.2139721035863307
 30
0.0
 11
705.1889861257086523
 21
15.21396911128633
 31
0.0
  0
LINE
  5
4F06
  8
0
 10
705.1889861257086523
 20
15.7584100303863295
 30
0.0
 11
705.1910559379087999
 21
15.7584070380863306
 31
0.0
  0
LINE
  5
4F07
  8
0
 10
705.1889861438087337
 20
15.5606877836863404
 30
0.0
 11
705.2090054870086533
 21
15.5606187987863294
 31
0.0
  0
LINE
  5
4F08
  8
0
 10
705.0633529570086466
 20
16.3530057753863289
 30
0.0
 11
703.6069920442889725
 21
16.2886438791037484
 31
0.0
  0
LINE
  5
4F09
  8
0
 10
705.1910559379087999
 20
16.312159243486331
 30
0.0
 11
705.1889861257086523
 21
16.3121773064863298
 31
0.0
  0
ARC
  5
4F0A
  8
0
 10
703.2965819619497552
 20
15.4792070569329692
 30
0.0
 40
1.0131686919273071
 50
90.162560042845783
 51
179.6051282038123986
  0
ARC
  5
4F0B
  8
0
 10
703.3077504768436938
 20
15.49857777327904
 30
0.0
 40
1.024388055320798
 50
180.6929102861753051
 51
234.838032161443607
  0
CIRCLE
  5
4F0C
  8
0
 10
704.4259861257087323
 20
15.4861895707863297
 30
0.0
 40
0.07
  0
ARC
  5
4F0D
  8
0
 10
705.091064117708811
 20
15.4861882549863292
 30
0.0
 40
0.8750009234999998
 50
31.2808383342086991
 51
78.8730802215003308
  0
ARC
  5
4F0E
  8
0
 10
705.0910627103410206
 20
15.4861917030392799
 30
0.0
 40
0.8750025080947329
 50
281.126999880689425
 51
328.721532346989477
  0
ARC
  5
4F0F
  8
0
 10
705.2490054870088443
 20
15.0940265315863407
 30
0.0
 40
0.0399999417
 50
179.9993298354999922
 51
267.8065095182989808
  0
ARC
  5
4F10
  8
0
 10
705.2567969461573512
 20
14.6481517743401906
 30
0.0
 40
0.0207511786925931
 50
182.4583709468975883
 51
278.6685173892981879
  0
ARC
  5
4F11
  8
0
 10
705.1903940383833742
 20
14.6688064889781593
 30
0.0
 40
0.0086120643433169
 50
274.4079431633854824
 51
356.0966875792777842
  0
ARC
  5
4F12
  8
0
 10
705.2043342746034114
 20
14.6983752668814098
 30
0.0
 40
0.0054589033119203
 50
94.1156152760642044
 51
168.4388115868428883
  0
ARC
  5
4F13
  8
0
 10
705.249005768478014
 20
15.8783524709479291
 30
0.0
 40
0.0400002599423327
 50
92.1938858491081987
 51
180.0066981779187927
  0
ARC
  5
4F14
  8
0
 10
705.2560641640410495
 20
16.3251177895361685
 30
0.0
 40
0.0199992982351074
 50
78.8709555046626321
 51
180.0009495671457103
  0
ARC
  5
4F15
  8
0
 10
705.1909861257088323
 20
16.3041595480863286
 30
0.0
 40
0.008
 50
0.0
 51
89.4999999998977245
  0
ARC
  5
4F16
  8
0
 10
703.3418134240902191
 20
7.2537842594642568
 30
0.0
 40
1.1173486408371629
 50
246.1712393885538859
 51
267.5324401601232012
  0
ARC
  5
4F17
  8
0
 10
703.2833189450481086
 20
7.0907496345767127
 30
0.0
 40
0.9446603877922136
 50
216.17520785717781
 51
245.4216475844478964
  0
ARC
  5
4F18
  8
0
 10
703.2562494937142219
 20
7.0720469080001349
 30
0.0
 40
0.9117705198040059
 50
180.007730320232497
 51
216.2305562978044122
  0
ARC
  5
4F19
  8
0
 10
703.2623684101597519
 20
7.069372363674101
 30
0.0
 40
0.9178929742854558
 50
139.2779346115225962
 51
179.8407308735368133
  0
ARC
  5
4F1A
  8
0
 10
703.3311914562707443
 20
7.280424482861835
 30
0.0
 40
1.013668116023368
 50
242.8708144612218973
 51
267.8807972639484092
  0
ARC
  5
4F1B
  8
0
 10
703.2798764344131541
 20
7.1151761459327387
 30
0.0
 40
0.8437230526337502
 50
183.9104317637512054
 51
240.8546371913207054
  0
ARC
  5
4F1C
  8
0
 10
703.2741353780837699
 20
7.1120398202711526
 30
0.0
 40
0.8377859468406279
 50
152.0511919771336125
 51
183.7232150172274032
  0
ARC
  5
4F1D
  8
0
 10
700.1665473234993442
 20
8.0628309215728002
 30
0.0
 40
2.432415780248609
 50
346.7348785933622821
 51
350.5094672286377886
  0
ARC
  5
4F1E
  8
0
 10
694.7794833067473519
 20
8.9266807480291597
 30
0.0
 40
7.8882650042895772
 50
350.7725339148036028
 51
355.9298089795703959
  0
ARC
  5
4F1F
  8
0
 10
703.3192200531976823
 20
8.7907253136022341
 30
0.0
 40
0.9222238569328112
 50
245.3730726299451987
 51
268.4147513486612979
  0
ARC
  5
4F20
  8
0
 10
703.1832761575332142
 20
8.4344106449900771
 30
0.0
 40
0.5422425652758301
 50
211.4967354642089106
 51
242.7410268441041126
  0
ARC
  5
4F21
  8
0
 10
703.2174663353307551
 20
8.4395598050409681
 30
0.0
 40
0.5742437345356254
 50
187.2809111213632036
 51
210.1524166361460004
  0
ARC
  5
4F22
  8
0
 10
703.2714035690760284
 20
8.4489836409304253
 30
0.0
 40
0.628945396137309
 50
176.0007769880845956
 51
187.5097649310851864
  0
ARC
  5
4F23
  8
0
 10
683.8614483801110282
 20
10.1253607510745791
 30
0.0
 40
18.8533539255081415
 50
355.0325355819394986
 51
358.2273828563187976
  0
ARC
  5
4F24
  8
0
 10
586.777771693939826
 20
12.3742250946574899
 30
0.0
 40
115.9625961102456984
 50
358.6005744705096276
 51
1.129997921981293
  0
ARC
  5
4F25
  8
0
 10
703.2951710189034884
 20
15.4856677901217807
 30
0.0
 40
0.8624598972206413
 50
90.0972329076791567
 51
227.8313018484577128
  0
ARC
  5
4F26
  8
0
 10
703.3041378507490435
 20
15.4839525900137698
 30
0.0
 40
0.7576372019491641
 50
90.7888207467274668
 51
218.8389216873104033
  0
ARC
  5
4F27
  8
0
 10
665.4121457123517303
 20
14.4261116240994802
 30
0.0
 40
37.3064103204909117
 50
0.3609205155063385
 51
0.8949588170949541
  0
ARC
  5
4F28
  8
0
 10
703.2908328290677673
 20
15.4792070569329692
 30
0.0
 40
1.0131686919273071
 50
54.1919814111163518
 51
89.8374399571542313
  0
ARC
  5
4F29
  8
0
 10
703.2796643141739423
 20
15.49857777327904
 30
0.0
 40
1.024388055320798
 50
305.161967838556393
 51
306.1576713646226153
  0
ARC
  5
4F2A
  8
0
 10
703.2456013669273034
 20
7.2537842594642568
 30
0.0
 40
1.1173486408371629
 50
272.467559839883279
 51
293.8287606114461141
  0
ARC
  5
4F2B
  8
0
 10
703.3040958459695275
 20
7.0907496345767127
 30
0.0
 40
0.9446603877922136
 50
294.5783524155522173
 51
323.8247921428222185
  0
ARC
  5
4F2C
  8
0
 10
703.3311652973034143
 20
7.0720469080001349
 30
0.0
 40
0.9117705198040059
 50
323.7694437021954741
 51
359.9922696797673893
  0
ARC
  5
4F2D
  8
0
 10
703.3250463808577706
 20
7.069372363674101
 30
0.0
 40
0.9178929742854558
 50
0.1592691264631393
 51
40.7220653884773469
  0
ARC
  5
4F2E
  8
0
 10
703.2562233347467782
 20
7.280424482861835
 30
0.0
 40
1.013668116023368
 50
272.1192027360451107
 51
297.1291855387780743
  0
ARC
  5
4F2F
  8
0
 10
703.3075383566043683
 20
7.1151761459327387
 30
0.0
 40
0.8437230526337502
 50
299.1453628086733829
 51
356.089568236248283
  0
ARC
  5
4F30
  8
0
 10
703.3132794129337526
 20
7.1120398202711526
 30
0.0
 40
0.8377859468406279
 50
356.2767849827724831
 51
27.9488080228663911
  0
ARC
  5
4F31
  8
0
 10
706.4208674675179509
 20
8.0628309215728002
 30
0.0
 40
2.432415780248609
 50
189.4905327713622114
 51
193.2651214066376042
  0
ARC
  5
4F32
  8
0
 10
711.8079314842701706
 20
8.9266807480291597
 30
0.0
 40
7.8882650042895772
 50
184.0701910204296041
 51
189.2274660851963972
  0
ARC
  5
4F33
  8
0
 10
703.2681947378199538
 20
8.7907253136022341
 30
0.0
 40
0.9222238569328112
 50
271.5852486513385884
 51
294.626927370054716
  0
ARC
  5
4F34
  8
0
 10
703.4041386334844219
 20
8.4344106449900771
 30
0.0
 40
0.5422425652758301
 50
297.2589731558957737
 51
328.5032645357911179
  0
ARC
  5
4F35
  8
0
 10
703.3699484556866537
 20
8.4395598050409681
 30
0.0
 40
0.5742437345356254
 50
329.8475833638540848
 51
352.7190888786367964
  0
ARC
  5
4F36
  8
0
 10
703.3160112219413804
 20
8.4489836409304253
 30
0.0
 40
0.628945396137309
 50
352.4902350689142736
 51
3.9992230119153849
  0
ARC
  5
4F37
  8
0
 10
722.725966410906608
 20
10.1253607510745791
 30
0.0
 40
18.8533539255081415
 50
181.7726171436812024
 51
184.9674644180601035
  0
ARC
  5
4F38
  8
0
 10
819.8096430970778101
 20
12.3742250946574899
 30
0.0
 40
115.9625961102456984
 50
178.8700020780187003
 51
181.3994255294904008
  0
ARC
  5
4F39
  8
0
 10
703.2922437721141478
 20
15.4856677901217807
 30
0.0
 40
0.8624598972206413
 50
312.1686981515422872
 51
89.9027670923208575
  0
ARC
  5
4F3A
  8
0
 10
703.2832769402685926
 20
15.4839525900137698
 30
0.0
 40
0.7576372019491641
 50
321.1610783126895967
 51
89.2111792532725758
  0
ARC
  5
4F3B
  8
0
 10
741.1752690786657922
 20
14.4261116240994802
 30
0.0
 40
37.3064103204909117
 50
179.105041182905012
 51
179.6390794844936067
  0
ARC
  5
4F3C
  8
0
 10
705.1030828967795969
 20
15.4605998751764595
 30
0.0
 40
0.893289851513318
 50
86.2714750996724575
 51
92.5491266712346459
  0
ARC
  5
4F3D
  8
0
 10
705.1547716272050366
 20
16.3181597930751501
 30
0.0
 40
0.0344392731296004
 50
6.5496904608276116
 51
79.288324694056783
  0
ARC
  5
4F3E
  8
0
 10
705.1031953340387872
 20
15.5049768217396693
 30
0.0
 40
0.8865085242408005
 50
267.4240862504282745
 51
273.7498344618231272
  0
ARC
  5
4F3F
  8
0
 10
705.1580974546520793
 20
14.6511124663427008
 30
0.0
 40
0.03089971473547
 50
275.7126735810174978
 51
358.4681007115368061
  0
ARC
  5
4F40
  8
0
 10
705.0563101697023285
 20
15.1784745369877907
 30
0.0
 40
0.1426779304876606
 50
0.3014298307324092
 51
10.6781746062926999
  0
ARC
  5
4F41
  8
0
 10
705.180498136949609
 20
15.2014317908141603
 30
0.0
 40
0.0163928830278405
 50
12.2559527555675203
 51
49.9056746568874487
  0
ARC
  5
4F42
  8
0
 10
717.2732496282731063
 20
328.0460430574335078
 30
0.0
 40
313.2229290655333216
 50
267.7996644345183768
 51
267.9680369868270873
  0
ARC
  5
4F43
  8
0
 10
706.1702956590019085
 20
15.0609146047384996
 30
0.0
 40
0.0409564626452901
 50
265.806499841399102
 51
347.3448237650158035
  0
ARC
  5
4F44
  8
0
 10
703.0997516596975174
 20
15.4865256180785291
 30
0.0
 40
3.140717665978213
 50
352.0464127873764824
 51
7.8600742139721076
  0
ARC
  5
4F45
  8
0
 10
706.1693593631372323
 20
15.91057095997534
 30
0.0
 40
0.0419598404670168
 50
7.4785333897003152
 51
93.437558243712445
  0
ARC
  5
4F46
  8
0
 10
720.8065316911739728
 20
-390.7778850706262119
 30
0.0
 40
406.9937226219087734
 50
92.0613913444291256
 51
92.190907490573835
  0
LINE
  5
4F47
  8
0
 10
706.0029133649087498
 20
15.8988402124887092
 30
0.0
 11
706.0029133649087498
 21
15.0754696504472108
 31
0.0
  0
ARC
  5
4F48
  8
0
 10
705.9915736527129866
 20
15.0757394375219302
 30
0.0
 40
0.0113429210413217
 50
275.3970709435560025
 51
358.6371130959299194
  0
ARC
  5
4F49
  8
0
 10
705.8181081570371589
 20
27.205179369216701
 30
0.0
 40
12.1419870209033895
 50
267.3093145451646819
 51
270.8236142265250237
  0
ARC
  5
4F4A
  8
0
 10
705.2553623967553449
 20
15.1453777859468595
 30
0.0
 40
0.0691799172431064
 50
227.9258985340146069
 51
263.985718029184909
  0
ARC
  5
4F4B
  8
0
 10
705.9928791676276205
 20
15.89881979609663
 30
0.0
 40
0.0100342180515763
 50
0.1165784817036633
 51
80.8382540376135239
  0
ARC
  5
4F4C
  8
0
 10
705.8380408871884129
 20
3.3866616025950149
 30
0.0
 40
12.5230415282241694
 50
89.2842511319265242
 51
92.7000498131808826
  0
ARC
  5
4F4D
  8
0
 10
705.2503971636748474
 20
15.8381402177867798
 30
0.0
 40
0.0577054445814496
 50
92.267573445483734
 51
135.8313547347574115
  0
ARC
  5
4F4E
  8
0
 10
705.0499149449824472
 20
15.7939190970906793
 30
0.0
 40
0.1490731441804556
 50
350.5218342414369772
 51
359.7059313137926893
  0
ARC
  5
4F4F
  8
0
 10
705.1712933594328661
 20
15.7735427647928095
 30
0.0
 40
0.0259965651431035
 50
328.0578841729401915
 51
350.7655251744005227
  0
ARC
  5
4F50
  8
0
 10
705.1907445819311988
 20
15.7615257905261892
 30
0.0
 40
0.003134255785019
 50
275.7011477955032888
 51
326.3482768097301232
  0
LINE
  5
4F52
  8
0
 10
705.2360648658086575
 20
16.269065863870491
 30
0.0
 11
705.2039424930087534
 21
16.2692311430707193
 31
0.0
  0
ARC
  5
4F53
  8
0
 10
705.2043342746034114
 20
16.2746759692756413
 30
0.0
 40
0.0054589033119203
 50
191.561188413156998
 51
265.8843847239356819
  0
ENDSEC
  0
EOF
