  0
SECTION
  2
HEADER
  9
$ACADVER
  1
AC1009
  9
$INSBASE
 10
73.475884079699995
 20
-5.9654137060000032
 30
0.0
  9
$EXTMIN
 10
55.475884079700002
 20
-5.9762729071123699
 30
0.0
  9
$EXTMAX
 10
91.475884079699995
 20
18.586278888399999
 30
0.0
  9
$LIMMIN
 10
0.0
 20
0.0
  9
$LIMMAX
 10
11.692913385800001
 20
8.2677165353999982
  9
$ORTHOMODE
 70
     0
  9
$REGENMODE
 70
     1
  9
$FILLMODE
 70
     1
  9
$QTEXTMODE
 70
     0
  9
$MIRRTEXT
 70
     0
  9
$DRAGMODE
 70
     2
  9
$LTSCALE
 40
0.6431102362
  9
$OSMODE
 70
    47
  9
$ATTMODE
 70
     1
  9
$TEXTSIZE
 40
0.2
  9
$TRACEWID
 40
0.05
  9
$TEXTSTYLE
  7
STANDARD
  9
$CLAYER
  8
0
  9
$CELTYPE
  6
BYLAYER
  9
$CECOLOR
 62
   256
  9
$DIMSCALE
 40
1.0
  9
$DIMASZ
 40
0.1875
  9
$DIMEXO
 40
0.0625
  9
$DIMDLI
 40
0.4443307087
  9
$DIMRND
 40
0.0
  9
$DIMDLE
 40
0.0
  9
$DIMEXE
 40
0.125
  9
$DIMTP
 40
0.0
  9
$DIMTM
 40
0.0
  9
$DIMTXT
 40
0.15625
  9
$DIMCEN
 40
0.1052362205
  9
$DIMTSZ
 40
0.0
  9
$DIMTOL
 70
     0
  9
$DIMLIM
 70
     0
  9
$DIMTIH
 70
     1
  9
$DIMTOH
 70
     1
  9
$DIMSE1
 70
     0
  9
$DIMSE2
 70
     0
  9
$DIMTAD
 70
     0
  9
$DIMZIN
 70
     0
  9
$DIMBLK
  1

  9
$DIMASO
 70
     1
  9
$DIMSHO
 70
     1
  9
$DIMPOST
  1

  9
$DIMAPOST
  1

  9
$DIMALT
 70
     0
  9
$DIMALTD
 70
     2
  9
$DIMALTF
 40
25.399999999999999
  9
$DIMLFAC
 40
1.0
  9
$DIMTOFL
 70
     0
  9
$DIMTVP
 40
0.0
  9
$DIMTIX
 70
     0
  9
$DIMSOXD
 70
     0
  9
$DIMSAH
 70
     0
  9
$DIMBLK1
  1

  9
$DIMBLK2
  1

  9
$DIMSTYLE
  2
STANDARD
  9
$DIMCLRD
 70
     0
  9
$DIMCLRE
 70
     0
  9
$DIMCLRT
 70
     0
  9
$DIMTFAC
 40
1.0
  9
$DIMGAP
 40
0.09
  9
$LUNITS
 70
     2
  9
$LUPREC
 70
     4
  9
$SKETCHINC
 40
0.1
  9
$FILLETRAD
 40
0.0
  9
$AUNITS
 70
     0
  9
$AUPREC
 70
     0
  9
$MENU
  1
.
  9
$ELEVATION
 40
0.0
  9
$PELEVATION
 40
0.0
  9
$THICKNESS
 40
0.0
  9
$LIMCHECK
 70
     0
  9
$BLIPMODE
 70
     0
  9
$CHAMFERA
 40
0.0
  9
$CHAMFERB
 40
0.0
  9
$SKPOLY
 70
     0
  9
$TDCREATE
 40
2457428.4894726858
  9
$TDUPDATE
 40
2457429.435928056
  9
$TDINDWG
 40
0.121023044
  9
$TDUSRTIMER
 40
0.121023044
  9
$USRTIMER
 70
     1
  9
$ANGBASE
 50
0.0
  9
$ANGDIR
 70
     0
  9
$PDMODE
 70
     0
  9
$PDSIZE
 40
0.3125
  9
$PLINEWID
 40
0.0
  9
$COORDS
 70
     0
  9
$SPLFRAME
 70
     0
  9
$SPLINETYPE
 70
     6
  9
$SPLINESEGS
 70
     8
  9
$ATTDIA
 70
     1
  9
$ATTREQ
 70
     1
  9
$HANDLING
 70
     1
  9
$HANDSEED
  5
4254
  9
$SURFTAB1
 70
     6
  9
$SURFTAB2
 70
     6
  9
$SURFTYPE
 70
     6
  9
$SURFU
 70
     6
  9
$SURFV
 70
     6
  9
$UCSNAME
  2

  9
$UCSORG
 10
0.0
 20
0.0
 30
0.0
  9
$UCSXDIR
 10
1.0
 20
0.0
 30
0.0
  9
$UCSYDIR
 10
0.0
 20
1.0
 30
0.0
  9
$PUCSNAME
  2

  9
$PUCSORG
 10
0.0
 20
0.0
 30
0.0
  9
$PUCSXDIR
 10
1.0
 20
0.0
 30
0.0
  9
$PUCSYDIR
 10
0.0
 20
1.0
 30
0.0
  9
$USERI1
 70
     0
  9
$USERI2
 70
     0
  9
$USERI3
 70
     0
  9
$USERI4
 70
     0
  9
$USERI5
 70
     0
  9
$USERR1
 40
0.0
  9
$USERR2
 40
0.0
  9
$USERR3
 40
0.0
  9
$USERR4
 40
0.0
  9
$USERR5
 40
0.0
  9
$WORLDVIEW
 70
     1
  9
$SHADEDGE
 70
     3
  9
$SHADEDIF
 70
    70
  9
$TILEMODE
 70
     1
  9
$MAXACTVP
 70
    48
  9
$PLIMCHECK
 70
     0
  9
$PEXTMIN
 10
1.0000000000000000E+020
 20
1.0000000000000000E+020
 30
1.0000000000000000E+020
  9
$PEXTMAX
 10
-1.0000000000000000E+020
 20
-1.0000000000000000E+020
 30
-1.0000000000000000E+020
  9
$PLIMMIN
 10
0.0
 20
0.0
  9
$PLIMMAX
 10
12.0
 20
9.0
  9
$UNITMODE
 70
     0
  9
$VISRETAIN
 70
     1
  9
$PLINEGEN
 70
     0
  9
$PSLTSCALE
 70
     1
  0
ENDSEC
  0
SECTION
  2
TABLES
  0
TABLE
  2
VPORT
 70
     1
  0
VPORT
  2
*ACTIVE
 70
     0
 10
0.0
 20
0.0
 11
1.0
 21
1.0
 12
74.233210603030329
 22
3.8310997680978778
 13
0.0
 23
0.0
 14
1.0
 24
1.0
 15
0.0
 25
0.0
 16
0.0
 26
0.0
 36
1.0
 17
0.0
 27
0.0
 37
0.0
 40
50.442330517576103
 41
2.123303167420814
 42
50.0
 43
0.0
 44
0.0
 50
0.0
 51
0.0
 71
     0
 72
   100
 73
     1
 74
     1
 75
     0
 76
     0
 77
     0
 78
     0
  0
ENDTAB
  0
TABLE
  2
LTYPE
 70
     1
  0
LTYPE
  2
CONTINUOUS
 70
     0
  3
Solid line
 72
    65
 73
     0
 40
0.0
  0
ENDTAB
  0
TABLE
  2
LAYER
 70
     2
  0
LAYER
  2
0
 70
     0
 62
     7
  6
CONTINUOUS
  0
LAYER
  2
DEFPOINTS
 70
     0
 62
     7
  6
CONTINUOUS
  0
ENDTAB
  0
TABLE
  2
STYLE
 70
     1
  0
STYLE
  2
STANDARD
 70
     0
 40
0.0
 41
0.8
 50
0.0
 71
     0
 42
0.2
  3
txt
  4

  0
ENDTAB
  0
TABLE
  2
VIEW
 70
     0
  0
ENDTAB
  0
TABLE
  2
UCS
 70
     0
  0
ENDTAB
  0
TABLE
  2
APPID
 70
     5
  0
APPID
  2
ACAD
 70
     0
  0
APPID
  2
ACAD_MLEADERVER
 70
     0
  0
APPID
  2
ACAD_EXEMPT_FROM_CAD_STANDARDS
 70
     0
  0
APPID
  2
ACAD_NAV_VCDISPLAY
 70
     0
  0
APPID
  2
ACDBATTR
 70
     0
  0
ENDTAB
  0
TABLE
  2
DIMSTYLE
 70
     1
  0
DIMSTYLE
  2
STANDARD
 70
     0
  3

  4

  5

  6

  7

 40
1.0
 41
0.1875
 42
0.0625
 43
0.38
 44
0.125
 45
0.0
 46
0.0
 47
1.5
 48
1.5
140
0.15625
141
0.09
142
0.0
143
25.399999999999999
144
1.0
145
0.0
146
1.0
147
0.09
 71
     0
 72
     0
 73
     1
 74
     1
 75
     0
 76
     0
 77
     0
 78
     4
170
     0
171
     2
172
     0
173
     0
174
     0
175
     0
176
     0
177
     0
178
     0
  0
ENDTAB
  0
ENDSEC
  0
SECTION
  2
BLOCKS
  0
BLOCK
  8
0
  2
$MODEL_SPACE
 70
     0
 10
0.0
 20
0.0
 30
0.0
  3
$MODEL_SPACE
  1

  0
ENDBLK
  5
21
  8
0
  0
BLOCK
 67
     1
  8
0
  2
$PAPER_SPACE
 70
     0
 10
0.0
 20
0.0
 30
0.0
  3
$PAPER_SPACE
  1

  0
ENDBLK
  5
1D
 67
     1
  8
0
  0
ENDSEC
  0
SECTION
  2
ENTITIES
  0
LINE
  5
1626
  8
0
 10
55.475884079700002
 20
17.5612788884
 30
0.0
 11
55.515480189800002
 21
17.8112788884
 31
0.0
  0
LINE
  5
1F66
  8
0
 10
60.203227478151447
 20
5.7800195122668621
 30
0.0
 11
58.6720539493
 21
16.8736417836
 31
0.0
  0
LINE
  5
2608
  8
0
 10
75.792545059199995
 20
0.6215225576
 30
0.0
 11
79.544670741999994
 21
0.7525496737
 31
0.0
  0
LINE
  5
2609
  8
0
 10
71.881400206099997
 20
0.3362788884
 30
0.0
 11
75.070367953399995
 21
0.3362788884
 31
0.0
  0
LINE
  5
260C
  8
0
 10
71.159223100299997
 20
0.6215225576
 30
0.0
 11
67.408203883400006
 21
0.7525110350000001
 31
0.0
  0
LINE
  5
2BAB
  8
0
 10
55.475884079700002
 20
17.5612788884
 30
0.0
 11
91.475884079699995
 21
17.5612788884
 31
0.0
  0
LINE
  5
2CF5
  8
0
 10
88.279714210199998
 20
16.8736417836
 30
0.0
 11
86.746678860127105
 21
5.965528470489061
 31
0.0
  0
LINE
  5
2D82
  8
0
 10
90.545010796200003
 20
18.586278888399999
 30
0.0
 11
56.406757363300002
 21
18.586278888399999
 31
0.0
  0
LINE
  5
35FA
  8
0
 10
91.436287969699976
 20
17.8112788884
 30
0.0
 11
91.475884079699995
 21
17.5612788884
 31
0.0
  0
ARC
  5
360C
  8
0
 10
71.118739684099992
 20
-0.5377708017
 30
0.0
 40
1.159999999999999
 50
48.89370057819999
 51
88.0
  0
ARC
  5
360D
  8
0
 10
75.833028475399999
 20
-0.5377708017
 30
0.0
 40
1.159999999999999
 50
92.0
 51
131.1062994218
  0
ARC
  5
360E
  8
0
 10
89.329398363099997
 20
16.726118296599999
 30
0.0
 40
1.0600000000000001
 50
127.5576951015
 51
172.0
  0
ARC
  5
360F
  8
0
 10
57.622369796400001
 20
16.726118296599999
 30
0.0
 40
1.0600000000000001
 50
8.0
 51
52.291033982600013
  0
ARC
  5
3610
  8
0
 10
56.406757363300002
 20
17.6862788884
 30
0.0
 40
0.9
 50
90.0
 51
172.01644385450001
  0
ARC
  5
3611
  8
0
 10
90.545010796200003
 20
17.6862788884
 30
0.0
 40
0.9
 50
7.9835561454999979
 51
90.0
  0
CIRCLE
  5
38E6
  8
0
 10
73.475883999050012
 20
14.586257475
 30
0.0
 40
1.245366042400003
  0
ARC
  5
38E7
  8
0
 10
60.001681809782923
 20
7.6821751735781216
 30
0.0
 40
0.4927301368912801
 50
104.9022700149675
 51
148.05268454392331
  0
ARC
  5
38E8
  8
0
 10
59.923503978551828
 20
7.49931815648526
 30
0.0
 40
0.5588464418846043
 50
127.4634085590087
 51
164.92054497749871
  0
ARC
  5
38E9
  8
0
 10
61.62894771539797
 20
6.4775888343801951
 30
0.0
 40
2.5302963172334079
 50
152.53172601129299
 51
172.64599995468291
  0
ARC
  5
38EA
  8
0
 10
64.696866060233233
 20
5.8919656114619379
 30
0.0
 40
5.6510700063547539
 50
170.73837009740811
 51
176.23026958523479
  0
ARC
  5
38EB
  8
0
 10
61.060313468985292
 20
5.7832404572022273
 30
0.0
 40
2.0593059017008311
 50
166.3791337231788
 51
180.24738989181671
  0
ARC
  5
38EC
  8
0
 10
54.592557066040023
 20
5.9493262953591888
 30
0.0
 40
4.4119408616700078
 50
348.06208454433579
 51
357.72705532132341
  0
ARC
  5
38ED
  8
0
 10
61.844324599344652
 20
4.2143050859049627
 30
0.0
 40
3.044905494783761
 50
164.39414842335819
 51
178.57708495019941
  0
ARC
  5
38EE
  8
0
 10
62.747085693665007
 20
3.9823114400000001
 30
0.0
 40
3.953020229517739
 50
175.5929408622201
 51
191.24285650816009
  0
ARC
  5
38EF
  8
0
 10
59.439338456163277
 20
3.3041435332505769
 30
0.0
 40
0.576884402354458
 50
189.23136576217769
 51
209.8754345222919
  0
ARC
  5
38F0
  8
0
 10
62.590757303786098
 20
3.6335510023957038
 30
0.0
 40
3.703360722408549
 50
189.58678843340479
 51
201.61029920744511
  0
ARC
  5
38F2
  8
0
 10
-4753.7380281878686
 20
-2090.1703591572409
 30
0.0
 40
5248.0638528010868
 50
23.490635595366339
 51
23.497374022673132
  0
ARC
  5
38F3
  8
0
 10
57.561628374920552
 20
0.7515646954656875
 30
0.0
 40
2.0647148522611691
 50
19.427010641228311
 51
27.45755631163421
  0
ARC
  5
38F4
  8
0
 10
59.82757879522196
 20
1.2136159007968641
 30
0.0
 40
0.3900117154444465
 50
144.82346226793319
 51
198.65986765387811
  0
ARC
  5
38F6
  8
0
 10
59.771878421844633
 20
1.238659125842297
 30
0.0
 40
0.3477428149585092
 50
205.5219290526166
 51
234.56275228382469
  0
ARC
  5
38F7
  8
0
 10
59.891778800881937
 20
1.1825313655841909
 30
0.0
 40
0.3936961769688522
 50
215.24575935022489
 51
250.29684497272001
  0
ARC
  5
38F8
  8
0
 10
61.318696309473189
 20
1.2452081533596311
 30
0.0
 40
1.6187279027914721
 50
195.52705881020501
 51
200.94122772042579
  0
ARC
  5
38F9
  8
0
 10
60.425730916954763
 20
0.8172134775422728
 30
0.0
 40
0.6363240709034772
 50
193.4616993414744
 51
209.44102679845579
  0
ARC
  5
38FA
  8
0
 10
60.074813671251157
 20
0.6309906365252035
 30
0.0
 40
0.2393303910326631
 50
213.49405327816709
 51
223.9014281511258
  0
ARC
  5
38FB
  8
0
 10
58.545884828141133
 20
-0.0349968372791425
 30
0.0
 40
1.445710108735069
 50
14.38857735444739
 51
20.235051780409979
  0
ARC
  5
38FC
  8
0
 10
60.076210909870149
 20
0.3610131059708749
 30
0.0
 40
0.1350614995095213
 50
195.7916472780324
 51
227.9526138074996
  0
ARC
  5
38FD
  8
0
 10
60.475476655071141
 20
0.9753681073690906
 30
0.0
 40
0.8663448742531285
 50
235.57865738154791
 51
242.62439019549589
  0
ARC
  5
38FE
  8
0
 10
59.994728150465399
 20
0.0856860419813041
 30
0.0
 40
0.145853476654684
 50
25.536264673112751
 51
55.608647746866239
  0
ARC
  5
38FF
  8
0
 10
59.12406415709728
 20
0.1272730332470139
 30
0.0
 40
1.002495473488175
 50
349.92045115977862
 51
1.216759801681955
  0
ARC
  5
3900
  8
0
 10
60.218165510379229
 20
-0.1097671885617569
 30
0.0
 40
0.1228231908539096
 50
152.58883394573161
 51
213.8755828683841
  0
ARC
  5
3901
  8
0
 10
60.453933636597142
 20
0.0841135825614097
 30
0.0
 40
0.4276595497947901
 50
217.83829550664001
 51
255.83369868723659
  0
ARC
  5
3952
  8
0
 10
57.440227398521408
 20
-1.215123704882473
 30
0.0
 40
3.0315969930033662
 50
2.6680393450697819
 51
17.028257518286459
  0
ARC
  5
3953
  8
0
 10
56.922829023466647
 20
-1.1462900450217519
 30
0.0
 40
3.54644585038039
 50
354.0124981950193
 51
1.1679033078845391
  0
ARC
  5
3954
  8
0
 10
56.383550810781131
 20
1.221556971054935
 30
0.0
 40
4.9021294853535711
 50
312.64061338506713
 51
326.04867902259048
  0
ARC
  5
3955
  8
0
 10
58.856166450836049
 20
-1.455709568458343
 30
0.0
 40
1.257753855688243
 50
278.7425778010678
 51
312.3980597038144
  0
ARC
  5
3956
  8
0
 10
58.594586377476887
 20
1.7017780352137819
 30
0.0
 40
4.4238570097912602
 50
270.51570774459901
 51
275.87413309998152
  0
ARC
  5
3957
  8
0
 10
58.625061473631177
 20
-3.2718709674724189
 30
0.0
 40
0.5500505375259575
 50
89.026784211327097
 51
115.8175704855977
  0
ARC
  5
3958
  8
0
 10
58.701616735974483
 20
-3.2687684223586451
 30
0.0
 40
0.584834391918272
 50
122.7180584082663
 51
160.8561914467806
  0
ARC
  5
3959
  8
0
 10
57.079295794949758
 20
-2.562180738464352
 30
0.0
 40
1.187244507841132
 50
302.18350475755437
 51
334.30334499432303
  0
ARC
  5
395A
  8
0
 10
57.969948831118593
 20
-3.8912504483991528
 30
0.0
 40
0.4145483184448577
 50
128.5398294556683
 51
186.80577893167259
  0
ARC
  5
395B
  8
0
 10
55.982424278964082
 20
-4.0231063239338747
 30
0.0
 40
1.578067380758398
 50
339.40364973131688
 51
3.005109193838805
  0
ARC
  5
395C
  8
0
 10
58.071042057095482
 20
-4.83254442274366
 30
0.0
 40
0.6621940217549549
 50
157.41646566787679
 51
195.15611638074429
  0
ARC
  5
395D
  8
0
 10
57.74332369820015
 20
-4.86546915829389
 30
0.0
 40
0.3415467356341983
 50
204.23642171660239
 51
226.37424143705121
  0
ARC
  5
39AE
  8
0
 10
71.154768917933723
 20
123.3486344098982
 30
0.0
 40
122.6533854657382
 50
266.96885784661879
 51
268.25250368641161
  0
ARC
  5
39AF
  8
0
 10
63.237889435527542
 20
1.1389506910706579
 30
0.0
 40
1.4612303238583371
 50
337.03328563227223
 51
349.25853185245279
  0
ARC
  5
39B0
  8
0
 10
62.32644783539282
 20
0.9026106827392341
 30
0.0
 40
2.2813984882582901
 50
343.83768918498129
 51
351.58595944065758
  0
ARC
  5
39B1
  8
0
 10
71.295086320877459
 20
-1.9793502441945039
 30
0.0
 40
7.1401589738799149
 50
161.658105314609
 51
163.91524369229771
  0
ARC
  5
39B2
  8
0
 10
63.880852084141473
 20
0.1590132658518719
 30
0.0
 40
0.5760315208528862
 50
311.62049978430889
 51
343.12478306929648
  0
ARC
  5
39B3
  8
0
 10
61.936497453980508
 20
1.441893534817513
 30
0.0
 40
2.8863090880376512
 50
317.17996527390119
 51
323.23102576048802
  0
ARC
  5
39B4
  8
0
 10
72.78727964402772
 20
-5.8115062995232627
 30
0.0
 40
10.210687788943289
 50
148.7371724452064
 51
151.752089780457
  0
ARC
  5
39B5
  8
0
 10
61.200077444852127
 20
0.4369572182617388
 30
0.0
 40
2.9540230830947078
 50
307.95393052803428
 51
331.56758433913501
  0
ARC
  5
39B6
  8
0
 10
52.295990280345919
 20
10.729804088593539
 30
0.0
 40
16.56065275473447
 50
307.13228559785188
 51
310.34370919849721
  0
ARC
  5
39B7
  8
0
 10
57.17005745357455
 20
1.553607308043923
 30
0.0
 40
6.51599544612613
 50
314.5732445109781
 51
321.83203508931001
  0
ARC
  5
39B8
  8
0
 10
46.062050338310399
 20
16.458881701757051
 30
0.0
 40
25.05952569196122
 50
307.34735653700449
 51
308.73745588598899
  0
ARC
  5
39B9
  8
0
 10
61.923009419352887
 20
-4.3982478226706281
 30
0.0
 40
1.144138770087094
 50
125.1502325865588
 51
149.63969657211689
  0
ARC
  5
39BA
  8
0
 10
61.730713911839437
 20
-4.1851566724907139
 30
0.0
 40
0.8748143859492733
 50
155.32582612079929
 51
169.25628495039089
  0
ARC
  5
39BB
  8
0
 10
60.429962034082642
 20
-3.9753356871199812
 30
0.0
 40
0.4437408546475038
 50
348.48339341737608
 51
353.95354395282931
  0
ARC
  5
39BC
  8
0
 10
61.515478441583973
 20
-4.1679288372291117
 30
0.0
 40
0.6589678727210355
 50
170.9195180248515
 51
172.7491133206442
  0
ARC
  5
39BD
  8
0
 10
57.852793673127309
 20
-3.8154173564239389
 30
0.0
 40
3.0210318404945071
 50
353.94130676503801
 51
354.8807134032063
  0
ARC
  5
39BE
  8
0
 10
62.060505829183619
 20
-4.2092390262523818
 30
0.0
 40
1.2058869983239191
 50
176.43608626743321
 51
194.10402912411851
  0
ARC
  5
39BF
  8
0
 10
58.989335025063554
 20
-5.196489781379281
 30
0.0
 40
2.024108623403353
 50
9.7541852842666366
 51
20.033452929829959
  0
ARC
  5
39C0
  8
0
 10
60.617572057064528
 20
-4.9206220528474001
 30
0.0
 40
0.3726932116996467
 50
313.66282945379788
 51
10.365853119087211
  0
ARC
  5
39C1
  8
0
 10
60.205152582787569
 20
-4.7271187610584571
 30
0.0
 40
0.8142581907577753
 50
305.57641897174989
 51
325.33639150257198
  0
ARC
  5
39C2
  8
0
 10
60.329505648577943
 20
-5.2572237525257837
 30
0.0
 40
0.3735353737945389
 50
303.35005715382857
 51
339.27890647685291
  0
ARC
  5
39C3
  8
0
 10
60.369451073707289
 20
-4.6192623944391107
 30
0.0
 40
0.9642780596547853
 50
267.20285593427178
 51
279.87703478659392
  0
ARC
  5
39C4
  8
0
 10
60.415863905575691
 20
-5.8662697198418439
 30
0.0
 40
0.2988701368487753
 50
108.22462295242489
 51
133.03258454122081
  0
ARC
  5
39C5
  8
0
 10
57.164923360373123
 20
-2.0421564991193328
 30
0.0
 40
4.7206820826045988
 50
306.66886943553749
 51
310.1997900136422
  0
ARC
  5
39C6
  8
0
 10
59.651851159365478
 20
-5.41079958724562
 30
0.0
 40
0.5337949460462099
 50
264.5423153322717
 51
308.48881925545209
  0
ARC
  5
39C7
  8
0
 10
60.90470886358046
 20
-35.812745045493912
 30
0.0
 40
29.89900362089509
 50
92.498947006607125
 51
93.368997255178783
  0
ARC
  5
39C8
  8
0
 10
59.226995778675182
 20
-3.5993469067943682
 30
0.0
 40
2.3673965992181101
 50
256.67423197336223
 51
268.07949422212221
  0
ARC
  5
39C9
  8
0
 10
58.706172547028203
 20
-5.5991337201574609
 30
0.0
 40
0.3060554344317004
 50
235.01167399252839
 51
266.68157774278438
  0
ARC
  5
39CA
  8
0
 10
59.119942551170887
 20
-4.9719838087230652
 30
0.0
 40
1.057320689203145
 50
231.10838693328381
 51
236.12939649010511
  0
ARC
  5
39CB
  8
0
 10
59.083379571084009
 20
-1.367846303141895
 30
0.0
 40
4.4713057916672501
 50
259.48744608913569
 51
261.93544747973772
  0
ARC
  5
39CC
  8
0
 10
58.309781317075611
 20
-5.6082041691682338
 30
0.0
 40
0.1615063878644643
 50
218.47922051811901
 51
254.85493372890221
  0
ARC
  5
39CD
  8
0
 10
59.122577326291413
 20
-4.5701967199254119
 30
0.0
 40
1.475918906491922
 50
223.4816941797761
 51
230.4784232800956
  0
ARC
  5
39CE
  8
0
 10
57.922725716033618
 20
-5.6713773066257591
 30
0.0
 40
0.1547434647511931
 50
33.57041303163799
 51
50.545251556781203
  0
ARC
  5
39CF
  8
0
 10
59.226594239162431
 20
-3.264698742964645
 30
0.0
 40
2.5854558845501621
 50
234.40189634918099
 51
242.20721918094191
  0
ARC
  5
39D0
  8
0
 10
58.163536498912151
 20
-4.8124881784121873
 30
0.0
 40
0.7090591871612082
 50
207.74490344663869
 51
231.44564691009529
  0
ARC
  5
39D1
  8
0
 10
57.418216308676982
 20
-5.2258671145038784
 30
0.0
 40
0.14425425662797
 50
35.265006558248011
 51
51.673095362529892
  0
ARC
  5
3A22
  8
0
 10
61.943593189494692
 20
5.2864446869333728
 30
0.0
 40
1.809002188340924
 50
164.16644693771471
 51
173.37004503949481
  0
ARC
  5
3A23
  8
0
 10
64.582850898001723
 20
3.657991726289469
 30
0.0
 40
4.8015891480835986
 50
157.50225541582631
 51
161.10167495382811
  0
ARC
  5
3A24
  8
0
 10
60.98477981118355
 20
5.1106528577760511
 30
0.0
 40
0.9502346366498941
 50
173.80608326894659
 51
181.89029055887559
  0
ARC
  5
3A25
  8
0
 10
52.950980363208529
 20
4.879904115731363
 30
0.0
 40
7.0868877974805713
 50
354.81051946723898
 51
1.6123499777819661
  0
ARC
  5
3A26
  8
0
 10
59.263273995058022
 20
-0.7158817826423337
 30
0.0
 40
1.4310631775997389
 50
326.44792678687571
 51
348.01687202165942
  0
ARC
  5
3A27
  8
0
 10
60.850825063455119
 20
-0.8120958127886948
 30
0.0
 40
0.2749276293568008
 50
182.91612111821939
 51
226.950880477309
  0
ARC
  5
3A28
  8
0
 10
60.827667748704421
 20
-0.868084107590999
 30
0.0
 40
0.2550363462657621
 50
123.4826802223055
 51
171.8213443667758
  0
ARC
  5
3A2B
  8
0
 10
252.0548575514685
 20
-29.645643431393971
 30
0.0
 40
195.01241740079621
 50
169.9937379633848
 51
170.2463092511066
  0
ARC
  5
3A2C
  8
0
 10
62.961122139827623
 20
2.911244820128708
 30
0.0
 40
3.1368644554475589
 50
171.18424483122661
 51
192.33837883017509
  0
ARC
  5
3A2E
  8
0
 10
59.484469887492068
 20
-0.2513977648203767
 30
0.0
 40
1.3110911041105211
 50
347.22070614954811
 51
34.164719646115763
  0
ARC
  5
3A2F
  8
0
 10
60.523384169782517
 20
-0.4637122407532378
 30
0.0
 40
0.2519772325959668
 50
310.48139063461809
 51
342.0410030663017
  0
ARC
  5
3AD0
  8
0
 10
67.035488302938319
 20
4.0634691731553794
 30
0.0
 40
7.044596017134058
 50
162.7509657047122
 51
165.89680495388899
  0
ARC
  5
3AD1
  8
0
 10
60.64467669580668
 20
6.1149092554383353
 30
0.0
 40
0.3390294029229197
 50
140.00079476279259
 51
173.65596755668929
  0
ARC
  5
3AD2
  8
0
 10
61.371191786437002
 20
6.0592596144400437
 30
0.0
 40
1.0234693641892081
 50
153.585450956095
 51
164.4965347898646
  0
ARC
  5
3AD3
  8
0
 10
60.598939540274898
 20
6.4805162394248246
 30
0.0
 40
0.1486488988645436
 50
116.47354415466209
 51
167.68123299102129
  0
ARC
  5
3AD4
  8
0
 10
60.842335173075732
 20
6.5074447057159253
 30
0.0
 40
0.3273441450901113
 50
111.9398428684714
 51
161.08137202428401
  0
ARC
  5
3AD5
  8
0
 10
60.970057189677412
 20
6.6482861888157858
 30
0.0
 40
0.2983564839320161
 50
102.6586758688357
 51
146.93157340301471
  0
ARC
  5
3AD6
  8
0
 10
61.039427306396128
 20
6.7981077718588256
 30
0.0
 40
0.1952411275048056
 50
89.906833989838233
 51
133.644844227064
  0
ARC
  5
3AD7
  8
0
 10
61.209510780499961
 20
2.7629022891420392
 30
0.0
 40
4.2338514296571592
 50
90.156316684931852
 51
92.335361138729198
  0
ARC
  5
3AD8
  8
0
 10
61.239680986418222
 20
6.6898907143028907
 30
0.0
 40
0.3100249271081993
 50
79.964936690636605
 51
98.34123362495329
  0
ARC
  5
3AD9
  8
0
 10
60.628151176663103
 20
5.9415451999683597
 30
0.0
 40
1.2462303850110259
 50
48.826942066309527
 51
57.720352586408303
  0
ARC
  5
3ADA
  8
0
 10
60.403675337095081
 20
5.5255981771486571
 30
0.0
 40
1.710322132149094
 50
35.729322575612009
 51
52.34209835454147
  0
ARC
  5
3ADB
  8
0
 10
60.176884566869589
 20
5.3427547431664646
 30
0.0
 40
2.0012639916216979
 50
25.354640377837988
 51
36.187218600725892
  0
ARC
  5
3ADC
  8
0
 10
72.891659996796662
 20
10.36235392326723
 30
0.0
 40
11.67366358420287
 50
200.89043218686581
 51
206.959349337269
  0
ARC
  5
3ADD
  8
0
 10
61.718457717654168
 20
4.5125079899201443
 30
0.0
 40
0.9491209408140163
 50
0.1237787169484732
 51
35.971293312640782
  0
ARC
  5
3ADE
  8
0
 10
62.215110158202059
 20
4.4729069344820589
 30
0.0
 40
0.4543793410297529
 50
324.81921480298229
 51
5.2595020391136877
  0
ARC
  5
3AE0
  8
0
 10
62.415382555129788
 20
4.5953784882453457
 30
0.0
 40
0.4206407939240579
 50
277.0125392193026
 51
294.00285617048661
  0
ARC
  5
3AE1
  8
0
 10
62.54051900502774
 20
4.003838304808168
 30
0.0
 40
0.1889674898003385
 50
112.2677684537374
 51
172.67119740053141
  0
ARC
  5
3AE2
  8
0
 10
63.626578219287133
 20
3.8910864575032762
 30
0.0
 40
1.280815613062507
 50
173.86614654095411
 51
196.5989559205095
  0
ARC
  5
3AE3
  8
0
 10
62.501741182004068
 20
3.5441081377943271
 30
0.0
 40
0.1043327792026958
 50
190.44431857239911
 51
223.8829908757474
  0
ARC
  5
3AE4
  8
0
 10
62.702484875403528
 20
3.362442124535939
 30
0.0
 40
0.2968167782551992
 50
101.0843020522163
 51
158.38375325952461
  0
ARC
  5
3AE5
  8
0
 10
59.350640737466293
 20
13.061203733449039
 30
0.0
 40
9.9677625880278455
 50
289.30177348344091
 51
290.04481053304841
  0
ARC
  5
3AE6
  8
0
 10
62.985820091561067
 20
3.5433612833166288
 30
0.0
 40
0.2673934404514101
 50
103.9644820021864
 51
144.86698870103811
  0
ARC
  5
3AE7
  8
0
 10
63.124046891551536
 20
2.918401451923796
 30
0.0
 40
0.9073930530774568
 50
78.397390035440594
 51
102.91157458821441
  0
ARC
  5
3AE8
  8
0
 10
63.210204400163683
 20
2.8160446322179609
 30
0.0
 40
0.9958791080521912
 50
72.785629100329473
 51
84.448619861733064
  0
ARC
  5
3AE9
  8
0
 10
63.266652863113578
 20
3.3599366719778958
 30
0.0
 40
0.4719451665306518
 50
21.168970381044652
 51
59.676059554929651
  0
ARC
  5
3AEA
  8
0
 10
51.610368170325629
 20
-2.6411595985562801
 30
0.0
 40
13.579771570390159
 50
24.65148723702287
 51
27.030488409106511
  0
ARC
  5
3AEB
  8
0
 10
64.391100068124288
 20
3.1090838910403198
 30
0.0
 40
0.4469793301120161
 50
191.1129175653216
 51
248.80785971046359
  0
ARC
  5
3AEC
  8
0
 10
63.116954490543009
 20
-0.0830867752782455
 30
0.0
 40
2.9901086138152282
 50
56.474587653878679
 51
68.155955083686834
  0
ARC
  5
3AED
  8
0
 10
64.148425246487861
 20
1.50070637388848
 30
0.0
 40
1.100205913577776
 50
23.659211773170021
 51
55.700515425927811
  0
ARC
  5
3AEE
  8
0
 10
64.312290736583179
 20
1.3527400042287929
 30
0.0
 40
1.029355260238082
 50
11.266873100213051
 51
34.933544866414479
  0
ARC
  5
3AEF
  8
0
 10
65.130197527527883
 20
1.5008398554729929
 30
0.0
 40
0.1988093245367015
 50
311.29323260271491
 51
15.46567525767257
  0
ARC
  5
3AF0
  8
0
 10
64.923109075424634
 20
1.92586102838298
 30
0.0
 40
0.6666082358564078
 50
262.2166182482872
 51
300.49561520084552
  0
ARC
  5
3AF1
  8
0
 10
65.372512222179651
 20
0.816637800798714
 30
0.0
 40
0.7018814150378255
 50
140.25573386875391
 51
176.52158051560971
  0
ARC
  5
3B43
  8
0
 10
87.173962183936325
 20
7.7965764862242404
 30
0.0
 40
0.4936502813031727
 50
64.10128866175522
 51
102.2412919948799
  0
ARC
  5
3B44
  8
0
 10
87.076475252182789
 20
7.6127187772908993
 30
0.0
 40
0.7016621353976097
 50
36.520995300542332
 51
63.497795586742797
  0
ARC
  5
3B45
  8
0
 10
85.562131285026922
 20
6.6078981720902483
 30
0.0
 40
2.5183776092779091
 50
5.3900968421512268
 51
34.38874083691509
  0
ARC
  5
3B46
  8
0
 10
108.21864479791481
 20
8.7179620716486887
 30
0.0
 40
20.236183879953671
 50
185.31213847351401
 51
187.21426967452021
  0
ARC
  5
3B47
  8
0
 10
108.884086303782
 20
7.7860767378813422
 30
0.0
 40
20.80205850351474
 50
184.4120435736921
 51
185.85156209616159
  0
ARC
  5
3B48
  8
0
 10
90.683655828733578
 20
5.6953314704384814
 30
0.0
 40
2.493190708555463
 50
180.8029527778321
 51
198.7859520382012
  0
ARC
  5
3B49
  8
0
 10
85.352007406235543
 20
4.3710254391256953
 30
0.0
 40
3.0166777742815629
 50
357.48739049073669
 51
9.953221226397293
  0
ARC
  5
3B4A
  8
0
 10
54.250084085385012
 20
6.5254054478770191
 30
0.0
 40
34.193196745638161
 50
354.34056670817
 51
356.14100362496441
  0
ARC
  5
3B4B
  8
0
 10
87.707197983400008
 20
3.2459811020999991
 30
0.0
 40
0.576884402353866
 50
328.64942225249399
 51
350.76863423783487
  0
ARC
  5
3B4C
  8
0
 10
86.259334550967083
 20
3.2042511995143519
 30
0.0
 40
1.957652327023131
 50
329.5636798392116
 51
352.41489460803302
  0
ARC
  5
3B4D
  8
0
 10
80.212562883693167
 20
6.0975753665293047
 30
0.0
 40
8.6555308678236127
 50
331.07893756128323
 51
333.33009371737779
  0
ARC
  5
3B50
  8
0
 10
87.247274645818436
 20
1.147354213891018
 30
0.0
 40
0.3173561188134892
 50
333.71855564568398
 51
36.817923103175623
  0
ARC
  5
3B51
  8
0
 10
86.830848834447906
 20
1.599951272053993
 30
0.0
 40
0.9240937749742222
 50
308.2161769922044
 51
319.4168092099946
  0
ARC
  5
3B52
  8
0
 10
87.126465605597446
 20
1.116674312273557
 30
0.0
 40
0.3676174198198265
 50
290.79190526154292
 51
318.671153615658
  0
ARC
  5
3B53
  8
0
 10
84.573158876724548
 20
1.33838433327312
 30
0.0
 40
2.7427091610222498
 50
342.83759335385628
 51
348.10366014742721
  0
ARC
  5
3B5F
  8
0
 10
90.592628673215685
 20
1.2380013452812551
 30
0.0
 40
4.8819322998529664
 50
213.7791846770734
 51
227.3732702824405
  0
ARC
  5
3B60
  8
0
 10
88.134564866828356
 20
-1.425209033873891
 30
0.0
 40
1.257753855688243
 50
227.6019402961856
 51
261.14848651545668
  0
ARC
  5
3B61
  8
0
 10
88.396144940187526
 20
1.732278569798285
 30
0.0
 40
4.4238570097913108
 50
264.15714579897218
 51
269.48429225540178
  0
ARC
  5
3B62
  8
0
 10
88.365669844033235
 20
-3.241370432887968
 30
0.0
 40
0.5500505375259575
 50
65.75512516828968
 51
90.973215788673329
  0
ARC
  5
3B63
  8
0
 10
88.289114581689944
 20
-3.2382678877741942
 30
0.0
 40
0.584834391918272
 50
19.876824530124122
 51
58.8610830541841
  0
ARC
  5
3B64
  8
0
 10
89.911435522714655
 20
-2.531680203879902
 30
0.0
 40
1.187244507841132
 50
204.45231220780471
 51
237.81649524244551
  0
ARC
  5
3B65
  8
0
 10
89.020782486545841
 20
-3.8607499138147019
 30
0.0
 40
0.4145483184448577
 50
353.19422106832752
 51
51.460170544331262
  0
ARC
  5
3B66
  8
0
 10
91.008307038700337
 20
-3.9926057893494238
 30
0.0
 40
1.578067380758398
 50
176.99489080616121
 51
199.80957724119281
  0
ARC
  5
3B67
  8
0
 10
88.909125467082134
 20
-4.8010195170999834
 30
0.0
 40
0.6726605339524651
 50
344.99491803008829
 51
24.001734138538549
  0
ARC
  5
3B68
  8
0
 10
89.247407619464269
 20
-4.8349686237094387
 30
0.0
 40
0.3415467356341983
 50
313.62575856294842
 51
335.76357828339758
  0
ARC
  5
3B69
  8
0
 10
83.752841882136991
 20
1.1694512256551031
 30
0.0
 40
1.461230323858435
 50
190.7414681475461
 51
202.96671436772601
  0
ARC
  5
3B6A
  8
0
 10
84.664283482271586
 20
0.9331112173236853
 30
0.0
 40
2.2813984882582901
 50
188.4140405593424
 51
196.1623108150188
  0
ARC
  5
3B6B
  8
0
 10
75.695644996786967
 20
-1.948849709610053
 30
0.0
 40
7.1401589738799149
 50
16.084756307702321
 51
18.341894685391161
  0
ARC
  5
3B6C
  8
0
 10
83.11228777720423
 20
0.1915711404080601
 30
0.0
 40
0.5791694091956932
 50
196.2610215779257
 51
228.33655976097489
  0
ARC
  5
3B6D
  8
0
 10
86.252673972025605
 20
2.5255188737855461
 30
0.0
 40
4.4813601765166347
 50
218.1237811545528
 51
222.2815297983222
  0
ARC
  5
3B6E
  8
0
 10
74.203451673636707
 20
-5.7810057649388122
 30
0.0
 40
10.210687788943289
 50
28.24791021954309
 51
31.262827554793361
  0
ARC
  5
3B6F
  8
0
 10
85.790653872812314
 20
0.46745775284619
 30
0.0
 40
2.9540230830947078
 50
208.43241566086539
 51
232.04606947196629
  0
ARC
  5
3B70
  8
0
 10
94.694741037318494
 20
10.760304623178
 30
0.0
 40
16.56065275473447
 50
229.65629080150299
 51
232.86771440214801
  0
ARC
  5
3B71
  8
0
 10
89.241298038111736
 20
1.098740500648508
 30
0.0
 40
5.7605949575090492
 50
217.93362500016801
 51
226.0163866641615
  0
ARC
  5
3B72
  8
0
 10
92.639404513163853
 20
5.7623312875594026
 30
0.0
 40
11.503457036770859
 50
229.9721204893888
 51
233.0621960491203
  0
ARC
  5
3B73
  8
0
 10
85.067721898311532
 20
-4.3677472880861767
 30
0.0
 40
1.144138770087094
 50
30.360303427882751
 51
54.849767413440979
  0
ARC
  5
3B74
  8
0
 10
85.260017405824996
 20
-4.1546561379062634
 30
0.0
 40
0.8748143859492733
 50
10.74371504960912
 51
24.674173879200929
  0
ARC
  5
3B75
  8
0
 10
86.560769283581806
 20
-3.9448351525355299
 30
0.0
 40
0.4437408546475038
 50
186.04645604717061
 51
191.51660658262381
  0
ARC
  5
3B76
  8
0
 10
85.475252876080461
 20
-4.1374283026446612
 30
0.0
 40
0.6589678727210355
 50
7.2508866793557498
 51
9.0804819751485066
  0
ARC
  5
3B77
  8
0
 10
89.137937644537118
 20
-3.784916821839488
 30
0.0
 40
3.0210318404945071
 50
185.11928659679359
 51
186.05869323496199
  0
ARC
  5
3B78
  8
0
 10
84.930225488480787
 20
-4.1787384916679313
 30
0.0
 40
1.2058869983239191
 50
345.89597087588152
 51
3.5639137325668382
  0
ARC
  5
3B79
  8
0
 10
87.953380366725071
 20
-5.150883380700451
 30
0.0
 40
1.973824501134227
 50
159.9010341260489
 51
170.80060036122069
  0
ARC
  5
3B7A
  8
0
 10
86.371535021392162
 20
-4.8911618916074451
 30
0.0
 40
0.3708194747984913
 50
171.33985026541649
 51
226.40773767414299
  0
ARC
  5
3B7B
  8
0
 10
86.785196296963335
 20
-4.6969354219650947
 30
0.0
 40
0.8137632274178708
 50
214.66055413136209
 51
234.70811385690061
  0
ARC
  5
3B7C
  8
0
 10
86.661225669086491
 20
-5.2267232179413332
 30
0.0
 40
0.3735353737945389
 50
200.7210935231474
 51
236.6499428461716
  0
ARC
  5
3B7D
  8
0
 10
86.621280243957131
 20
-4.5887618598546602
 30
0.0
 40
0.9642780596547853
 50
260.12296521340619
 51
272.93004452133829
  0
ARC
  5
3B7E
  8
0
 10
86.574867412088736
 20
-5.8357691852573934
 30
0.0
 40
0.2988701368487753
 50
46.96741545877957
 51
72.288281123779456
  0
ARC
  5
3B7F
  8
0
 10
89.825807957291318
 20
-2.0116559645348819
 30
0.0
 40
4.7206820826045988
 50
229.8002099863574
 51
233.3311305644624
  0
ARC
  5
3B80
  8
0
 10
87.338880158298949
 20
-5.3802990526611678
 30
0.0
 40
0.5337949460462099
 50
231.5111807445476
 51
275.4576846677283
  0
ARC
  5
3B81
  8
0
 10
86.086022454083974
 20
-35.782244510909457
 30
0.0
 40
29.89900362089509
 50
86.631002744821245
 51
87.50105299339242
  0
ARC
  5
3B82
  8
0
 10
87.763735538989238
 20
-3.568846372209916
 30
0.0
 40
2.3673965992181101
 50
271.92050577787842
 51
283.32576802663777
  0
ARC
  5
3B83
  8
0
 10
88.284558770636224
 20
-5.5686331855730096
 30
0.0
 40
0.3060554344317004
 50
273.31842225721618
 51
304.98832600747153
  0
ARC
  5
3B84
  8
0
 10
87.870788766493547
 20
-4.941483274138613
 30
0.0
 40
1.057320689203145
 50
303.87060350989498
 51
309.03642759673022
  0
ARC
  5
3B85
  8
0
 10
87.907351746580417
 20
-1.3373457685574439
 30
0.0
 40
4.4713057916672501
 50
278.06455252026251
 51
280.51255391086391
  0
ARC
  5
3B86
  8
0
 10
88.680950000588808
 20
-5.5777036345837834
 30
0.0
 40
0.1615063878644643
 50
285.14506627109739
 51
321.52077948188128
  0
ARC
  5
3B87
  8
0
 10
87.868153991373006
 20
-4.5396961853409614
 30
0.0
 40
1.475918906491922
 50
309.52157671990471
 51
316.51830582022382
  0
ARC
  5
3B88
  8
0
 10
89.068005601630801
 20
-5.6408767720413069
 30
0.0
 40
0.1547434647511931
 50
128.4715198298785
 51
146.42958696836209
  0
ARC
  5
3B89
  8
0
 10
87.764137078501989
 20
-3.2341982083801941
 30
0.0
 40
2.5854558845501621
 50
297.81948323863992
 51
305.59810365081961
  0
ARC
  5
3B8A
  8
0
 10
88.827194818752275
 20
-4.781987643827736
 30
0.0
 40
0.7090591871612082
 50
308.55435308990423
 51
332.25509655336123
  0
ARC
  5
3B8B
  8
0
 10
89.572515008987438
 20
-5.1953665799194271
 30
0.0
 40
0.14425425662797
 50
128.32690463747011
 51
144.73499344175221
  0
ARC
  5
3B8C
  8
0
 10
85.047138128169735
 20
5.316945221517825
 30
0.0
 40
1.809002188340924
 50
6.6299549605051808
 51
15.83355306228537
  0
ARC
  5
3B8D
  8
0
 10
82.407880419662703
 20
3.688492260873919
 30
0.0
 40
4.8015891480835986
 50
18.915613384425889
 51
22.49774458417378
  0
ARC
  5
3B8E
  8
0
 10
85.508845582675292
 20
5.0967776489238146
 30
0.0
 40
1.44893036164581
 50
0.3179995933445729
 51
5.8734289523762522
  0
ARC
  5
3B8F
  8
0
 10
94.039750954455897
 20
4.9104046503158152
 30
0.0
 40
7.0868877974805713
 50
178.387650022218
 51
185.189480532761
  0
ARC
  5
3B90
  8
0
 10
87.727457322606398
 20
-0.6853812480578826
 30
0.0
 40
1.4310631775997389
 50
191.98312797834049
 51
213.55207321312429
  0
ARC
  5
3B91
  8
0
 10
86.139906254209293
 20
-0.7815952782042439
 30
0.0
 40
0.2749276293568008
 50
313.04911952269049
 51
357.08387888178049
  0
ARC
  5
3B92
  8
0
 10
86.163683578455803
 20
-0.8369757222542714
 30
0.0
 40
0.2541873818781879
 50
9.372216748045691
 51
56.558294039490249
  0
ARC
  5
3B95
  8
0
 10
-105.0641262338041
 20
-29.61514289680952
 30
0.0
 40
195.01241740079621
 50
9.7536907488934865
 51
10.00626203661523
  0
ARC
  5
3B96
  8
0
 10
84.029609177836775
 20
2.9417453547131598
 30
0.0
 40
3.1368644554475589
 50
347.66162116982491
 51
8.8157551687732951
  0
ARC
  5
3B97
  8
0
 10
81.400148582341359
 20
3.445367476259614
 30
0.0
 40
5.8136139767211352
 50
329.73582210610073
 51
348.33900778509911
  0
ARC
  5
3B98
  8
0
 10
87.504884907227094
 20
-0.2203281088419357
 30
0.0
 40
1.309632563588188
 50
145.82206304375811
 51
192.68350617200531
  0
ARC
  5
3B99
  8
0
 10
86.462757017311844
 20
-0.4372911291616765
 30
0.0
 40
0.2458958820500437
 50
196.68203910965369
 51
229.71502760170881
  0
ARC
  5
3B9A
  8
0
 10
79.955243014726094
 20
4.0939697077398298
 30
0.0
 40
7.044596017134058
 50
14.10319504611102
 51
17.249034295287821
  0
ARC
  5
3B9B
  8
0
 10
86.346054621857746
 20
6.1454097900227858
 30
0.0
 40
0.3390294029229197
 50
6.3440324433106472
 51
39.999205237207761
  0
ARC
  5
3B9C
  8
0
 10
85.619539531227417
 20
6.089760149024495
 30
0.0
 40
1.0234693641892081
 50
15.503465210135509
 51
26.41454904390482
  0
ARC
  5
3B9D
  8
0
 10
86.391791777389514
 20
6.5110167740092759
 30
0.0
 40
0.1486488988645436
 50
12.318767008978581
 51
63.526455845337821
  0
ARC
  5
3B9E
  8
0
 10
86.148396144588688
 20
6.5379452403003757
 30
0.0
 40
0.3273441450901113
 50
18.91862797571585
 51
68.060157131529223
  0
ARC
  5
3B9F
  8
0
 10
86.020674127986965
 20
6.678786723400183
 30
0.0
 40
0.2983564839320809
 50
33.06842659698939
 51
77.138127477277152
  0
ARC
  5
3BA0
  8
0
 10
85.950592251827885
 20
6.8248536032691174
 30
0.0
 40
0.1989959631823511
 50
46.691546120654678
 51
89.886475094612905
  0
ARC
  5
3BA1
  8
0
 10
85.781220537164458
 20
2.7934028237264901
 30
0.0
 40
4.2338514296571592
 50
87.664638861271087
 51
89.843683315068759
  0
ARC
  5
3BA2
  8
0
 10
85.751050331246205
 20
6.7203912488873421
 30
0.0
 40
0.3100249271081993
 50
81.658766375046341
 51
100.0350633093631
  0
ARC
  5
3BA3
  8
0
 10
86.362580141001345
 20
5.9720457345528111
 30
0.0
 40
1.2462303850110259
 50
122.2796474135918
 51
131.1730579336899
  0
ARC
  5
3BA4
  8
0
 10
86.587055980569346
 20
5.5560987117331084
 30
0.0
 40
1.710322132149094
 50
127.6579016454584
 51
144.27067742438811
  0
ARC
  5
3BA5
  8
0
 10
86.813846750795719
 20
5.3732552777503413
 30
0.0
 40
2.001263991622761
 50
143.81278139927599
 51
154.64535962215771
  0
ARC
  5
3BA6
  8
0
 10
74.558197067397685
 20
10.203408400525239
 30
0.0
 40
11.1771737454562
 50
332.73236705844852
 51
339.17762589584828
  0
ARC
  5
3BA7
  8
0
 10
85.251320020622828
 20
4.547742407436826
 30
0.0
 40
0.927712766090814
 50
144.7918167541211
 51
179.65524829205771
  0
ARC
  5
3BA8
  8
0
 10
84.778170827194415
 20
4.5046002318550729
 30
0.0
 40
0.4571507689326967
 50
173.88165541224541
 51
215.11885577243419
  0
ARC
  5
3BA9
  8
0
 10
84.575348762534645
 20
4.625879022829797
 30
0.0
 40
0.4206407939240579
 50
245.99714382951339
 51
262.98746078069792
  0
ARC
  5
3BAA
  8
0
 10
84.450212312636694
 20
4.0343388393926194
 30
0.0
 40
0.1889674898003385
 50
7.3288025994686068
 51
67.732231546262412
  0
ARC
  5
3BAB
  8
0
 10
83.364153098377287
 20
3.9215869920877271
 30
0.0
 40
1.280815613062507
 50
343.40104407949042
 51
6.1338534590457998
  0
ARC
  5
3BAC
  8
0
 10
84.488990135660359
 20
3.5746086723787771
 30
0.0
 40
0.1043327792026958
 50
316.11700912425312
 51
349.5556814276008
  0
ARC
  5
3BAD
  8
0
 10
84.288246442260885
 20
3.3929426591203891
 30
0.0
 40
0.2968167782551992
 50
21.616246740475319
 51
78.915697947784324
  0
ARC
  5
3BAE
  8
0
 10
87.640090580198134
 20
13.091704268033491
 30
0.0
 40
9.9677625880278455
 50
249.95518946695219
 51
250.698226516559
  0
ARC
  5
3BAF
  8
0
 10
84.00491122610336
 20
3.573861817901081
 30
0.0
 40
0.2673934404514101
 50
35.13301129896157
 51
76.035517997814367
  0
ARC
  5
3BB0
  8
0
 10
83.866684426112897
 20
2.9489019865082469
 30
0.0
 40
0.9073930530774568
 50
77.088425411786062
 51
101.60260996455951
  0
ARC
  5
3BB1
  8
0
 10
83.780526917500765
 20
2.8465451668024122
 30
0.0
 40
0.9958791080521912
 50
95.551380138266538
 51
107.2143708996705
  0
ARC
  5
3BB2
  8
0
 10
83.723582994638306
 20
3.3908592118290808
 30
0.0
 40
0.4713307949813477
 50
120.29785234488421
 51
158.8571177191476
  0
ARC
  5
3BB3
  8
0
 10
120.8822947703481
 20
-15.28976048034937
 30
0.0
 40
42.059236301981791
 50
153.372236447718
 51
154.16221287072611
  0
ARC
  5
3BB4
  8
0
 10
82.617920499534804
 20
3.113546732500434
 30
0.0
 40
0.4161611067942083
 50
290.14024732207861
 51
349.9182831556916
  0
ARC
  5
3BB5
  8
0
 10
83.868798408072877
 20
-0.0417943430626317
 30
0.0
 40
2.9782392576901211
 50
111.83239615256311
 51
123.76841260288241
  0
ARC
  5
3BB6
  8
0
 10
82.842874037068299
 20
1.530858466575624
 30
0.0
 40
1.1008659731452779
 50
124.8769351100285
 51
156.33603993143609
  0
ARC
  5
3BB7
  8
0
 10
82.678440581081233
 20
1.383240538813244
 30
0.0
 40
1.029355260238082
 50
145.06645513358581
 51
168.73312689978701
  0
ARC
  5
3BB8
  8
0
 10
81.860533790136529
 20
1.531340390057444
 30
0.0
 40
0.1988093245367015
 50
164.53432474232719
 51
228.7067673972856
  0
ARC
  5
3BB9
  8
0
 10
82.067622242239793
 20
1.9563615629674309
 30
0.0
 40
0.6666082358564078
 50
239.50438479915391
 51
277.78338175171228
  0
ARC
  5
3BBA
  8
0
 10
81.618219095484818
 20
0.8471383353831784
 30
0.0
 40
0.7018814150377838
 50
3.4784194843893679
 51
39.7442661312474
  0
ARC
  5
3BBB
  8
0
 10
95.381740473842257
 20
-2.2465666954852308
 30
0.0
 40
8.6571726327866898
 50
151.29310761041859
 51
155.5433900203399
  0
ARC
  5
3BBC
  8
0
 10
-142.74807925276261
 20
57.407725602631068
 30
0.0
 40
236.87216617212371
 50
346.06159298019219
 51
346.10614813177239
  0
ARC
  5
3BBD
  8
0
 10
87.016885157846374
 20
0.4050866988063602
 30
0.0
 40
0.1434433416055357
 50
283.34792592694117
 51
337.53273564376451
  0
ARC
  5
3BBE
  8
0
 10
87.209860672689473
 20
-0.1802589470501452
 30
0.0
 40
0.4736361794553936
 50
109.51669523554411
 51
117.62587771302211
  0
ARC
  5
3BBF
  8
0
 10
87.557536662244942
 20
0.2073769675157889
 30
0.0
 40
0.5672520716203792
 50
176.71443030965159
 51
196.77214388542751
  0
ARC
  5
3BC0
  8
0
 10
86.924022592264876
 20
0.012954666099086
 30
0.0
 40
0.0954744460426553
 50
327.33375601047919
 51
18.777378112886481
  0
ARC
  5
3BC1
  8
0
 10
86.70738329451838
 20
0.1492539475959531
 30
0.0
 40
0.3514212714137248
 50
292.59154350947767
 51
327.69068275460472
  0
ARC
  5
3BC2
  8
0
 10
86.505897128879127
 20
0.5952481192381529
 30
0.0
 40
0.840724073617541
 50
287.72754626765288
 51
293.59291719495059
  0
ARC
  5
3BC3
  8
0
 10
89.675245353954224
 20
-1.090871347212385
 30
0.0
 40
3.0449755552716908
 50
163.1467988653674
 51
185.0875620474971
  0
ARC
  5
3BC4
  8
0
 10
89.040402167788073
 20
-1.2387661526773159
 30
0.0
 40
2.4012439310597582
 50
182.9153327566828
 51
190.64515374585929
  0
ARC
  5
3C15
  8
0
 10
74.140738870373454
 20
162.2543636408119
 30
0.0
 40
161.5922091320223
 50
271.91372974212948
 51
272.89795046591701
  0
ARC
  5
3C16
  8
0
 10
65.736542231958921
 20
3.470817114851489
 30
0.0
 40
5.9679323343378581
 50
191.89273884594931
 51
210.02188639678059
  0
ATTDEF
  5
3F5E
  8
DEFPOINTS
 10
73.470168581701742
 20
-5.9762729071123699
 30
0.0
 40
0.001
  1
CAST IRON
  3

  2
MATERIAL
 70
     0
1001
ACDBATTR
1070
     0
1070
     1
  0
ATTDEF
  5
3F5F
  8
DEFPOINTS
 10
73.470168581701742
 20
-5.9746062404457048
 30
0.0
 40
0.001
  1
BATH
  3

  2
PRODUCT
 70
     0
1001
ACDBATTR
1070
     0
1070
     1
  0
ATTDEF
  5
3F60
  8
DEFPOINTS
 10
73.470168581701742
 20
-5.9729395737790396
 30
0.0
 40
0.001
  1
IRON WORKS
  3

  2
TRADENAME
 70
     0
1001
ACDBATTR
1070
     0
1070
     1
  0
ATTDEF
  5
3F61
  8
DEFPOINTS
 10
73.470168581701742
 20
-5.9712729071123753
 30
0.0
 40
0.001
  1
K-710-W
  3

  2
MODELNUMBER
 70
     0
1001
ACDBATTR
1070
     0
1070
     1
  0
ENDSEC
  0
EOF
