  0
SECTION
  2
HEADER
  9
$ACADVER
  1
AC1009
  9
$INSBASE
 10
4749.1930463744847657
 20
169.3932081659283995
 30
0.0
  9
$EXTMIN
 10
4726.512126802424973
 20
167.6351555881090007
 30
-0.0000000349181948
  9
$EXTMAX
 10
4771.8638321903608812
 20
171.1570655609648952
 30
0.0000000814935746
  9
$LIMMIN
 10
0.0
 20
0.0
  9
$LIMMAX
 10
11.6929133858000007
 20
8.2677165353999982
  9
$ORTHOMODE
 70
     0
  9
$REGENMODE
 70
     1
  9
$FILLMODE
 70
     1
  9
$QTEXTMODE
 70
     0
  9
$MIRRTEXT
 70
     0
  9
$DRAGMODE
 70
     2
  9
$LTSCALE
 40
0.6431102362
  9
$OSMODE
 70
  4095
  9
$ATTMODE
 70
     1
  9
$TEXTSIZE
 40
0.2
  9
$TRACEWID
 40
0.05
  9
$TEXTSTYLE
  7
STANDARD
  9
$CLAYER
  8
0
  9
$CELTYPE
  6
BYLAYER
  9
$CECOLOR
 62
   256
  9
$DIMSCALE
 40
1.0
  9
$DIMASZ
 40
0.1875
  9
$DIMEXO
 40
0.0625
  9
$DIMDLI
 40
0.4443307087
  9
$DIMRND
 40
0.0
  9
$DIMDLE
 40
0.0
  9
$DIMEXE
 40
0.125
  9
$DIMTP
 40
0.01
  9
$DIMTM
 40
0.01
  9
$DIMTXT
 40
2.0
  9
$DIMCEN
 40
0.1052362205
  9
$DIMTSZ
 40
0.0
  9
$DIMTOL
 70
     1
  9
$DIMLIM
 70
     0
  9
$DIMTIH
 70
     1
  9
$DIMTOH
 70
     1
  9
$DIMSE1
 70
     0
  9
$DIMSE2
 70
     0
  9
$DIMTAD
 70
     0
  9
$DIMZIN
 70
     0
  9
$DIMBLK
  1

  9
$DIMASO
 70
     1
  9
$DIMSHO
 70
     1
  9
$DIMPOST
  1
\X
  9
$DIMAPOST
  1

  9
$DIMALT
 70
     1
  9
$DIMALTD
 70
     2
  9
$DIMALTF
 40
25.3999999999999986
  9
$DIMLFAC
 40
1.0
  9
$DIMTOFL
 70
     0
  9
$DIMTVP
 40
0.0
  9
$DIMTIX
 70
     0
  9
$DIMSOXD
 70
     0
  9
$DIMSAH
 70
     0
  9
$DIMBLK1
  1

  9
$DIMBLK2
  1

  9
$DIMSTYLE
  2
STANDARD
  9
$DIMCLRD
 70
     0
  9
$DIMCLRE
 70
     0
  9
$DIMCLRT
 70
     0
  9
$DIMTFAC
 40
1.0
  9
$DIMGAP
 40
0.09
  9
$LUNITS
 70
     2
  9
$LUPREC
 70
     4
  9
$SKETCHINC
 40
0.1
  9
$FILLETRAD
 40
0.0
  9
$AUNITS
 70
     0
  9
$AUPREC
 70
     0
  9
$MENU
  1
.
  9
$ELEVATION
 40
0.0
  9
$PELEVATION
 40
0.0
  9
$THICKNESS
 40
0.0
  9
$LIMCHECK
 70
     0
  9
$BLIPMODE
 70
     0
  9
$CHAMFERA
 40
0.0
  9
$CHAMFERB
 40
0.0
  9
$SKPOLY
 70
     0
  9
$TDCREATE
 40
2458060.468368056230247
  9
$TDUPDATE
 40
2459375.5938425920903683
  9
$TDINDWG
 40
0.4147640046
  9
$TDUSRTIMER
 40
0.4147640046
  9
$USRTIMER
 70
     1
  9
$ANGBASE
 50
0.0
  9
$ANGDIR
 70
     0
  9
$PDMODE
 70
     0
  9
$PDSIZE
 40
0.3125
  9
$PLINEWID
 40
0.0
  9
$COORDS
 70
     1
  9
$SPLFRAME
 70
     0
  9
$SPLINETYPE
 70
     6
  9
$SPLINESEGS
 70
     8
  9
$ATTDIA
 70
     1
  9
$ATTREQ
 70
     1
  9
$HANDLING
 70
     1
  9
$HANDSEED
  5
B576
  9
$SURFTAB1
 70
     6
  9
$SURFTAB2
 70
     6
  9
$SURFTYPE
 70
     6
  9
$SURFU
 70
     6
  9
$SURFV
 70
     6
  9
$UCSNAME
  2

  9
$UCSORG
 10
0.0
 20
0.0
 30
0.0
  9
$UCSXDIR
 10
1.0
 20
0.0
 30
0.0
  9
$UCSYDIR
 10
0.0
 20
1.0
 30
0.0
  9
$PUCSNAME
  2

  9
$PUCSORG
 10
0.0
 20
0.0
 30
0.0
  9
$PUCSXDIR
 10
1.0
 20
0.0
 30
0.0
  9
$PUCSYDIR
 10
0.0
 20
1.0
 30
0.0
  9
$USERI1
 70
     0
  9
$USERI2
 70
     0
  9
$USERI3
 70
     0
  9
$USERI4
 70
     0
  9
$USERI5
 70
     0
  9
$USERR1
 40
0.0
  9
$USERR2
 40
0.0
  9
$USERR3
 40
0.0
  9
$USERR4
 40
0.0
  9
$USERR5
 40
0.0
  9
$WORLDVIEW
 70
     1
  9
$SHADEDGE
 70
     3
  9
$SHADEDIF
 70
    70
  9
$TILEMODE
 70
     1
  9
$MAXACTVP
 70
    64
  9
$PLIMCHECK
 70
     0
  9
$PEXTMIN
 10
1.0000000000000000E+20
 20
1.0000000000000000E+20
 30
1.0000000000000000E+20
  9
$PEXTMAX
 10
-1.0000000000000000E+20
 20
-1.0000000000000000E+20
 30
-1.0000000000000000E+20
  9
$PLIMMIN
 10
0.0
 20
0.0
  9
$PLIMMAX
 10
12.0
 20
9.0
  9
$UNITMODE
 70
     0
  9
$VISRETAIN
 70
     1
  9
$PLINEGEN
 70
     0
  9
$PSLTSCALE
 70
     1
  0
ENDSEC
  0
SECTION
  2
TABLES
  0
TABLE
  2
VPORT
 70
     1
  0
VPORT
  2
*ACTIVE
 70
     0
 10
0.0
 20
0.0
 11
1.0
 21
1.0
 12
945.6439121135807682
 22
43.4008483777870779
 13
0.0
 23
0.0
 14
1.0
 24
1.0
 15
0.0
 25
0.0
 16
0.0
 26
0.0
 36
17.1152628219792007
 17
3803.5440673828129547
 27
125.9952621967499056
 37
0.0
 40
17.6232276810600794
 41
2.5847619047619039
 42
50.0
 43
0.0
 44
0.0
 50
0.0
 51
0.0
 71
     0
 72
   100
 73
     1
 74
     1
 75
     0
 76
     0
 77
     0
 78
     0
  0
ENDTAB
  0
TABLE
  2
LTYPE
 70
     2
  0
LTYPE
  2
CONTINUOUS
 70
     0
  3
Solid line
 72
    65
 73
     0
 40
0.0
  0
LTYPE
  2
PHANTOM2
 70
     0
  3
___ _ _ ___ _ _ ___ _ _ ___ _ _
 72
    65
 73
     6
 40
1.25
 49
0.625
 49
-0.125
 49
0.125
 49
-0.125
 49
0.125
 49
-0.125
  0
ENDTAB
  0
TABLE
  2
LAYER
 70
     2
  0
LAYER
  2
0
 70
     0
 62
   255
  6
CONTINUOUS
  0
LAYER
  2
DEFPOINTS
 70
     0
 62
     7
  6
CONTINUOUS
  0
ENDTAB
  0
TABLE
  2
STYLE
 70
     1
  0
STYLE
  2
STANDARD
 70
     0
 40
0.0
 41
0.8
 50
0.0
 71
     0
 42
0.2
  3
txt
  4

  0
ENDTAB
  0
TABLE
  2
VIEW
 70
     0
  0
ENDTAB
  0
TABLE
  2
UCS
 70
     0
  0
ENDTAB
  0
TABLE
  2
APPID
 70
     9
  0
APPID
  2
ACAD
 70
     0
  0
APPID
  2
ACAD_MLEADERVER
 70
     0
  0
APPID
  2
ACAD_EXEMPT_FROM_CAD_STANDARDS
 70
     0
  0
APPID
  2
ACAD_NAV_VCDISPLAY
 70
     0
  0
APPID
  2
ACAECLAYERSTANDARD
 70
     0
  0
APPID
  2
ACCMTRANSPARENCY
 70
     0
  0
APPID
  2
ACAD_DSTYLE_DIMJAG
 70
     0
  0
APPID
  2
ACAD_DSTYLE_DIMTALN
 70
     0
  0
APPID
  2
ACDBATTR
 70
     0
  0
ENDTAB
  0
TABLE
  2
DIMSTYLE
 70
     1
  0
DIMSTYLE
  2
STANDARD
 70
     0
  3

  4

  5

  6

  7

 40
1.0
 41
0.1875
 42
0.0625
 43
0.38
 44
0.125
 45
0.0
 46
0.0
 47
0.01
 48
0.01
140
0.15625
141
0.09
142
0.0
143
25.3999999999999986
144
1.0
145
0.0
146
1.0
147
0.09
 71
     1
 72
     0
 73
     1
 74
     1
 75
     0
 76
     0
 77
     0
 78
     4
170
     0
171
     2
172
     0
173
     0
174
     0
175
     0
176
     0
177
     0
178
     0
  0
ENDTAB
  0
ENDSEC
  0
SECTION
  2
BLOCKS
  0
BLOCK
  8
0
  2
$MODEL_SPACE
 70
     0
 10
0.0
 20
0.0
 30
0.0
  3
$MODEL_SPACE
  1

  0
ENDBLK
  5
21
  8
0
  0
BLOCK
 67
     1
  8
0
  2
$PAPER_SPACE
 70
     0
 10
0.0
 20
0.0
 30
0.0
  3
$PAPER_SPACE
  1

  0
ENDBLK
  5
1D
 67
     1
  8
0
  0
ENDSEC
  0
SECTION
  2
ENTITIES
  0
ATTDEF
  5
3930
  8
DEFPOINTS
 10
4749.1884176989224216
 20
169.3914164897715864
 30
0.0
 40
0.001
  1
K-706008-D3
  3

  2
MODELNUMBER
 70
     0
1001
ACDBATTR
1070
     0
1070
     1
  0
ATTDEF
  5
3931
  8
DEFPOINTS
 10
4749.1884176989224216
 20
169.3897498231048928
 30
0.0
 40
0.001
  1
LEVITY
  3

  2
TRADENAME
 70
     0
1001
ACDBATTR
1070
     0
1070
     1
  0
ATTDEF
  5
3932
  8
DEFPOINTS
 10
4749.1884176989224216
 20
169.3880831564383129
 30
0.0
 40
0.001
  1
SHOWER DOOR
  3

  2
PRODUCT
 70
     0
1001
ACDBATTR
1070
     0
1070
     1
  0
LINE
  5
B398
  8
0
 10
4726.9083680714138609
 20
168.3200379644752047
 30
0.0
 11
4726.6403495952099547
 21
168.3151857706762087
 31
0.0
  0
LINE
  5
B399
  8
0
 10
4726.6390187968008831
 20
170.3644576094249885
 30
0.0
 11
4726.9083680697867749
 21
170.3644606595987909
 31
0.0
  0
ARC
  5
B39A
  8
0
 10
4726.8964827337886163
 20
170.3348709211473988
 30
0.0
 40
0.0318875184582202
 50
8.5118089796453376
 51
68.1161089365293009
  0
LINE
  5
B39B
  8
0
 10
4726.9280190232857422
 20
170.3395906963783943
 30
0.0
 11
4726.9280207761521524
 21
170.0084667525831037
 31
0.0
  0
ARC
  5
B39C
  8
0
 10
4726.9480209151197414
 20
170.0084668584574956
 30
0.0
 40
0.0200001389693827
 50
180.0003033059016957
 51
268.9945863182780954
  0
LINE
  5
B39D
  8
0
 10
4726.9476699751121487
 20
169.9884697986761068
 30
0.0
 11
4727.5783670284790787
 21
169.977401330002607
 31
0.0
  0
ARC
  5
B39E
  8
0
 10
4727.5780160367821736
 20
169.9574013250511086
 30
0.0
 40
0.0200030845928935
 50
0.1794331058456603
 51
88.9945863182780528
  0
LINE
  5
B39F
  8
0
 10
4727.5980190232849054
 20
169.957463968578395
 30
0.0
 11
4727.5980190232849054
 21
168.8721616461783981
 31
0.0
  0
ARC
  5
B3A0
  8
0
 10
4727.5780190231143933
 20
168.8721616462484008
 30
0.0
 40
0.0200000001710426
 50
271.0000006856942036
 51
359.9999997995581111
  0
LINE
  5
B3A1
  8
0
 10
4727.5783680714857837
 20
168.8521646921784054
 30
0.0
 11
4726.9476699751849083
 21
168.8411558159783965
 31
0.0
  0
ARC
  5
B3A2
  8
0
 10
4726.9480190232789028
 20
168.8211588620814894
 30
0.0
 40
0.0199999999931954
 50
90.999999898501656
 51
179.9999997222656134
  0
LINE
  5
B3A3
  8
0
 10
4726.9280190232857422
 20
168.8211588621784074
 30
0.0
 11
4726.9280190229046639
 21
168.7425365088784019
 31
0.0
  0
LINE
  5
B3A4
  8
0
 10
4726.9280190213630704
 20
168.4245365088783899
 30
0.0
 11
4726.9280190209519787
 21
168.3400349183783931
 31
0.0
  0
ARC
  5
B3A5
  8
0
 10
4726.9080190208142085
 20
168.3400349184753111
 30
0.0
 40
0.0200000001400795
 50
271.0000072803073863
 51
359.9999997222656134
  0
LINE
  5
B3A6
  8
0
 10
4726.6190190232846362
 20
168.2878440073783111
 30
0.0
 11
4727.2370579932858163
 21
168.2878440073783111
 31
0.0
  0
ARC
  5
B3A7
  8
0
 10
4727.2488092299317941
 20
168.0761656588447011
 30
0.0
 40
0.2120042801470484
 50
60.5977299950518216
 51
93.1774901604073449
  0
ARC
  5
B3A8
  8
0
 10
4727.2969109968371413
 20
168.1826029723710008
 30
0.0
 40
0.0962197706821953
 50
357.2384044614909726
 51
54.423791058551231
  0
LINE
  5
B3A9
  8
0
 10
4727.3930190232858877
 20
168.4245365088783046
 30
0.0
 11
4727.3930190232858877
 21
167.7577209373783944
 31
0.0
  0
LINE
  5
B3AA
  8
0
 10
4726.6190190232846362
 20
167.6478440073782963
 30
0.0
 11
4727.2652386301770093
 21
167.6478440073782963
 31
0.0
  0
ARC
  5
B3AB
  8
0
 10
4727.2452062906477295
 20
167.868783791185308
 30
0.0
 40
0.2218460788377335
 50
275.1807723817655074
 51
299.0386433905601962
  0
ARC
  5
B3AC
  8
0
 10
4727.2969109968371413
 20
167.7530850423858055
 30
0.0
 40
0.0962197706821953
 50
305.5762089414487832
 51
2.7615955385155209
  0
LINE
  5
B3AD
  8
0
 10
4728.0504008307352706
 20
168.1791303088783991
 30
0.0
 11
4728.0100502328350558
 21
168.1387797109784117
 31
0.0
  0
LINE
  5
B3AE
  8
0
 10
4728.0100502328350558
 20
168.1387797109784117
 30
0.0
 11
4728.0100502328350558
 21
168.0124809066784053
 31
0.0
  0
LINE
  5
B3AF
  8
0
 10
4728.0100502328350558
 20
168.0124809066784053
 30
0.0
 11
4728.0504008307352706
 21
167.9721303088784055
 31
0.0
  0
LINE
  5
B3B0
  8
0
 10
4728.0504008307352706
 20
167.9721303088784055
 30
0.0
 11
4729.8446919181351404
 21
167.9721303088784055
 31
0.0
  0
LINE
  5
B3B1
  8
0
 10
4729.8446919181351404
 20
167.9721303088784055
 30
0.0
 11
4729.8850502328359653
 21
168.0124809066784053
 31
0.0
  0
LINE
  5
B3B2
  8
0
 10
4729.8850502328359653
 20
168.0124809066784053
 30
0.0
 11
4729.8850502328359653
 21
168.1387797109784117
 31
0.0
  0
LINE
  5
B3B3
  8
0
 10
4729.8850502328359653
 20
168.1387797109784117
 30
0.0
 11
4729.8446842013354399
 21
168.1791303088783991
 31
0.0
  0
LINE
  5
B3B4
  8
0
 10
4728.2849932606350194
 20
168.1791303088783991
 30
0.0
 11
4728.2871419683906424
 21
168.4245365088783046
 31
0.0
  0
LINE
  5
B3B5
  8
0
 10
4729.6075417793354063
 20
168.4721303088784055
 30
0.0
 11
4729.6100994955622809
 21
168.1791294806274948
 31
0.0
  0
LINE
  5
B3B6
  8
0
 10
4728.2134319812103058
 20
168.7425365088784019
 30
0.0
 11
4728.2147703079854182
 21
168.8953625922783885
 31
0.0
  0
LINE
  5
B3B7
  8
0
 10
4728.2147703079854182
 20
168.8953625922783885
 30
0.0
 11
4729.6412736497850346
 21
168.8953625922783885
 31
0.0
  0
LINE
  5
B3B8
  8
0
 10
4729.6412736497850346
 20
168.8953625922783885
 30
0.0
 11
4729.6418716907901398
 21
168.6953625922782862
 31
0.0
  0
LINE
  5
B3B9
  8
0
 10
4728.0504008307352706
 20
168.1791303088783991
 30
0.0
 11
4729.8446842013354399
 21
168.1791303088783991
 31
0.0
  0
LINE
  5
B3BA
  8
0
 10
4728.3801966425853607
 20
168.8953625922783885
 30
0.0
 11
4728.3823946750862888
 21
169.0212877891783876
 31
0.0
  0
LINE
  5
B3BB
  8
0
 10
4729.6733410109845863
 20
169.0212877891783876
 30
0.0
 11
4728.1826906367332413
 21
169.021287789147209
 31
0.0
  0
ARC
  5
B3BC
  8
0
 10
4728.4107819072014536
 20
169.2087838970971916
 30
0.0
 40
0.2952633031040823
 50
140.5770778647292047
 51
219.4209667596404927
  0
LINE
  5
B3BD
  8
0
 10
4728.1826970356851234
 20
169.3962877891783876
 30
0.0
 11
4729.673347409067901
 21
169.3962369166141002
 31
0.0
  0
LINE
  5
B3BE
  8
0
 10
4728.7180190232847963
 20
169.3962877891783876
 30
0.0
 11
4728.7180190232847963
 21
169.4118128073783964
 31
0.0
  0
LINE
  5
B3BF
  8
0
 10
4728.2030083845666013
 20
169.4118128073783964
 30
0.0
 11
4728.2052952247850044
 21
169.6738587434784051
 31
0.0
  0
ARC
  5
B3C0
  8
0
 10
4728.2202946535762749
 20
169.673727845447587
 30
0.0
 40
0.0149999999452736
 50
134.7499998086541098
 51
179.5000000047701008
  0
LINE
  5
B3C1
  8
0
 10
4728.2097344327830797
 20
169.6843806260783083
 30
0.0
 11
4728.2413128492926262
 21
169.7156846641678953
 31
0.0
  0
ARC
  5
B3C2
  8
0
 10
4728.2518730705623966
 20
169.7050318830573019
 30
0.0
 40
0.0150000006211867
 50
90.0000018203658954
 51
134.7499998086564119
  0
LINE
  5
B3C3
  8
0
 10
4728.2518730700849119
 20
169.7200318836783879
 30
0.0
 11
4729.6041619992856795
 21
169.7200319266418944
 31
0.0
  0
ARC
  5
B3C4
  8
0
 10
4729.6041619997622547
 20
169.7050247999522981
 30
0.0
 40
0.0150071266895609
 50
45.2609687425608129
 51
90.0000018203658954
  0
LINE
  5
B3C5
  8
0
 10
4729.4758414040852585
 20
168.8953625922783885
 30
0.0
 11
4729.4736433715852399
 21
169.0212877891783876
 31
0.0
  0
ARC
  5
B3C6
  8
0
 10
4729.4452561394691656
 20
169.2087838970971916
 30
0.0
 40
0.2952633031040823
 50
320.5790332403582852
 51
39.4229221352707526
  0
LINE
  5
B3C7
  8
0
 10
4729.6530296621021989
 20
169.4118128073783964
 30
0.0
 11
4729.6507428218856148
 21
169.6738587434784051
 31
0.0
  0
ARC
  5
B3C8
  8
0
 10
4729.6357433930943444
 20
169.673727845447587
 30
0.0
 40
0.0149999999452736
 50
0.4999999952298451
 51
45.2500001913458973
  0
LINE
  5
B3C9
  8
0
 10
4729.6463036138857206
 20
169.6843806260783083
 30
0.0
 11
4729.6147251973770835
 21
169.7156846641678953
 31
0.0
  0
LINE
  5
B3CA
  8
0
 10
4729.138019023284869
 20
169.3962877891783876
 30
0.0
 11
4729.138019023284869
 21
169.4118128073783964
 31
0.0
  0
LINE
  5
B3CB
  8
0
 10
4727.5980190232849054
 20
169.4118128073783964
 30
0.0
 11
4770.788073725684626
 21
169.4118128073783964
 31
0.0
  0
LINE
  5
B3CC
  8
0
 10
4727.5980190232849054
 20
169.8788128073784094
 30
0.0
 11
4770.788073725684626
 21
169.8788128073784094
 31
0.0
  0
LINE
  5
B3CD
  8
0
 10
4727.5980190232849054
 20
168.9908128073782905
 30
0.0
 11
4728.3818627322962129
 21
168.9908128073782905
 31
0.0
  0
LINE
  5
B3CE
  8
0
 10
4729.4741753143753158
 20
168.9908128073782905
 30
0.0
 11
4749.8913862250974489
 21
168.9908128073782905
 31
0.0
  0
LINE
  5
B3CF
  8
0
 10
4750.9836988071738233
 20
168.9908128073782905
 30
0.0
 11
4770.788073725684626
 21
168.9908128073782905
 31
0.0
  0
LINE
  5
B3D0
  8
0
 10
4727.5980190232849054
 20
169.2117700447784046
 30
0.0
 11
4728.1155337046966451
 21
169.2117700447784046
 31
0.0
  0
LINE
  5
B3D1
  8
0
 10
4729.7405043419739741
 20
169.2117700447784046
 30
0.0
 11
4749.6250571974969716
 21
169.2117700447784046
 31
0.0
  0
LINE
  5
B3D2
  8
0
 10
4751.2500278347743006
 20
169.2117700447784046
 30
0.0
 11
4770.788073725684626
 21
169.2117700447784046
 31
0.0
  0
LINE
  5
B3D3
  8
0
 10
4727.5980190232849054
 20
168.9408128073783928
 30
0.0
 11
4728.3809899790458076
 21
168.9408128073783928
 31
0.0
  0
LINE
  5
B3D4
  8
0
 10
4729.4750480676257212
 20
168.9408128073783928
 30
0.0
 11
4749.8905134718461341
 21
168.9408128073783928
 31
0.0
  0
LINE
  5
B3D5
  8
0
 10
4750.9845715604251382
 20
168.9408128073783928
 30
0.0
 11
4770.788073725684626
 21
168.9408128073783928
 31
0.0
  0
LINE
  5
B3D6
  8
0
 10
4728.728796374484773
 20
168.6948625922784117
 30
0.0
 11
4750.666296374484773
 21
168.6948625922784117
 31
0.0
  0
LINE
  5
B3D7
  8
0
 10
4727.3930190232858877
 20
168.1629378073783982
 30
0.0
 11
4728.0342083344721686
 21
168.162937812614814
 31
0.0
  0
LINE
  5
B3D8
  8
0
 10
4727.3930190232858877
 20
167.7629378073783926
 30
0.0
 11
4770.9930737256845532
 21
167.7629378147051966
 31
0.0
  0
LINE
  5
B3D9
  8
0
 10
4729.8608828962642292
 20
168.1629378073783982
 30
0.0
 11
4749.5342044708859248
 21
168.1629378073783982
 31
0.0
  0
LINE
  5
B3DA
  8
0
 10
4751.3608790379148559
 20
168.1629378073783982
 30
0.0
 11
4770.9930737256845532
 21
168.1629378073783982
 31
0.0
  0
LINE
  5
B3DB
  8
0
 10
4749.5503969723858972
 20
168.1791303088783991
 30
0.0
 11
4749.510046374484773
 21
168.1387797109784117
 31
0.0
  0
LINE
  5
B3DC
  8
0
 10
4749.510046374484773
 20
168.1387797109784117
 30
0.0
 11
4749.510046374484773
 21
168.0124809066784053
 31
0.0
  0
LINE
  5
B3DD
  8
0
 10
4749.510046374484773
 20
168.0124809066784053
 30
0.0
 11
4749.5503969723858972
 21
167.9721303088784055
 31
0.0
  0
LINE
  5
B3DE
  8
0
 10
4749.5503969723858972
 20
167.9721303088784055
 30
0.0
 11
4751.3446880597857671
 21
167.9721303088784055
 31
0.0
  0
LINE
  5
B3DF
  8
0
 10
4751.3446880597857671
 20
167.9721303088784055
 30
0.0
 11
4751.3850463744856825
 21
168.0124809066784053
 31
0.0
  0
LINE
  5
B3E0
  8
0
 10
4751.3850463744856825
 20
168.0124809066784053
 30
0.0
 11
4751.3850463744856825
 21
168.1387797109784117
 31
0.0
  0
LINE
  5
B3E1
  8
0
 10
4751.3850463744856825
 20
168.1387797109784117
 30
0.0
 11
4751.344680342985157
 21
168.1791303088783991
 31
0.0
  0
LINE
  5
B3E2
  8
0
 10
4749.7849894022847366
 20
168.1791303088783991
 30
0.0
 11
4749.7875548279853319
 21
168.4721303088784055
 31
0.0
  0
LINE
  5
B3E3
  8
0
 10
4751.1079533854581314
 20
168.4245365088783899
 30
0.0
 11
4751.1100956372138171
 21
168.1791294806274948
 31
0.0
  0
LINE
  5
B3E4
  8
0
 10
4749.7225379845503994
 20
168.6948625922784117
 30
0.0
 11
4749.7242938007848352
 21
168.8953625922783885
 31
0.0
  0
LINE
  5
B3E5
  8
0
 10
4749.7242938007848352
 20
168.8953625922783885
 30
0.0
 11
4751.1507971425853611
 21
168.8953625922783885
 31
0.0
  0
LINE
  5
B3E6
  8
0
 10
4751.1507971425853611
 20
168.8953625922783885
 30
0.0
 11
4751.1512541239071652
 21
168.7425365088784019
 31
0.0
  0
LINE
  5
B3E7
  8
0
 10
4749.5503969723858972
 20
168.1791303088783991
 30
0.0
 11
4751.344680342985157
 21
168.1791303088783991
 31
0.0
  0
LINE
  5
B3E8
  8
0
 10
4749.8897201353847777
 20
168.8953625922783885
 30
0.0
 11
4749.8919181678847963
 21
169.0212877891783876
 31
0.0
  0
LINE
  5
B3E9
  8
0
 10
4751.1828645037849128
 20
169.0212877891783876
 30
0.0
 11
4749.6922141295335678
 21
169.021287789147209
 31
0.0
  0
ARC
  5
B3EA
  8
0
 10
4749.9203054000008706
 20
169.2087838970971916
 30
0.0
 40
0.2952633031040823
 50
140.5770778647292047
 51
219.4209667596404927
  0
LINE
  5
B3EB
  8
0
 10
4749.6922205284854499
 20
169.3962877891783876
 30
0.0
 11
4751.182870901869137
 21
169.3962369166141002
 31
0.0
  0
LINE
  5
B3EC
  8
0
 10
4750.2275425160851228
 20
169.3962877891783876
 30
0.0
 11
4750.2275425160851228
 21
169.4118128073783964
 31
0.0
  0
LINE
  5
B3ED
  8
0
 10
4749.7125318773669278
 20
169.4118128073783964
 30
0.0
 11
4749.7148187175853309
 21
169.6738587434784051
 31
0.0
  0
ARC
  5
B3EE
  8
0
 10
4749.7298181463756919
 20
169.673727845447587
 30
0.0
 40
0.0149999999452736
 50
134.7499998086541098
 51
179.5000000047701008
  0
LINE
  5
B3EF
  8
0
 10
4749.7192579255843157
 20
169.6843806260783083
 30
0.0
 11
4749.7508363420929527
 21
169.7156846641678953
 31
0.0
  0
ARC
  5
B3F0
  8
0
 10
4749.7613965633618136
 20
169.7050318830573019
 30
0.0
 40
0.0150000006211867
 50
90.0000018203658954
 51
134.7499998086564119
  0
LINE
  5
B3F1
  8
0
 10
4749.7613965628852384
 20
169.7200318836783879
 30
0.0
 11
4751.1136854920850965
 21
169.7200319266418944
 31
0.0
  0
ARC
  5
B3F2
  8
0
 10
4751.1136854925616717
 20
169.7050247999522981
 30
0.0
 40
0.0150071266895609
 50
45.2609687425608129
 51
90.0000018203658954
  0
LINE
  5
B3F3
  8
0
 10
4750.985364896885585
 20
168.8953625922783885
 30
0.0
 11
4750.9831668643855664
 21
169.0212877891783876
 31
0.0
  0
ARC
  5
B3F4
  8
0
 10
4750.9547796322685826
 20
169.2087838970971916
 30
0.0
 40
0.2952633031040823
 50
320.5790332403582852
 51
39.4229221352707526
  0
LINE
  5
B3F5
  8
0
 10
4751.1625531549034349
 20
169.4118128073783964
 30
0.0
 11
4751.1602663146850318
 21
169.6738587434784051
 31
0.0
  0
ARC
  5
B3F6
  8
0
 10
4751.1452668858937614
 20
169.673727845447587
 30
0.0
 40
0.0149999999452736
 50
0.4999999952298451
 51
45.2500001913458973
  0
LINE
  5
B3F7
  8
0
 10
4751.155827106686047
 20
169.6843806260783083
 30
0.0
 11
4751.12424869017741
 21
169.7156846641678953
 31
0.0
  0
LINE
  5
B3F8
  8
0
 10
4750.6475425160851955
 20
169.3962877891783876
 30
0.0
 11
4750.6475425160851955
 21
169.4118128073783964
 31
0.0
  0
LINE
  5
B3F9
  8
0
 10
4771.477724670697171
 20
168.3210086794503013
 30
0.0
 11
4771.7448203093827033
 21
168.3163465076569878
 31
0.0
  0
ARC
  5
B3FA
  8
0
 10
4771.7465242950247557
 20
168.3368371128017884
 30
0.0
 40
0.0205613342531123
 50
265.2462575560924165
 51
358.0502811952407001
  0
ARC
  5
B3FB
  8
0
 10
4771.7430967790051
 20
170.3445047456619932
 30
0.0
 40
0.0239947793755022
 50
2.2090962827263052
 51
56.2648779547176972
  0
LINE
  5
B3FC
  8
0
 10
4771.7564223830795527
 20
170.3644591364895859
 30
0.0
 11
4771.5322963732851349
 21
170.3644591364895859
 31
0.0
  0
LINE
  5
B3FD
  8
0
 10
4771.4580722365999463
 20
170.0763869025784061
 30
0.0
 11
4771.4580719659597889
 21
170.0094374675580866
 31
0.0
  0
ARC
  5
B3FE
  8
0
 10
4771.4380718269912904
 20
170.0094375734325922
 30
0.0
 40
0.0200001389693827
 50
271.0054136817220183
 51
359.9996966940981906
  0
LINE
  5
B3FF
  8
0
 10
4771.4384227669988832
 20
169.9894405136510898
 30
0.0
 11
4770.8077257136328626
 21
169.9783720449775899
 31
0.0
  0
ARC
  5
B400
  8
0
 10
4770.8080767053279487
 20
169.9583720400260916
 30
0.0
 40
0.0200030845928935
 50
91.0054136817219614
 51
179.8205668941542967
  0
LINE
  5
B401
  8
0
 10
4770.7880737188261264
 20
169.9584346835534916
 30
0.0
 11
4770.7880737188261264
 21
168.8731323611534947
 31
0.0
  0
ARC
  5
B402
  8
0
 10
4770.8080737189966385
 20
168.8731323612234121
 30
0.0
 40
0.0200000001710426
 50
180.0000002004418889
 51
268.99999931430591
  0
LINE
  5
B403
  8
0
 10
4770.8077246706261576
 20
168.8531354071533883
 30
0.0
 11
4771.4384227669261236
 21
168.8421265309534931
 31
0.0
  0
ARC
  5
B404
  8
0
 10
4771.4380737188321291
 20
168.822129577056387
 30
0.0
 40
0.0199999999931954
 50
0.0000002777343806
 51
89.0000001014983297
  0
LINE
  5
B405
  8
0
 10
4771.4580737188261992
 20
168.8221295771533903
 30
0.0
 11
4771.4580737211581436
 21
168.3410056333534897
 31
0.0
  0
ARC
  5
B406
  8
0
 10
4771.4780737212986423
 20
168.3410056334504077
 30
0.0
 40
0.0200000001400795
 50
180.0000002777343866
 51
268.9999927196926137
  0
LINE
  5
B407
  8
0
 10
4771.7670737256858047
 20
168.2877055238782873
 30
0.0
 11
4771.149034748826125
 21
168.2877055238782873
 31
0.0
  0
ARC
  5
B408
  8
0
 10
4771.1372835121792377
 20
168.0760271753447057
 30
0.0
 40
0.2120042801470484
 50
86.8225098395926693
 51
119.4022700049482069
  0
ARC
  5
B409
  8
0
 10
4771.0891817452729811
 20
168.1824644888708917
 30
0.0
 40
0.0962197706821953
 50
125.5762089414487974
 51
177.2384044615365042
  0
LINE
  5
B40A
  8
0
 10
4770.9930737188260537
 20
168.5217055238784098
 30
0.0
 11
4770.9930737188260537
 21
167.7477209373784035
 31
0.0
  0
LINE
  5
B40B
  8
0
 10
4771.7670737256858047
 20
167.6478440073782963
 30
0.0
 11
4771.149034748826125
 21
167.6478440073782963
 31
0.0
  0
ARC
  5
B40C
  8
0
 10
4771.1446635564361713
 20
168.021571069642988
 30
0.0
 40
0.3737526245952529
 50
252.6491879731023005
 51
270.6701132480865795
  0
ARC
  5
B40D
  8
0
 10
4771.0891817452729811
 20
167.7430850423857862
 30
0.0
 40
0.0962197706821953
 50
177.2384044614844925
 51
234.4237910585511884
  0
LINE
  5
B40E
  8
0
 10
4770.3356957765854531
 20
170.6399807025784128
 30
0.0
 11
4770.3760463744856679
 21
170.6803313004784002
 31
0.0
  0
LINE
  5
B40F
  8
0
 10
4770.3760463744856679
 20
170.6803313004784002
 30
0.0
 11
4770.3760463744856679
 21
170.8066301047782929
 31
0.0
  0
LINE
  5
B410
  8
0
 10
4770.3760463744856679
 20
170.8066301047782929
 30
0.0
 11
4770.3356957765854531
 21
170.8469807025784064
 31
0.0
  0
LINE
  5
B411
  8
0
 10
4770.3356957765854531
 20
170.8469807025784064
 30
0.0
 11
4768.5414046891855833
 21
170.8469807025784064
 31
0.0
  0
LINE
  5
B412
  8
0
 10
4768.5414046891855833
 20
170.8469807025784064
 30
0.0
 11
4768.5010463744856679
 21
170.8066301047782929
 31
0.0
  0
LINE
  5
B413
  8
0
 10
4768.5010463744856679
 20
170.8066301047782929
 30
0.0
 11
4768.5010463744856679
 21
170.6803313004784002
 31
0.0
  0
LINE
  5
B414
  8
0
 10
4768.5010463744856679
 20
170.6803313004784002
 30
0.0
 11
4768.5414124059852838
 21
170.6399807025784128
 31
0.0
  0
LINE
  5
B415
  8
0
 10
4770.1011033466847948
 20
170.6399807025784128
 30
0.0
 11
4770.098952996357184
 21
170.3943869025783897
 31
0.0
  0
LINE
  5
B416
  8
0
 10
4769.6572963744847584
 20
170.3469807025784064
 30
0.0
 11
4768.7785548279853174
 21
170.3469807025784064
 31
0.0
  0
LINE
  5
B417
  8
0
 10
4768.7785548279853174
 20
170.3469807025784064
 30
0.0
 11
4768.7759971117584428
 21
170.6399815308292887
 31
0.0
  0
LINE
  5
B418
  8
0
 10
4770.1531394905132402
 20
170.0763869025784061
 30
0.0
 11
4770.151802806584783
 21
169.9237484190784073
 31
0.0
  0
LINE
  5
B419
  8
0
 10
4770.151802806584783
 20
169.9237484190784073
 30
0.0
 11
4768.7252994647851665
 21
169.9237484190784073
 31
0.0
  0
LINE
  5
B41A
  8
0
 10
4768.7252994647851665
 20
169.9237484190784073
 30
0.0
 11
4768.7246999286771825
 21
170.1242484190784126
 31
0.0
  0
LINE
  5
B41B
  8
0
 10
4770.3356957765854531
 20
170.6399807025784128
 30
0.0
 11
4768.5414124059852838
 21
170.6399807025784128
 31
0.0
  0
LINE
  5
B41C
  8
0
 10
4769.98637647198575
 20
169.9237484190784073
 30
0.0
 11
4769.9855921179605502
 21
169.8788128073784094
 31
0.0
  0
LINE
  5
B41D
  8
0
 10
4768.8907317104849426
 20
169.9237484190784073
 30
0.0
 11
4768.8915160645092328
 21
169.8788128073784094
 31
0.0
  0
LINE
  5
B41E
  8
0
 10
4769.6572963744847584
 20
170.1242484190784126
 30
0.0
 11
4747.7197963744847584
 21
170.1242484190784126
 31
0.0
  0
LINE
  5
B41F
  8
0
 10
4748.8356957765854531
 20
170.6399807025784128
 30
0.0
 11
4748.8760463744856679
 21
170.6803313004784002
 31
0.0
  0
LINE
  5
B420
  8
0
 10
4748.8760463744856679
 20
170.6803313004784002
 30
0.0
 11
4748.8760463744856679
 21
170.8066301047782929
 31
0.0
  0
LINE
  5
B421
  8
0
 10
4748.8760463744856679
 20
170.8066301047782929
 30
0.0
 11
4748.8356957765854531
 21
170.8469807025784064
 31
0.0
  0
LINE
  5
B422
  8
0
 10
4748.8356957765854531
 20
170.8469807025784064
 30
0.0
 11
4747.0414046891846738
 21
170.8469807025784064
 31
0.0
  0
LINE
  5
B423
  8
0
 10
4747.0414046891846738
 20
170.8469807025784064
 30
0.0
 11
4747.0010463744847584
 21
170.8066301047782929
 31
0.0
  0
LINE
  5
B424
  8
0
 10
4747.0010463744847584
 20
170.8066301047782929
 30
0.0
 11
4747.0010463744847584
 21
170.6803313004784002
 31
0.0
  0
LINE
  5
B425
  8
0
 10
4747.0010463744847584
 20
170.6803313004784002
 30
0.0
 11
4747.0414124059852838
 21
170.6399807025784128
 31
0.0
  0
LINE
  5
B426
  8
0
 10
4748.5985379209851089
 20
170.3469807025784064
 30
0.0
 11
4747.7197963744847584
 21
170.3469807025784064
 31
0.0
  0
LINE
  5
B427
  8
0
 10
4747.2781410011448315
 20
170.3943869025783897
 30
0.0
 11
4747.2759971117566238
 21
170.6399815308292887
 31
0.0
  0
LINE
  5
B428
  8
0
 10
4748.6584728088018892
 20
170.1187047863784016
 30
0.0
 11
4748.6567655392027518
 21
169.9237484190784073
 31
0.0
  0
LINE
  5
B429
  8
0
 10
4748.6567655392027518
 20
169.9237484190784073
 30
0.0
 11
4747.2302621974031354
 21
169.9237484190784073
 31
0.0
  0
LINE
  5
B42A
  8
0
 10
4747.2302621974031354
 20
169.9237484190784073
 30
0.0
 11
4747.229805777042202
 21
170.0763869025784061
 31
0.0
  0
LINE
  5
B42B
  8
0
 10
4748.8356957765854531
 20
170.6399807025784128
 30
0.0
 11
4747.0414124059852838
 21
170.6399807025784128
 31
0.0
  0
LINE
  5
B42C
  8
0
 10
4748.4913392046028093
 20
169.9237484190784073
 30
0.0
 11
4748.4905548505794286
 21
169.8788128073784094
 31
0.0
  0
LINE
  5
B42D
  8
0
 10
4747.3956944431029115
 20
169.9237484190784073
 30
0.0
 11
4747.3964787971272017
 21
169.8788128073784094
 31
0.0
  0
LINE
  5
B42F
  8
0
 10
4751.5792438816351932
 20
168.7425365088784019
 30
0.0
 11
4751.5796160694935679
 21
168.9408128073783928
 31
0.0
  0
LINE
  5
B430
  8
0
 10
4749.891732086734919
 20
169.0106272072783895
 30
0.0
 11
4729.4738294527360267
 21
169.0106272072783895
 31
0.0
  0
LINE
  5
B431
  8
0
 10
4770.7880737188261264
 20
169.6685805238784042
 30
0.0
 11
4760.4521408234568298
 21
169.6685805238784042
 31
0.0
  0
LINE
  5
B432
  8
0
 10
4759.4569519256137937
 20
169.6685805238784042
 30
0.0
 11
4751.160312377009177
 21
169.6685805238784042
 31
0.0
  0
LINE
  5
B433
  8
0
 10
4749.7147726552611857
 20
169.6685805238784042
 30
0.0
 11
4742.4539749124696755
 21
169.6685805238784042
 31
0.0
  0
LINE
  5
B434
  8
0
 10
4741.4587860146239109
 20
169.6685805238784042
 30
0.0
 11
4729.6507888842088505
 21
169.6685805238784042
 31
0.0
  0
LINE
  5
B435
  8
0
 10
4759.7394344065533005
 20
169.8028230407070112
 30
0.0
 11
4759.5158721045272614
 21
169.6833380070497981
 31
0.0
  0
LINE
  5
B436
  8
0
 10
4760.169658342519142
 20
169.8028230407070112
 30
0.0
 11
4760.3932206445442716
 21
169.6833380070497981
 31
0.0
  0
LINE
  5
B437
  8
0
 10
4760.1107381636038554
 20
169.8175805238784051
 30
0.0
 11
4759.7983545854649492
 21
169.8175805238784051
 31
0.0
  0
ARC
  5
B438
  8
0
 10
4760.1107381636038554
 20
169.6925805238784051
 30
0.0
 40
0.125
 50
61.8772936687348079
 51
90.0
  0
ARC
  5
B439
  8
0
 10
4759.7983545854649492
 20
169.6925805238782914
 30
0.0
 40
0.125
 50
90.0
 51
118.1227063312628047
  0
ARC
  5
B43A
  8
0
 10
4759.4569519256137937
 20
169.7935805238784042
 30
0.0
 40
0.125
 50
270.0
 51
298.1227063312651921
  0
ARC
  5
B43B
  8
0
 10
4760.4521408234568298
 20
169.7935805238784042
 30
0.0
 40
0.125
 50
241.8772936687348079
 51
270.0
  0
LINE
  5
B43C
  8
0
 10
4742.1714924315310782
 20
169.8028230407070112
 30
0.0
 11
4742.3950547335552983
 21
169.6833380070497981
 31
0.0
  0
LINE
  5
B43D
  8
0
 10
4741.7412684955634177
 20
169.8028230407070112
 30
0.0
 11
4741.5177061935401071
 21
169.6833380070497981
 31
0.0
  0
LINE
  5
B43E
  8
0
 10
4741.8001886744768854
 20
169.8175805238784051
 30
0.0
 11
4742.112572252616701
 21
169.8175805238784051
 31
0.0
  0
ARC
  5
B43F
  8
0
 10
4741.8001886744768854
 20
169.6925805238784051
 30
0.0
 40
0.125
 50
90.0
 51
118.1227063312652064
  0
ARC
  5
B440
  8
0
 10
4742.112572252616701
 20
169.6925805238782914
 30
0.0
 40
0.125
 50
61.87729366873711
 51
90.0
  0
ARC
  5
B441
  8
0
 10
4742.4539749124696755
 20
169.7935805238784042
 30
0.0
 40
0.125
 50
241.8772936687348079
 51
270.0
  0
ARC
  5
B442
  8
0
 10
4741.4587860146239109
 20
169.7935805238784042
 30
0.0
 40
0.125
 50
270.0
 51
298.1227063312651921
  0
LINE
  5
B443
  8
0
 10
4728.2052491624608592
 20
169.6685805238784042
 30
0.0
 11
4727.5980190232849054
 21
169.6685805238784042
 31
0.0
  0
LINE
  5
B444
  8
0
 10
4771.4070737256852226
 20
168.4537055238783978
 30
0.0
 11
4770.9930737188260537
 21
168.4537055238783978
 31
0.0
  0
LINE
  5
B445
  8
0
 10
4771.4689742240843771
 20
168.294687015478388
 30
0.0
 11
4771.6655785233688221
 21
168.2912552746821859
 31
0.0
  0
LINE
  5
B446
  8
0
 10
4771.4070737256852226
 20
168.3576774202732906
 30
0.0
 11
4771.4070737256852226
 21
168.8426737305026961
 31
0.0
  0
ARC
  5
B447
  8
0
 10
4771.4700737256853245
 20
168.3576774202732906
 30
0.0
 40
0.063
 50
179.9999999999934914
 51
269.0000000037767904
  0
ARC
  5
B448
  8
0
 10
4771.6650190928930897
 20
168.2592055241528044
 30
0.0
 40
0.0320546326051243
 50
62.7612523883538884
 51
88.9999996163826097
  0
LINE
  5
B449
  8
0
 10
4726.6190190232846362
 20
167.6478440073782963
 30
0.0
 11
4726.6190190232846362
 21
171.1485723244784083
 31
0.0
  0
ARC
  5
B44A
  8
0
 10
4726.6390190232850728
 20
170.3444576094263141
 30
0.0
 40
0.02
 50
90.0006488307123504
 51
180.0
  0
LINE
  5
B44B
  8
0
 10
4726.9790190232852183
 20
171.0599207561917865
 30
0.0
 11
4726.9790190232852183
 21
169.9879196360332969
 31
0.0
  0
LINE
  5
B44C
  8
0
 10
4726.9193161885377776
 20
171.1228344168808917
 30
0.0
 11
4726.6190190232846362
 21
171.1485723244784083
 31
0.0
  0
ARC
  5
B44D
  8
0
 10
4726.9160190232851164
 20
171.0599207561917865
 30
0.0
 40
0.063
 50
0.0000000000065138
 51
86.9999999920628682
  0
LINE
  5
B44E
  8
0
 10
4748.825787340275383
 20
168.9408128073783928
 30
0.0
 11
4748.825787340275383
 21
168.6948625922784117
 31
0.0
  0
LINE
  5
B44F
  8
0
 10
4751.5795463744852896
 20
169.8788128073782957
 30
0.0
 11
4751.5795463744852896
 21
170.1242484190784126
 31
0.0
  0
LINE
  5
B450
  8
0
 10
4751.3767783513849281
 20
170.0363501691641943
 30
0.0
 11
4751.3767783513849281
 21
170.0875378359652927
 31
0.0
  0
LINE
  5
B451
  8
0
 10
4751.3767783513849281
 20
170.0363501691641943
 30
0.0
 11
4749.0323142029847077
 21
170.0363501691641943
 31
0.0
  0
ARC
  5
B452
  8
0
 10
4751.8670253316613525
 20
170.0282698899335969
 30
0.0
 40
0.3147718953024337
 50
162.2469772125816121
 51
163.4923377567388911
  0
ARC
  5
B453
  8
0
 10
4751.4995678702789519
 20
170.3426909836011021
 30
0.0
 40
0.2343662366162039
 50
273.8649246933986205
 51
286.2697210337115052
  0
ARC
  5
B454
  8
0
 10
4751.3680401037117917
 20
172.1289657503436104
 30
0.0
 40
2.025473027138383
 50
270.6992889913275917
 51
274.1711578756134031
  0
ARC
  5
B455
  8
0
 10
4751.39280774479721
 20
170.0876140739119933
 30
0.0
 40
0.0160295746958844
 50
90.1700282445308261
 51
180.2725043633126916
  0
LINE
  5
B456
  8
0
 10
4751.3530463744846202
 20
170.1242484190784126
 30
0.0
 11
4751.3530463744846202
 21
170.0363501691641943
 31
0.0
  0
LINE
  5
B457
  8
0
 10
4751.5795463744852896
 20
170.740365913978394
 30
0.0
 11
4751.5795463744852896
 21
170.3469807025784064
 31
0.0
  0
LINE
  5
B458
  8
0
 10
4748.8760463744856679
 20
170.7563659139784136
 30
0.0
 11
4751.5635463744856679
 21
170.7563659139784136
 31
0.0
  0
LINE
  5
B459
  8
0
 10
4751.5652268832845948
 20
170.536445583698395
 30
0.0
 11
4751.5652268832845948
 21
170.6973651822783893
 31
0.0
  0
LINE
  5
B45A
  8
0
 10
4748.9823010709187656
 20
170.6853157881784
 30
0.0
 11
4751.4267916780554515
 21
170.6853157881784
 31
0.0
  0
ARC
  5
B45B
  8
0
 10
4751.5635463744856679
 20
170.740365913978394
 30
0.0
 40
0.016
 50
359.9999999999478746
 51
90.0
  0
ARC
  5
B45C
  8
0
 10
4751.4005005221888496
 20
171.9713568894997877
 30
0.0
 40
1.286309814611067
 50
271.1711619987075892
 51
277.0773222184569136
  0
ARC
  5
B45D
  8
0
 10
4751.5573713223338927
 20
170.7078457323090106
 30
0.0
 40
0.0130977771702119
 50
277.0773222184569136
 51
306.8529192172031799
  0
ARC
  5
B45E
  8
0
 10
4766.1050470306508942
 20
165.8794059736353859
 30
0.0
 40
15.31728111819743
 50
161.4971784539598048
 51
161.6667109811604917
  0
LINE
  5
B45F
  8
0
 10
4748.8295461798852557
 20
169.8788128073782957
 30
0.0
 11
4748.8295461798852557
 21
170.1242484190784126
 31
0.0
  0
LINE
  5
B460
  8
0
 10
4749.0323142029847077
 20
170.0363501691641943
 30
0.0
 11
4749.0323142029847077
 21
170.0875378359652927
 31
0.0
  0
ARC
  5
B461
  8
0
 10
4748.5420672227101022
 20
170.0282698899335969
 30
0.0
 40
0.3147718953024337
 50
16.5076622432610804
 51
17.7530227874183595
  0
ARC
  5
B462
  8
0
 10
4748.9095246840906839
 20
170.3426909836011021
 30
0.0
 40
0.2343662366162039
 50
253.7302789662884948
 51
266.1350753066013795
  0
ARC
  5
B463
  8
0
 10
4749.0410524506587535
 20
172.1289657503436104
 30
0.0
 40
2.025473027138383
 50
265.8288421243865969
 51
269.3007110086722946
  0
ARC
  5
B464
  8
0
 10
4749.0162848095742447
 20
170.0876140739119933
 30
0.0
 40
0.0160295746958844
 50
359.7274956366871947
 51
89.8299717554691739
  0
LINE
  5
B465
  8
0
 10
4749.0560461798859251
 20
170.1242484190784126
 30
0.0
 11
4749.0560461798859251
 21
170.0363501691641943
 31
0.0
  0
LINE
  5
B466
  8
0
 10
4748.8455463744849112
 20
170.510284560278393
 30
0.0
 11
4751.5635463744856679
 21
170.510284560278393
 31
0.0
  0
ARC
  5
B467
  8
0
 10
4751.5635463744856679
 20
170.5262845602784125
 30
0.0
 40
0.016
 50
270.0
 51
359.999999999949523
  0
LINE
  5
B468
  8
0
 10
4748.9813004753495989
 20
170.5406961694783945
 30
0.0
 11
4751.4277922736191613
 21
170.5406961694783945
 31
0.0
  0
ARC
  5
B469
  8
0
 10
4751.4126290144913582
 20
167.8264523208175092
 30
0.0
 40
2.7142862034834891
 50
86.7771172393991463
 51
89.6799175895492766
  0
LINE
  5
B46A
  8
0
 10
4751.5795463744852896
 20
170.5295908730493863
 30
0.0
 11
4751.5652268832845948
 21
170.536445583698395
 31
0.0
  0
LINE
  5
B46B
  8
0
 10
4749.0938277894856583
 20
170.0363501691641943
 30
0.0
 11
4749.0938277894856583
 21
169.8788128073782957
 31
0.0
  0
LINE
  5
B46C
  8
0
 10
4751.3152649594858303
 20
170.0363501691641943
 30
0.0
 11
4751.3152649594858303
 21
169.8788128073782957
 31
0.0
  0
LINE
  5
B46D
  8
0
 10
4768.7410579496845457
 20
170.3669807025783882
 30
0.0
 11
4768.7783802403400841
 21
170.3669807025783882
 31
0.0
  0
LINE
  5
B46E
  8
0
 10
4768.7410579496845457
 20
170.3669807025783882
 30
0.0
 11
4768.7410579496845457
 21
170.3469807025784064
 31
0.0
  0
LINE
  5
B46F
  8
0
 10
4768.7399354320778002
 20
170.3781993960128887
 30
0.0
 11
4768.7720781348680248
 21
170.6399807025784128
 31
0.0
  0
ARC
  5
B470
  8
0
 10
4768.7498608935939046
 20
170.3769807025784075
 30
0.0
 40
0.01
 50
172.9999999973152001
 51
270.0
  0
LINE
  5
B471
  8
0
 10
4769.0521130138822627
 20
170.8669807025783882
 30
0.0
 11
4769.2562449370279865
 21
170.8669807025783882
 31
0.0
  0
ARC
  5
B472
  8
0
 10
4769.0521130138822627
 20
170.8369807025783871
 30
0.0
 40
0.03
 50
89.9999999999478888
 51
160.5287793654919142
  0
ARC
  5
B473
  8
0
 10
4769.2562449370279865
 20
170.8369807025783871
 30
0.0
 40
0.0300000000000011
 50
19.4712206344973708
 51
90.0
  0
LINE
  5
B474
  8
0
 10
4770.9930737188260537
 20
168.5217055238784098
 30
0.0
 11
4752.541296374484773
 21
168.5217055238784098
 31
0.0
  0
LINE
  5
B475
  8
0
 10
4729.645042516034664
 20
168.4516657419783883
 30
0.0
 11
4729.645042516034664
 21
168.4721303088782918
 31
0.0
  0
LINE
  5
B476
  8
0
 10
4729.6461650336432285
 20
168.4404470485438878
 30
0.0
 11
4729.6140223308520945
 21
168.1786657419783921
 31
0.0
  0
ARC
  5
B477
  8
0
 10
4729.6362395721271241
 20
168.4416657419783974
 30
0.0
 40
0.01
 50
352.9999999973151716
 51
90.0
  0
LINE
  5
B478
  8
0
 10
4729.3333636797278814
 20
167.9516657419783883
 30
0.0
 11
4729.1292317565830672
 21
167.9516657419783883
 31
0.0
  0
ARC
  5
B479
  8
0
 10
4729.3333636797278814
 20
167.9816657419783894
 30
0.0
 40
0.03
 50
269.9999999999478746
 51
340.5287793654903226
  0
ARC
  5
B47A
  8
0
 10
4729.1292317565830672
 20
167.9816657419783894
 30
0.0
 40
0.0300000000000011
 50
199.471220634497314
 51
270.0
  0
LINE
  5
B47B
  8
0
 10
4729.6077204223620356
 20
168.4516657419783883
 30
0.0
 11
4729.645042516034664
 21
168.4516657419783883
 31
0.0
  0
ARC
  5
B47C
  8
0
 10
4726.9191315399802988
 20
168.3482080675811119
 30
0.0
 40
0.0534446273628419
 50
270.1979458589993897
 51
357.8151803169379264
  0
ARC
  5
B47D
  8
0
 10
4722.2756016090443154
 20
425.788355263026574
 30
0.0
 40
257.5354611516198133
 50
270.9889410108181096
 51
271.0331768089545221
  0
ARC
  5
B47E
  8
0
 10
4726.7200427847219544
 20
168.2636349521916941
 30
0.0
 40
0.0276243457798913
 50
89.0221251456319891
 51
118.7928676385188993
  0
ARC
  5
B47F
  8
0
 10
4726.6384598791601093
 20
168.3365336605573077
 30
0.0
 40
0.0214313655462538
 50
204.8894317425263978
 51
275.05863932204511
  0
LINE
  5
B480
  8
0
 10
4771.4667765604326632
 20
171.1228344168756053
 30
0.0
 11
4771.7670737256858047
 21
171.1485723244784083
 31
0.0
  0
LINE
  5
B481
  8
0
 10
4771.4070737256852226
 20
171.0599207561866137
 30
0.0
 11
4771.4070737256852226
 21
170.3943869025783897
 31
0.0
  0
ARC
  5
B482
  8
0
 10
4771.4700737256853245
 20
171.0599207561866137
 30
0.0
 40
0.063
 50
93.000000008928609
 51
179.999999999980389
  0
LINE
  5
B483
  8
0
 10
4771.7670737256858047
 20
171.1485723244784083
 30
0.0
 11
4771.7670737256858047
 21
167.6478440073782963
 31
0.0
  0
LINE
  5
B484
  8
0
 10
4728.0100502328350558
 20
168.1387797109784117
 30
0.0
 11
4729.8850502328359653
 21
168.1387797109784117
 31
0.0
  0
LINE
  5
B485
  8
0
 10
4729.8850502328359653
 20
168.0124809066784053
 30
0.0
 11
4728.0100502328350558
 21
168.0124809066784053
 31
0.0
  0
LINE
  5
B486
  8
0
 10
4747.0010463744847584
 20
170.6803313004784002
 30
0.0
 11
4748.8760463744856679
 21
170.6803313004784002
 31
0.0
  0
LINE
  5
B487
  8
0
 10
4748.8760463744856679
 20
170.8066301047782929
 30
0.0
 11
4747.0010463744847584
 21
170.8066301047782929
 31
0.0
  0
LINE
  5
B488
  8
0
 10
4749.510046374484773
 20
168.1387797109784117
 30
0.0
 11
4751.3850463744856825
 21
168.1387797109784117
 31
0.0
  0
LINE
  5
B489
  8
0
 10
4751.3850463744856825
 20
168.0124809066784053
 30
0.0
 11
4749.510046374484773
 21
168.0124809066784053
 31
0.0
  0
LINE
  5
B48A
  8
0
 10
4768.5010463744856679
 20
170.8066301047782929
 30
0.0
 11
4770.3760463744856679
 21
170.8066301047782929
 31
0.0
  0
LINE
  5
B48B
  8
0
 10
4768.5010463744856679
 20
170.6803313004784002
 30
0.0
 11
4770.3760463744856679
 21
170.6803313004784002
 31
0.0
  0
LINE
  5
B48C
  8
0
 10
4769.6572963744847584
 20
170.3469807025784064
 30
0.0
 11
4747.7197963744847584
 21
170.3469807025784064
 31
0.0
  0
LINE
  5
B48D
  8
0
 10
4750.666296374484773
 20
168.4721303088782918
 30
0.0
 11
4728.728796374484773
 21
168.4721303088782918
 31
0.0
  0
ARC
  5
B48E
  8
0
 10
4750.577946268685082
 20
172.4590864919952935
 30
0.0
 40
3.5924570880971909
 50
277.2514296101559808
 51
281.6639432624440929
  0
ARC
  5
B48F
  8
0
 10
4750.6107615417668057
 20
172.3066948740481052
 30
0.0
 40
3.4634317401713699
 50
278.9709347021055237
 51
283.6308166569311879
  0
LINE
  5
B490
  8
0
 10
4726.9725373158798902
 20
168.3461705950315945
 30
0.0
 11
4726.9725373158798902
 21
168.4245365088783899
 31
0.0
  0
LINE
  5
B491
  8
0
 10
4748.8295463744852896
 20
170.6399807025784128
 30
0.0
 11
4748.8295463744852896
 21
170.3469807025784064
 31
0.0
  0
ARC
  5
B492
  8
0
 10
4749.008592226782639
 20
171.9713568894997877
 30
0.0
 40
1.286309814611067
 50
264.0855446899208232
 51
268.8288380012924108
  0
ARC
  5
B493
  8
0
 10
4748.8455463744849112
 20
170.5262845602784125
 30
0.0
 40
0.016
 50
180.0000000000505054
 51
270.0
  0
ARC
  5
B494
  8
0
 10
4748.9964637344810399
 20
167.8264523208175092
 30
0.0
 40
2.7142862034834891
 50
90.3200824105028346
 51
93.2228827606008679
  0
LINE
  5
B495
  8
0
 10
4748.8295463744852896
 20
170.5295908730493863
 30
0.0
 11
4748.8438658656850748
 21
170.536445583698395
 31
0.0
  0
LINE
  5
B496
  8
0
 10
4748.6011041653646316
 20
170.6399807025784128
 30
0.0
 11
4748.5985471930653148
 21
170.3469807025784064
 31
0.0
  0
LINE
  5
B497
  8
0
 10
4745.8447963756852914
 20
170.3943869025783897
 30
0.0
 11
4747.7197963744847584
 21
170.3943869025783897
 31
0.0
  0
LINE
  5
B498
  8
0
 10
4747.7197963744847584
 20
170.3943869025783897
 30
0.0
 11
4747.7197963744847584
 21
170.0763869025784061
 31
0.0
  0
LINE
  5
B499
  8
0
 10
4747.7197963744847584
 20
170.0763869025784061
 30
0.0
 11
4745.8447963756852914
 21
170.0763869025784061
 31
0.0
  0
LINE
  5
B49A
  8
0
 10
4745.8447963756852914
 20
170.0763869025784061
 30
0.0
 11
4745.8447963756852914
 21
170.3943869025783897
 31
0.0
  0
LINE
  5
B49B
  8
0
 10
4747.6048195744624536
 20
170.3943869025783897
 30
0.0
 11
4747.6048195744624536
 21
170.0763869025784061
 31
0.0
  0
LINE
  5
B49C
  8
0
 10
4747.622360438578653
 20
170.3943869025783897
 30
0.0
 11
4747.622360438578653
 21
170.0763869025784061
 31
0.0
  0
LINE
  5
B49D
  8
0
 10
4750.666296374484773
 20
168.7425365088784019
 30
0.0
 11
4752.541296374484773
 21
168.7425365088784019
 31
0.0
  0
LINE
  5
B49E
  8
0
 10
4752.541296374484773
 20
168.7425365088784019
 30
0.0
 11
4752.541296374484773
 21
168.4245365088783899
 31
0.0
  0
LINE
  5
B49F
  8
0
 10
4752.541296374484773
 20
168.4245365088783899
 30
0.0
 11
4750.666296374484773
 21
168.4245365088783899
 31
0.0
  0
LINE
  5
B4A0
  8
0
 10
4750.666296374484773
 20
168.4245365088783899
 30
0.0
 11
4750.666296374484773
 21
168.7425365088784019
 31
0.0
  0
LINE
  5
B4A1
  8
0
 10
4750.7627272006857311
 20
168.7425365088784019
 30
0.0
 11
4750.7627272006857311
 21
168.4245365088783899
 31
0.0
  0
LINE
  5
B4A2
  8
0
 10
4750.7821434613852034
 20
168.7425365088784019
 30
0.0
 11
4750.7821434613852034
 21
168.4245365088783899
 31
0.0
  0
ARC
  5
B4A3
  8
0
 10
4750.2045463744861991
 20
172.3703822208792076
 30
0.0
 40
3.5924570881009168
 50
252.6802855507260119
 51
262.3055023219288842
  0
ARC
  5
B4A4
  8
0
 10
4750.0229910722373461
 20
171.6887645967227058
 30
0.0
 40
2.9147455092706198
 50
250.5230816949955965
 51
264.0997906359756939
  0
LINE
  5
B4A5
  8
0
 10
4769.6572963744847584
 20
170.3943869025783897
 30
0.0
 11
4771.5322963732851349
 21
170.3943869025783897
 31
0.0
  0
LINE
  5
B4A6
  8
0
 10
4771.5322963732851349
 20
170.3943869025783897
 30
0.0
 11
4771.5322963732851349
 21
170.0763869025784061
 31
0.0
  0
LINE
  5
B4A7
  8
0
 10
4771.5322963732851349
 20
170.0763869025784061
 30
0.0
 11
4769.6572963744847584
 21
170.0763869025784061
 31
0.0
  0
LINE
  5
B4A8
  8
0
 10
4769.6572963744847584
 20
170.0763869025784061
 30
0.0
 11
4769.6572963744847584
 21
170.3943869025783897
 31
0.0
  0
LINE
  5
B4A9
  8
0
 10
4769.7537272006857165
 20
170.0763869025784061
 30
0.0
 11
4769.7537272006857165
 21
170.3943869025783897
 31
0.0
  0
LINE
  5
B4AA
  8
0
 10
4769.7731434613842794
 20
170.0763869025784061
 30
0.0
 11
4769.7731434613842794
 21
170.3943869025783897
 31
0.0
  0
LINE
  5
B4AB
  8
0
 10
4726.853796374484773
 20
168.7425365088784019
 30
0.0
 11
4728.728796374484773
 21
168.7425365088784019
 31
0.0
  0
LINE
  5
B4AC
  8
0
 10
4728.728796374484773
 20
168.7425365088784019
 30
0.0
 11
4728.728796374484773
 21
168.4245365088783899
 31
0.0
  0
LINE
  5
B4AD
  8
0
 10
4728.728796374484773
 20
168.4245365088783899
 30
0.0
 11
4726.853796374484773
 21
168.4245365088783899
 31
0.0
  0
LINE
  5
B4AE
  8
0
 10
4726.853796374484773
 20
168.4245365088783899
 30
0.0
 11
4726.853796374484773
 21
168.7425365088784019
 31
0.0
  0
LINE
  5
B4AF
  8
0
 10
4728.6323655482856338
 20
168.7425365088784019
 30
0.0
 11
4728.6323655482856338
 21
168.4245365088783899
 31
0.0
  0
LINE
  5
B4B0
  8
0
 10
4728.612949287585252
 20
168.7425365088784019
 30
0.0
 11
4728.612949287585252
 21
168.4245365088783899
 31
0.0
  0
ENDSEC
  0
EOF
