  0
SECTION
  2
HEADER
  9
$ACADVER
  1
AC1009
  9
$INSBASE
 10
4646.9411125024362264
 20
183.2071167861558081
 30
0.0
  9
$EXTMIN
 10
4618.3347505734909646
 20
181.4543583605924937
 30
-0.0015258207003583
  9
$EXTMAX
 10
4675.4058284473740059
 20
184.9681259834895002
 30
0.0000000349246037
  9
$LIMMIN
 10
0.0
 20
0.0
  9
$LIMMAX
 10
11.6929133858000007
 20
8.2677165353999982
  9
$ORTHOMODE
 70
     0
  9
$REGENMODE
 70
     1
  9
$FILLMODE
 70
     1
  9
$QTEXTMODE
 70
     0
  9
$MIRRTEXT
 70
     0
  9
$DRAGMODE
 70
     2
  9
$LTSCALE
 40
0.6431102362
  9
$OSMODE
 70
  4095
  9
$ATTMODE
 70
     1
  9
$TEXTSIZE
 40
0.2
  9
$TRACEWID
 40
0.05
  9
$TEXTSTYLE
  7
STANDARD
  9
$CLAYER
  8
0
  9
$CELTYPE
  6
BYLAYER
  9
$CECOLOR
 62
   256
  9
$DIMSCALE
 40
1.0
  9
$DIMASZ
 40
0.1875
  9
$DIMEXO
 40
0.0625
  9
$DIMDLI
 40
0.4443307087
  9
$DIMRND
 40
0.0
  9
$DIMDLE
 40
0.0
  9
$DIMEXE
 40
0.125
  9
$DIMTP
 40
0.01
  9
$DIMTM
 40
0.01
  9
$DIMTXT
 40
2.0
  9
$DIMCEN
 40
0.1052362205
  9
$DIMTSZ
 40
0.0
  9
$DIMTOL
 70
     1
  9
$DIMLIM
 70
     0
  9
$DIMTIH
 70
     1
  9
$DIMTOH
 70
     1
  9
$DIMSE1
 70
     0
  9
$DIMSE2
 70
     0
  9
$DIMTAD
 70
     0
  9
$DIMZIN
 70
     0
  9
$DIMBLK
  1

  9
$DIMASO
 70
     1
  9
$DIMSHO
 70
     1
  9
$DIMPOST
  1
\X
  9
$DIMAPOST
  1

  9
$DIMALT
 70
     1
  9
$DIMALTD
 70
     2
  9
$DIMALTF
 40
25.3999999999999986
  9
$DIMLFAC
 40
1.0
  9
$DIMTOFL
 70
     0
  9
$DIMTVP
 40
0.0
  9
$DIMTIX
 70
     0
  9
$DIMSOXD
 70
     0
  9
$DIMSAH
 70
     0
  9
$DIMBLK1
  1

  9
$DIMBLK2
  1

  9
$DIMSTYLE
  2
STANDARD
  9
$DIMCLRD
 70
     0
  9
$DIMCLRE
 70
     0
  9
$DIMCLRT
 70
     0
  9
$DIMTFAC
 40
1.0
  9
$DIMGAP
 40
0.09
  9
$LUNITS
 70
     2
  9
$LUPREC
 70
     4
  9
$SKETCHINC
 40
0.1
  9
$FILLETRAD
 40
0.0
  9
$AUNITS
 70
     0
  9
$AUPREC
 70
     0
  9
$MENU
  1
.
  9
$ELEVATION
 40
0.0
  9
$PELEVATION
 40
0.0
  9
$THICKNESS
 40
0.0
  9
$LIMCHECK
 70
     0
  9
$BLIPMODE
 70
     0
  9
$CHAMFERA
 40
0.0
  9
$CHAMFERB
 40
0.0
  9
$SKPOLY
 70
     0
  9
$TDCREATE
 40
2458060.468368056230247
  9
$TDUPDATE
 40
2459376.6597222220152617
  9
$TDINDWG
 40
0.4103658565
  9
$TDUSRTIMER
 40
0.4103658565
  9
$USRTIMER
 70
     1
  9
$ANGBASE
 50
0.0
  9
$ANGDIR
 70
     0
  9
$PDMODE
 70
     0
  9
$PDSIZE
 40
0.3125
  9
$PLINEWID
 40
0.0
  9
$COORDS
 70
     1
  9
$SPLFRAME
 70
     0
  9
$SPLINETYPE
 70
     6
  9
$SPLINESEGS
 70
     8
  9
$ATTDIA
 70
     1
  9
$ATTREQ
 70
     1
  9
$HANDLING
 70
     1
  9
$HANDSEED
  5
B120
  9
$SURFTAB1
 70
     6
  9
$SURFTAB2
 70
     6
  9
$SURFTYPE
 70
     6
  9
$SURFU
 70
     6
  9
$SURFV
 70
     6
  9
$UCSNAME
  2

  9
$UCSORG
 10
0.0
 20
0.0
 30
0.0
  9
$UCSXDIR
 10
1.0
 20
0.0
 30
0.0
  9
$UCSYDIR
 10
0.0
 20
1.0
 30
0.0
  9
$PUCSNAME
  2

  9
$PUCSORG
 10
0.0
 20
0.0
 30
0.0
  9
$PUCSXDIR
 10
1.0
 20
0.0
 30
0.0
  9
$PUCSYDIR
 10
0.0
 20
1.0
 30
0.0
  9
$USERI1
 70
     0
  9
$USERI2
 70
     0
  9
$USERI3
 70
     0
  9
$USERI4
 70
     0
  9
$USERI5
 70
     0
  9
$USERR1
 40
0.0
  9
$USERR2
 40
0.0
  9
$USERR3
 40
0.0
  9
$USERR4
 40
0.0
  9
$USERR5
 40
0.0
  9
$WORLDVIEW
 70
     1
  9
$SHADEDGE
 70
     3
  9
$SHADEDIF
 70
    70
  9
$TILEMODE
 70
     1
  9
$MAXACTVP
 70
    64
  9
$PLIMCHECK
 70
     0
  9
$PEXTMIN
 10
1.0000000000000000E+20
 20
1.0000000000000000E+20
 30
1.0000000000000000E+20
  9
$PEXTMAX
 10
-1.0000000000000000E+20
 20
-1.0000000000000000E+20
 30
-1.0000000000000000E+20
  9
$PLIMMIN
 10
0.0
 20
0.0
  9
$PLIMMAX
 10
12.0
 20
9.0
  9
$UNITMODE
 70
     0
  9
$VISRETAIN
 70
     1
  9
$PLINEGEN
 70
     0
  9
$PSLTSCALE
 70
     1
  0
ENDSEC
  0
SECTION
  2
TABLES
  0
TABLE
  2
VPORT
 70
     1
  0
VPORT
  2
*ACTIVE
 70
     0
 10
0.0
 20
0.0
 11
1.0
 21
1.0
 12
843.3262221276199853
 22
57.2159799752910914
 13
0.0
 23
0.0
 14
1.0
 24
1.0
 15
0.0
 25
0.0
 16
0.0
 26
0.0
 36
17.1152628219792007
 17
3803.5440673828129547
 27
125.9952621967499056
 37
0.0
 40
22.3853364133104016
 41
2.5612648221343872
 42
50.0
 43
0.0
 44
0.0
 50
0.0
 51
0.0
 71
     0
 72
   100
 73
     1
 74
     1
 75
     0
 76
     0
 77
     0
 78
     0
  0
ENDTAB
  0
TABLE
  2
LTYPE
 70
     2
  0
LTYPE
  2
CONTINUOUS
 70
     0
  3
Solid line
 72
    65
 73
     0
 40
0.0
  0
LTYPE
  2
PHANTOM2
 70
     0
  3
___ _ _ ___ _ _ ___ _ _ ___ _ _
 72
    65
 73
     6
 40
1.25
 49
0.625
 49
-0.125
 49
0.125
 49
-0.125
 49
0.125
 49
-0.125
  0
ENDTAB
  0
TABLE
  2
LAYER
 70
     2
  0
LAYER
  2
0
 70
     0
 62
   255
  6
CONTINUOUS
  0
LAYER
  2
DEFPOINTS
 70
     0
 62
     7
  6
CONTINUOUS
  0
ENDTAB
  0
TABLE
  2
STYLE
 70
     1
  0
STYLE
  2
STANDARD
 70
     0
 40
0.0
 41
0.8
 50
0.0
 71
     0
 42
0.2
  3
txt
  4

  0
ENDTAB
  0
TABLE
  2
VIEW
 70
     0
  0
ENDTAB
  0
TABLE
  2
UCS
 70
     0
  0
ENDTAB
  0
TABLE
  2
APPID
 70
     9
  0
APPID
  2
ACAD
 70
     0
  0
APPID
  2
ACAD_MLEADERVER
 70
     0
  0
APPID
  2
ACAD_EXEMPT_FROM_CAD_STANDARDS
 70
     0
  0
APPID
  2
ACAD_NAV_VCDISPLAY
 70
     0
  0
APPID
  2
ACAECLAYERSTANDARD
 70
     0
  0
APPID
  2
ACCMTRANSPARENCY
 70
     0
  0
APPID
  2
ACAD_DSTYLE_DIMJAG
 70
     0
  0
APPID
  2
ACAD_DSTYLE_DIMTALN
 70
     0
  0
APPID
  2
ACDBATTR
 70
     0
  0
ENDTAB
  0
TABLE
  2
DIMSTYLE
 70
     1
  0
DIMSTYLE
  2
STANDARD
 70
     0
  3

  4

  5

  6

  7

 40
1.0
 41
0.1875
 42
0.0625
 43
0.38
 44
0.125
 45
0.0
 46
0.0
 47
0.01
 48
0.01
140
0.15625
141
0.09
142
0.0
143
25.3999999999999986
144
1.0
145
0.0
146
1.0
147
0.09
 71
     1
 72
     0
 73
     1
 74
     1
 75
     0
 76
     0
 77
     0
 78
     4
170
     0
171
     2
172
     0
173
     0
174
     0
175
     0
176
     0
177
     0
178
     0
  0
ENDTAB
  0
ENDSEC
  0
SECTION
  2
BLOCKS
  0
BLOCK
  8
0
  2
$MODEL_SPACE
 70
     0
 10
0.0
 20
0.0
 30
0.0
  3
$MODEL_SPACE
  1

  0
ENDBLK
  5
21
  8
0
  0
BLOCK
 67
     1
  8
0
  2
$PAPER_SPACE
 70
     0
 10
0.0
 20
0.0
 30
0.0
  3
$PAPER_SPACE
  1

  0
ENDBLK
  5
1D
 67
     1
  8
0
  0
ENDSEC
  0
SECTION
  2
ENTITIES
  0
ATTDEF
  5
3930
  8
DEFPOINTS
 10
4646.9367787605688136
 20
183.2010095608592906
 30
0.0
 40
0.001
  1
K-706000-L
  3

  2
MODELNUMBER
 70
     0
1001
ACDBATTR
1070
     0
1070
     1
  0
ATTDEF
  5
3931
  8
DEFPOINTS
 10
4646.9367787605688136
 20
183.199342894192597
 30
0.0
 40
0.001
  1
LEVITY
  3

  2
TRADENAME
 70
     0
1001
ACDBATTR
1070
     0
1070
     1
  0
ATTDEF
  5
3932
  8
DEFPOINTS
 10
4646.9367787605688136
 20
183.1976762275259034
 30
0.0
 40
0.001
  1
BATH DOOR
  3

  2
PRODUCT
 70
     0
1001
ACDBATTR
1070
     0
1070
     1
  0
LINE
  5
AE39
  8
0
 10
4618.9084341993648195
 20
182.1339465847026133
 30
0.0
 11
4618.6404157231618228
 21
182.1290943909035889
 31
0.0
  0
LINE
  5
AE3A
  8
0
 10
4618.6390849247509323
 20
184.1783662296523971
 30
0.0
 11
4618.9084341977377335
 21
184.1783692798261995
 31
0.0
  0
ARC
  5
AE3B
  8
0
 10
4618.8965488617395749
 20
184.1487795413748074
 30
0.0
 40
0.0318875184582202
 50
8.5118089796453376
 51
68.1161089365293009
  0
LINE
  5
AE3C
  8
0
 10
4618.9280851512357913
 20
184.153499316605803
 30
0.0
 11
4618.928086904103111
 21
183.8223753728105123
 31
0.0
  0
ARC
  5
AE3D
  8
0
 10
4618.9480870430716095
 20
183.8223754786849042
 30
0.0
 40
0.0200001389693827
 50
180.0003033059016957
 51
268.9945863182780954
  0
LINE
  5
AE3E
  8
0
 10
4618.9477361030631073
 20
183.802378418903487
 30
0.0
 11
4619.5784331564300373
 21
183.7913099502299872
 31
0.0
  0
ARC
  5
AE3F
  8
0
 10
4619.5780821647340417
 20
183.7713099452786025
 30
0.0
 40
0.0200030845928935
 50
0.1794331058456603
 51
88.9945863182780528
  0
LINE
  5
AE40
  8
0
 10
4619.5980851512367735
 20
183.7713725888058036
 30
0.0
 11
4619.5980851512367735
 21
182.6860702664058067
 31
0.0
  0
ARC
  5
AE41
  8
0
 10
4619.578085151065352
 20
182.6860702664758094
 30
0.0
 40
0.0200000001710426
 50
271.0000006856942036
 51
359.9999997995581111
  0
LINE
  5
AE42
  8
0
 10
4619.5784341994367423
 20
182.666073312405814
 30
0.0
 11
4618.9477361031367764
 21
182.6550644362058051
 31
0.0
  0
ARC
  5
AE43
  8
0
 10
4618.9480851512298614
 20
182.635067482308898
 30
0.0
 40
0.0199999999931954
 50
90.999999898501656
 51
179.9999997222656134
  0
LINE
  5
AE44
  8
0
 10
4618.9280851512357913
 20
182.6350674824059013
 30
0.0
 11
4618.928085150854713
 21
182.5565389291058125
 31
0.0
  0
LINE
  5
AE45
  8
0
 10
4618.9280851493149385
 20
182.2385389291058004
 30
0.0
 11
4618.9280851489047564
 21
182.1539435386058017
 31
0.0
  0
ARC
  5
AE46
  8
0
 10
4618.9080851487642576
 20
182.153943538702805
 30
0.0
 40
0.0200000001400795
 50
271.0000072803073863
 51
359.9999997222656134
  0
LINE
  5
AE47
  8
0
 10
4618.6190851512355948
 20
182.1017526276056913
 30
0.0
 11
4619.2371241212358655
 21
182.1017526276056913
 31
0.0
  0
ARC
  5
AE48
  8
0
 10
4619.2488753578818432
 20
181.8900742790721949
 30
0.0
 40
0.2120042801470484
 50
60.5977299950518216
 51
93.1774901604073449
  0
ARC
  5
AE49
  8
0
 10
4619.2969771247880999
 20
181.9965115925984094
 30
0.0
 40
0.0962197706821953
 50
357.2384044614909726
 51
54.423791058551231
  0
LINE
  5
AE4A
  8
0
 10
4619.3930851512359368
 20
182.2385389291058004
 30
0.0
 11
4619.3930851512359368
 21
181.571629557605803
 31
0.0
  0
LINE
  5
AE4B
  8
0
 10
4618.6190851512355948
 20
181.4617526276057902
 30
0.0
 11
4619.2653047581279679
 21
181.4617526276057902
 31
0.0
  0
ARC
  5
AE4C
  8
0
 10
4619.2452724185986881
 20
181.6826924114126882
 30
0.0
 40
0.2218460788377335
 50
275.1807723817655074
 51
299.0386433905601962
  0
ARC
  5
AE4D
  8
0
 10
4619.2969771247880999
 20
181.5669936626132142
 30
0.0
 40
0.0962197706821953
 50
305.5762089414487832
 51
2.7615955385155209
  0
LINE
  5
AE4E
  8
0
 10
4620.0504669586862292
 20
181.9930389291058077
 30
0.0
 11
4620.0101163607869239
 21
181.9526883312057919
 31
0.0
  0
LINE
  5
AE4F
  8
0
 10
4620.0101163607869239
 20
181.9526883312057919
 30
0.0
 11
4620.0101163607869239
 21
181.8263895269058992
 31
0.0
  0
LINE
  5
AE50
  8
0
 10
4620.0101163607869239
 20
181.8263895269058992
 30
0.0
 11
4620.0504669586862292
 21
181.7860389291058141
 31
0.0
  0
LINE
  5
AE51
  8
0
 10
4620.0504669586862292
 20
181.7860389291058141
 30
0.0
 11
4621.8447580460860991
 21
181.7860389291058141
 31
0.0
  0
LINE
  5
AE52
  8
0
 10
4621.8447580460860991
 20
181.7860389291058141
 30
0.0
 11
4621.8851163607869239
 21
181.8263895269058992
 31
0.0
  0
LINE
  5
AE53
  8
0
 10
4621.8851163607869239
 20
181.8263895269058992
 30
0.0
 11
4621.8851163607869239
 21
181.9526883312057919
 31
0.0
  0
LINE
  5
AE54
  8
0
 10
4621.8851163607869239
 20
181.9526883312057919
 30
0.0
 11
4621.8447503292863985
 21
181.9930389291058077
 31
0.0
  0
LINE
  5
AE55
  8
0
 10
4620.2850593885868875
 20
181.9930389291058077
 30
0.0
 11
4620.2872089176289592
 21
182.2385389291058004
 31
0.0
  0
LINE
  5
AE56
  8
0
 10
4621.6076079072863649
 20
182.2860389291058141
 30
0.0
 11
4621.6101656235150585
 21
181.9930381008549034
 31
0.0
  0
LINE
  5
AE57
  8
0
 10
4620.2134989305859563
 20
182.5565389291058125
 30
0.0
 11
4620.2148364359372863
 21
182.7092712125057972
 31
0.0
  0
LINE
  5
AE58
  8
0
 10
4620.2148364359372863
 20
182.7092712125057972
 30
0.0
 11
4621.6413397777369028
 21
182.7092712125057972
 31
0.0
  0
LINE
  5
AE59
  8
0
 10
4621.6413397777369028
 20
182.7092712125057972
 30
0.0
 11
4621.6419378187420079
 21
182.5092712125058085
 31
0.0
  0
LINE
  5
AE5A
  8
0
 10
4620.0504669586862292
 20
181.9930389291058077
 30
0.0
 11
4621.8447503292863985
 21
181.9930389291058077
 31
0.0
  0
LINE
  5
AE5B
  8
0
 10
4620.3802627705363193
 20
182.7092712125057972
 30
0.0
 11
4620.3824608030363379
 21
182.8351964094057962
 31
0.0
  0
LINE
  5
AE5C
  8
0
 10
4621.6734071389373639
 20
182.8351964094057962
 30
0.0
 11
4620.1827567646851094
 21
182.8351964093745892
 31
0.0
  0
ARC
  5
AE5D
  8
0
 10
4620.4108480351524122
 20
183.0226925173246002
 30
0.0
 40
0.2952633031040823
 50
140.5770778647292047
 51
219.4209667596418001
  0
LINE
  5
AE5E
  8
0
 10
4620.182763163636082
 20
183.2101964094057962
 30
0.0
 11
4621.6734135370197691
 21
183.2101455368413951
 31
0.0
  0
LINE
  5
AE5F
  8
0
 10
4620.7180851512366644
 20
183.2101964094057962
 30
0.0
 11
4620.7180851512366644
 21
183.225721427605805
 31
0.0
  0
LINE
  5
AE60
  8
0
 10
4620.2030745125193789
 20
183.225721427605805
 30
0.0
 11
4620.2053613527368725
 21
183.4877673637058138
 31
0.0
  0
ARC
  5
AE61
  8
0
 10
4620.220360781528143
 20
183.4876364656749956
 30
0.0
 40
0.0149999999452736
 50
134.7499998086541098
 51
179.5000000047701008
  0
LINE
  5
AE62
  8
0
 10
4620.2098005607349478
 20
183.4982892463058022
 30
0.0
 11
4620.2413789772435848
 21
183.5295932843953892
 31
0.0
  0
ARC
  5
AE63
  8
0
 10
4620.2519391985133552
 20
183.5189405032845968
 30
0.0
 40
0.0150000006211867
 50
90.0000018203658954
 51
134.7499998086564119
  0
LINE
  5
AE64
  8
0
 10
4620.25193919803678
 20
183.5339405039057965
 30
0.0
 11
4621.6042281272357286
 21
183.533940546869303
 31
0.0
  0
ARC
  5
AE65
  8
0
 10
4621.6042281277132133
 20
183.5189334201797067
 30
0.0
 40
0.0150071266895609
 50
45.2609687425608129
 51
90.0000018203658954
  0
LINE
  5
AE66
  8
0
 10
4621.4759075320362172
 20
182.7092712125057972
 30
0.0
 11
4621.4737094995361986
 21
182.8351964094057962
 31
0.0
  0
ARC
  5
AE67
  8
0
 10
4621.4453222674210338
 20
183.0226925173246002
 30
0.0
 40
0.2952633031040823
 50
320.5790332403582852
 51
39.4229221352707526
  0
LINE
  5
AE68
  8
0
 10
4621.653095790054067
 20
183.225721427605805
 30
0.0
 11
4621.650808949835664
 21
183.4877673637058138
 31
0.0
  0
ARC
  5
AE69
  8
0
 10
4621.635809521045303
 20
183.4876364656749956
 30
0.0
 40
0.0149999999452736
 50
0.4999999952298451
 51
45.2500001913458973
  0
LINE
  5
AE6A
  8
0
 10
4621.6463697418375887
 20
183.4982892463058022
 30
0.0
 11
4621.6147913253280421
 21
183.5295932843953892
 31
0.0
  0
LINE
  5
AE6B
  8
0
 10
4621.1380851512358277
 20
183.2101964094057962
 30
0.0
 11
4621.1380851512358277
 21
183.225721427605805
 31
0.0
  0
LINE
  5
AE6C
  8
0
 10
4619.5980851512367735
 20
183.225721427605805
 30
0.0
 11
4674.2841398536356792
 21
183.225721427605805
 31
0.0
  0
LINE
  5
AE6D
  8
0
 10
4619.5980851512367735
 20
183.6927214276057896
 30
0.0
 11
4674.2841398536356792
 21
183.6927214276057896
 31
0.0
  0
LINE
  5
AE6E
  8
0
 10
4619.5980851512367735
 20
182.8047214276058128
 30
0.0
 11
4620.381928860248081
 21
182.8047214276058128
 31
0.0
  0
LINE
  5
AE6F
  8
0
 10
4621.4742414423253649
 20
182.8047214276058128
 30
0.0
 11
4647.3914523530465885
 21
182.8047214276058128
 31
0.0
  0
LINE
  5
AE70
  8
0
 10
4648.4837649351247819
 20
182.8047214276058128
 30
0.0
 11
4674.2841398536356792
 21
182.8047214276058128
 31
0.0
  0
LINE
  5
AE71
  8
0
 10
4619.5980851512367735
 20
183.0256786650058132
 30
0.0
 11
4620.1155998326476038
 21
183.0256786650058132
 31
0.0
  0
LINE
  5
AE72
  8
0
 10
4621.7405704699249327
 20
183.0256786650058132
 30
0.0
 11
4647.1251233254470208
 21
183.0256786650058132
 31
0.0
  0
LINE
  5
AE73
  8
0
 10
4648.7500939627252592
 20
183.0256786650058132
 30
0.0
 11
4674.2841398536356792
 21
183.0256786650058132
 31
0.0
  0
LINE
  5
AE74
  8
0
 10
4619.5980851512367735
 20
182.7547214276058014
 30
0.0
 11
4620.3810561069967662
 21
182.7547214276058014
 31
0.0
  0
LINE
  5
AE75
  8
0
 10
4621.4751141955757703
 20
182.7547214276058014
 30
0.0
 11
4647.3905795997961832
 21
182.7547214276058014
 31
0.0
  0
LINE
  5
AE76
  8
0
 10
4648.4846376883770063
 20
182.7547214276058014
 30
0.0
 11
4674.2841398536356792
 21
182.7547214276058014
 31
0.0
  0
LINE
  5
AE77
  8
0
 10
4620.7288625024366411
 20
182.5087712125057919
 30
0.0
 11
4648.1663625024357316
 21
182.5087712125057919
 31
0.0
  0
LINE
  5
AE78
  8
0
 10
4619.3930851512359368
 20
181.9768464276058069
 30
0.0
 11
4620.0342744624222178
 21
181.9768464328421942
 31
0.0
  0
LINE
  5
AE79
  8
0
 10
4619.3930851512359368
 20
181.5768464276058012
 30
0.0
 11
4674.4891398536356064
 21
181.5768464349326052
 31
0.0
  0
LINE
  5
AE7A
  8
0
 10
4621.8609490242160973
 20
181.9768464276058069
 30
0.0
 11
4647.0342705988368834
 21
181.9768464276058069
 31
0.0
  0
LINE
  5
AE7B
  8
0
 10
4648.860945165866724
 20
181.9768464276058069
 30
0.0
 11
4674.4891398536356064
 21
181.9768464276058069
 31
0.0
  0
LINE
  5
AE7C
  8
0
 10
4647.0504631003368559
 20
181.9930389291058077
 30
0.0
 11
4647.0101125024357316
 21
181.9526883312057919
 31
0.0
  0
LINE
  5
AE7D
  8
0
 10
4647.0101125024357316
 20
181.9526883312057919
 30
0.0
 11
4647.0101125024357316
 21
181.8263895269058992
 31
0.0
  0
LINE
  5
AE7E
  8
0
 10
4647.0101125024357316
 20
181.8263895269058992
 30
0.0
 11
4647.0504631003368559
 21
181.7860389291058141
 31
0.0
  0
LINE
  5
AE7F
  8
0
 10
4647.0504631003368559
 20
181.7860389291058141
 30
0.0
 11
4648.8447541877367257
 21
181.7860389291058141
 31
0.0
  0
LINE
  5
AE80
  8
0
 10
4648.8447541877367257
 20
181.7860389291058141
 30
0.0
 11
4648.8851125024357316
 21
181.8263895269058992
 31
0.0
  0
LINE
  5
AE81
  8
0
 10
4648.8851125024357316
 20
181.8263895269058992
 30
0.0
 11
4648.8851125024357316
 21
181.9526883312057919
 31
0.0
  0
LINE
  5
AE82
  8
0
 10
4648.8851125024357316
 20
181.9526883312057919
 30
0.0
 11
4648.8447464709370252
 21
181.9930389291058077
 31
0.0
  0
LINE
  5
AE83
  8
0
 10
4647.2850555302356952
 20
181.9930389291058077
 30
0.0
 11
4647.2876209559362906
 21
182.2860389291058141
 31
0.0
  0
LINE
  5
AE84
  8
0
 10
4648.6080186945919195
 20
182.2385389291058004
 30
0.0
 11
4648.6101617651647757
 21
181.9930381008549034
 31
0.0
  0
LINE
  5
AE85
  8
0
 10
4647.2226526591366564
 20
182.5143148452058028
 30
0.0
 11
4647.2243599287367033
 21
182.7092712125057972
 31
0.0
  0
LINE
  5
AE86
  8
0
 10
4647.2243599287367033
 20
182.7092712125057972
 30
0.0
 11
4648.6508632705363198
 21
182.7092712125057972
 31
0.0
  0
LINE
  5
AE87
  8
0
 10
4648.6508632705363198
 20
182.7092712125057972
 30
0.0
 11
4648.6513199713781432
 21
182.5565389291058125
 31
0.0
  0
LINE
  5
AE88
  8
0
 10
4647.0504631003368559
 20
181.9930389291058077
 30
0.0
 11
4648.8447464709370252
 21
181.9930389291058077
 31
0.0
  0
LINE
  5
AE89
  8
0
 10
4647.3897862633357363
 20
182.7092712125057972
 30
0.0
 11
4647.3919842958357549
 21
182.8351964094057962
 31
0.0
  0
LINE
  5
AE8A
  8
0
 10
4648.6829306317358714
 20
182.8351964094057962
 30
0.0
 11
4647.1922802574836169
 21
182.8351964093745892
 31
0.0
  0
ARC
  5
AE8B
  8
0
 10
4647.4203715279518292
 20
183.0226925173246002
 30
0.0
 40
0.2952633031040823
 50
140.5770778647292047
 51
219.4209667596418001
  0
LINE
  5
AE8C
  8
0
 10
4647.1922866564364085
 20
183.2101964094057962
 30
0.0
 11
4648.6829370298200956
 21
183.2101455368413951
 31
0.0
  0
LINE
  5
AE8D
  8
0
 10
4647.7276086440369909
 20
183.2101964094057962
 30
0.0
 11
4647.7276086440369909
 21
183.225721427605805
 31
0.0
  0
LINE
  5
AE8E
  8
0
 10
4647.2125980053178864
 20
183.225721427605805
 30
0.0
 11
4647.2148848455362895
 21
183.4877673637058138
 31
0.0
  0
ARC
  5
AE8F
  8
0
 10
4647.2298842743266505
 20
183.4876364656749956
 30
0.0
 40
0.0149999999452736
 50
134.7499998086541098
 51
179.5000000047701008
  0
LINE
  5
AE90
  8
0
 10
4647.2193240535352743
 20
183.4982892463058022
 30
0.0
 11
4647.2509024700448208
 21
183.5295932843953892
 31
0.0
  0
ARC
  5
AE91
  8
0
 10
4647.2614626913127722
 20
183.5189405032845968
 30
0.0
 40
0.0150000006211867
 50
90.0000018203658954
 51
134.7499998086564119
  0
LINE
  5
AE92
  8
0
 10
4647.261462690836197
 20
183.5339405039057965
 30
0.0
 11
4648.6137516200369646
 21
183.533940546869303
 31
0.0
  0
ARC
  5
AE93
  8
0
 10
4648.6137516205126303
 20
183.5189334201797067
 30
0.0
 40
0.0150071266895609
 50
45.2609687425608129
 51
90.0000018203658954
  0
LINE
  5
AE94
  8
0
 10
4648.4854310248374532
 20
182.7092712125057972
 30
0.0
 11
4648.4832329923356156
 21
182.8351964094057962
 31
0.0
  0
ARC
  5
AE95
  8
0
 10
4648.4548457602213603
 20
183.0226925173246002
 30
0.0
 40
0.2952633031040823
 50
320.5790332403582852
 51
39.4229221352707526
  0
LINE
  5
AE96
  8
0
 10
4648.662619282855303
 20
183.225721427605805
 30
0.0
 11
4648.6603324426368999
 21
183.4877673637058138
 31
0.0
  0
ARC
  5
AE97
  8
0
 10
4648.64533301384472
 20
183.4876364656749956
 30
0.0
 40
0.0149999999452736
 50
0.4999999952298451
 51
45.2500001913458973
  0
LINE
  5
AE98
  8
0
 10
4648.6558932346379152
 20
183.4982892463058022
 30
0.0
 11
4648.6243148181283686
 21
183.5295932843953892
 31
0.0
  0
LINE
  5
AE99
  8
0
 10
4648.1476086440361541
 20
183.2101964094057962
 30
0.0
 11
4648.1476086440361541
 21
183.225721427605805
 31
0.0
  0
LINE
  5
AE9A
  8
0
 10
4674.9737907986482242
 20
182.1349172996777099
 30
0.0
 11
4675.240886437334666
 21
182.1302551278843964
 31
0.0
  0
ARC
  5
AE9B
  8
0
 10
4675.2425904229767184
 20
182.1507457330293107
 30
0.0
 40
0.0205613342531123
 50
265.2462575560924165
 51
358.0502811952407001
  0
ARC
  5
AE9C
  8
0
 10
4675.2391629069561532
 20
184.1584133658894018
 30
0.0
 40
0.0239947793755022
 50
2.2090962827263052
 51
56.2648779547176972
  0
LINE
  5
AE9D
  8
0
 10
4675.2524885110324249
 20
184.1783677567169946
 30
0.0
 11
4675.0283625012361881
 21
184.1783677567169946
 31
0.0
  0
LINE
  5
AE9E
  8
0
 10
4674.9541383649302588
 20
183.8903893228057882
 30
0.0
 11
4674.9541380939108421
 21
183.8233460877854952
 31
0.0
  0
ARC
  5
AE9F
  8
0
 10
4674.9341379549414341
 20
183.8233461936600008
 30
0.0
 40
0.0200001389693827
 50
271.0054136817220183
 51
359.9996966940981906
  0
LINE
  5
AEA0
  8
0
 10
4674.9344888949499364
 20
183.8033491338784984
 30
0.0
 11
4674.3037918415830063
 21
183.7922806652049985
 31
0.0
  0
ARC
  5
AEA1
  8
0
 10
4674.3041428332799114
 20
183.7722806602535002
 30
0.0
 40
0.0200030845928935
 50
91.0054136817219614
 51
179.8205668941542967
  0
LINE
  5
AEA2
  8
0
 10
4674.2841398467771796
 20
183.7723433037809002
 30
0.0
 11
4674.2841398467771796
 21
182.6870409813809033
 31
0.0
  0
ARC
  5
AEA3
  8
0
 10
4674.3041398469476917
 20
182.6870409814507923
 30
0.0
 40
0.0200000001710426
 50
180.0000002004418889
 51
268.99999931430591
  0
LINE
  5
AEA4
  8
0
 10
4674.3037907985772108
 20
182.6670440273807969
 30
0.0
 11
4674.9344888948762673
 21
182.6560351511809017
 31
0.0
  0
ARC
  5
AEA5
  8
0
 10
4674.9341398467840918
 20
182.6360381972839093
 30
0.0
 40
0.0199999999931954
 50
0.0000002777343806
 51
89.0000001014983297
  0
LINE
  5
AEA6
  8
0
 10
4674.9541398467781619
 20
182.6360381973807989
 30
0.0
 11
4674.9541398491082873
 21
182.1549142535808983
 31
0.0
  0
ARC
  5
AEA7
  8
0
 10
4674.9741398492496955
 20
182.1549142536777879
 30
0.0
 40
0.0200000001400795
 50
180.0000002777343866
 51
268.9999927196926137
  0
LINE
  5
AEA8
  8
0
 10
4675.2631398536368579
 20
182.1016141441058096
 30
0.0
 11
4674.6451008767771782
 21
182.1016141441058096
 31
0.0
  0
ARC
  5
AEA9
  8
0
 10
4674.6333496401312004
 20
181.8899357955720859
 30
0.0
 40
0.2120042801470484
 50
86.8225098395926693
 51
119.4022700049482069
  0
ARC
  5
AEAA
  8
0
 10
4674.5852478732258533
 20
181.9963731090983003
 30
0.0
 40
0.0962197706821953
 50
125.5762089414487974
 51
177.2384044615365042
  0
LINE
  5
AEAB
  8
0
 10
4674.4891398467771069
 20
182.33561414410579
 30
0.0
 11
4674.4891398467771069
 21
181.5616295576058121
 31
0.0
  0
LINE
  5
AEAC
  8
0
 10
4675.2631398536368579
 20
181.4617526276057902
 30
0.0
 11
4674.6451008767771782
 21
181.4617526276057902
 31
0.0
  0
ARC
  5
AEAD
  8
0
 10
4674.640729684388134
 20
181.8354796898703967
 30
0.0
 40
0.3737526245952529
 50
252.6491879731023005
 51
270.6701132480865795
  0
ARC
  5
AEAE
  8
0
 10
4674.5852478732258533
 20
181.5569936626131948
 30
0.0
 40
0.0962197706821953
 50
177.2384044614844925
 51
234.4237910585511884
  0
LINE
  5
AEAF
  8
0
 10
4673.8317619045355968
 20
184.453889322805793
 30
0.0
 11
4673.8721125024358116
 21
184.4942399207058088
 31
0.0
  0
LINE
  5
AEB0
  8
0
 10
4673.8721125024358116
 20
184.4942399207058088
 30
0.0
 11
4673.8721125024358116
 21
184.6205387250057015
 31
0.0
  0
LINE
  5
AEB1
  8
0
 10
4673.8721125024358116
 20
184.6205387250057015
 30
0.0
 11
4673.8317619045355968
 21
184.6608893228057866
 31
0.0
  0
LINE
  5
AEB2
  8
0
 10
4673.8317619045355968
 20
184.6608893228057866
 30
0.0
 11
4672.037470817135727
 21
184.6608893228057866
 31
0.0
  0
LINE
  5
AEB3
  8
0
 10
4672.037470817135727
 20
184.6608893228057866
 30
0.0
 11
4671.9971125024358116
 21
184.6205387250057015
 31
0.0
  0
LINE
  5
AEB4
  8
0
 10
4671.9971125024358116
 20
184.6205387250057015
 30
0.0
 11
4671.9971125024358116
 21
184.4942399207058088
 31
0.0
  0
LINE
  5
AEB5
  8
0
 10
4671.9971125024358116
 20
184.4942399207058088
 30
0.0
 11
4672.037478533936337
 21
184.453889322805793
 31
0.0
  0
LINE
  5
AEB6
  8
0
 10
4673.597169474635848
 20
184.453889322805793
 30
0.0
 11
4673.5950199455946859
 21
184.2083893228058002
 31
0.0
  0
LINE
  5
AEB7
  8
0
 10
4673.1533625024367211
 20
184.1608893228057866
 30
0.0
 11
4672.2746209559372801
 21
184.1608893228057866
 31
0.0
  0
LINE
  5
AEB8
  8
0
 10
4672.2746209559372801
 20
184.1608893228057866
 30
0.0
 11
4672.2720632397085865
 21
184.4538901510566973
 31
0.0
  0
LINE
  5
AEB9
  8
0
 10
4673.6492064398880757
 20
183.8903893228057882
 30
0.0
 11
4673.6478689345358362
 21
183.7376570393057875
 31
0.0
  0
LINE
  5
AEBA
  8
0
 10
4673.6478689345358362
 20
183.7376570393057875
 30
0.0
 11
4672.2213655927362197
 21
183.7376570393057875
 31
0.0
  0
LINE
  5
AEBB
  8
0
 10
4672.2213655927362197
 20
183.7376570393057875
 30
0.0
 11
4672.2207660566282357
 21
183.9381570393057928
 31
0.0
  0
LINE
  5
AEBC
  8
0
 10
4673.8317619045355968
 20
184.453889322805793
 30
0.0
 11
4672.037478533936337
 21
184.453889322805793
 31
0.0
  0
LINE
  5
AEBD
  8
0
 10
4673.4824425999368032
 20
183.7376570393057875
 30
0.0
 11
4673.4816582459116034
 21
183.6927214276057896
 31
0.0
  0
LINE
  5
AEBE
  8
0
 10
4672.3867978384369053
 20
183.7376570393057875
 30
0.0
 11
4672.3875821924611955
 21
183.6927214276057896
 31
0.0
  0
LINE
  5
AEBF
  8
0
 10
4673.1533625024367211
 20
183.9381570393057928
 30
0.0
 11
4645.7158625024367211
 21
183.9381570393057928
 31
0.0
  0
LINE
  5
AEC0
  8
0
 10
4646.8317580460861791
 20
184.453889322805793
 30
0.0
 11
4646.8721086439863939
 21
184.4942399207058088
 31
0.0
  0
LINE
  5
AEC1
  8
0
 10
4646.8721086439863939
 20
184.4942399207058088
 30
0.0
 11
4646.8721086439863939
 21
184.6205387250057015
 31
0.0
  0
LINE
  5
AEC2
  8
0
 10
4646.8721086439863939
 20
184.6205387250057015
 30
0.0
 11
4646.8317580460861791
 21
184.6608893228057866
 31
0.0
  0
LINE
  5
AEC3
  8
0
 10
4646.8317580460861791
 20
184.6608893228057866
 30
0.0
 11
4645.0374669586863092
 21
184.6608893228057866
 31
0.0
  0
LINE
  5
AEC4
  8
0
 10
4645.0374669586863092
 20
184.6608893228057866
 30
0.0
 11
4644.9971086439873034
 21
184.6205387250057015
 31
0.0
  0
LINE
  5
AEC5
  8
0
 10
4644.9971086439873034
 20
184.6205387250057015
 30
0.0
 11
4644.9971086439873034
 21
184.4942399207058088
 31
0.0
  0
LINE
  5
AEC6
  8
0
 10
4644.9971086439873034
 20
184.4942399207058088
 30
0.0
 11
4645.0374746754860098
 21
184.453889322805793
 31
0.0
  0
LINE
  5
AEC7
  8
0
 10
4646.5971656161864303
 20
184.453889322805793
 30
0.0
 11
4646.5946001904858349
 21
184.1608893228057866
 31
0.0
  0
LINE
  5
AEC8
  8
0
 10
4646.5946001904858349
 20
184.1608893228057866
 30
0.0
 11
4645.7158625024367211
 21
184.1608893228057866
 31
0.0
  0
LINE
  5
AEC9
  8
0
 10
4645.274202451830206
 20
184.2083893228058002
 30
0.0
 11
4645.2720593812582592
 21
184.4538901510566973
 31
0.0
  0
LINE
  5
AECA
  8
0
 10
4646.6487473329070781
 20
183.9381570393057928
 30
0.0
 11
4646.6469915166708233
 21
183.7376570393057875
 31
0.0
  0
LINE
  5
AECB
  8
0
 10
4646.6469915166708233
 20
183.7376570393057875
 30
0.0
 11
4645.2204881748721164
 21
183.7376570393057875
 31
0.0
  0
LINE
  5
AECC
  8
0
 10
4645.2204881748721164
 20
183.7376570393057875
 30
0.0
 11
4645.2200314740302929
 21
183.8903893228057882
 31
0.0
  0
LINE
  5
AECD
  8
0
 10
4646.8317580460861791
 20
184.453889322805793
 30
0.0
 11
4645.0374746754860098
 21
184.453889322805793
 31
0.0
  0
LINE
  5
AECE
  8
0
 10
4646.4815651820717903
 20
183.7376570393057875
 30
0.0
 11
4646.4807808280465906
 21
183.6927214276057896
 31
0.0
  0
LINE
  5
AECF
  8
0
 10
4645.385920420570983
 20
183.7376570393057875
 30
0.0
 11
4645.3867047745970922
 21
183.6927214276057896
 31
0.0
  0
LINE
  5
AED1
  8
0
 10
4649.5792985816278815
 20
182.5565389291058125
 30
0.0
 11
4649.5796705934144484
 21
182.7547214276058014
 31
0.0
  0
LINE
  5
AED2
  8
0
 10
4647.3917982146867871
 20
182.8245358275057981
 30
0.0
 11
4621.4738955806869853
 21
182.8245358275057981
 31
0.0
  0
LINE
  5
AED3
  8
0
 10
4674.2841398467771796
 20
183.4824891441058128
 30
0.0
 11
4664.4522069514077884
 21
183.4824891441058128
 31
0.0
  0
LINE
  5
AED4
  8
0
 10
4663.4570180535647523
 20
183.4824891441058128
 30
0.0
 11
4648.6603785049610451
 21
183.4824891441058128
 31
0.0
  0
LINE
  5
AED5
  8
0
 10
4647.2148387832121443
 20
183.4824891441058128
 30
0.0
 11
4634.4540410404197246
 21
183.4824891441058128
 31
0.0
  0
LINE
  5
AED6
  8
0
 10
4633.4588521425766885
 20
183.4824891441058128
 30
0.0
 11
4621.6508550121607186
 21
183.4824891441058128
 31
0.0
  0
LINE
  5
AED7
  8
0
 10
4663.7395005345033496
 20
183.6167316609343914
 30
0.0
 11
4663.5159382324791295
 21
183.4972466272772067
 31
0.0
  0
LINE
  5
AED8
  8
0
 10
4664.1697244704701006
 20
183.6167316609343914
 30
0.0
 11
4664.3932867724943208
 21
183.4972466272772067
 31
0.0
  0
LINE
  5
AED9
  8
0
 10
4664.1108042915557235
 20
183.6314891441058137
 30
0.0
 11
4663.7984207134177268
 21
183.6314891441058137
 31
0.0
  0
ARC
  5
AEDA
  8
0
 10
4664.1108042915557235
 20
183.5064891441058137
 30
0.0
 40
0.125
 50
61.8772936687348079
 51
90.0
  0
ARC
  5
AEDB
  8
0
 10
4663.7984207134177268
 20
183.5064891441057
 30
0.0
 40
0.125
 50
90.0
 51
118.1227063312628047
  0
ARC
  5
AEDC
  8
0
 10
4663.4570180535647523
 20
183.6074891441058128
 30
0.0
 40
0.125
 50
270.0
 51
298.1227063312651921
  0
ARC
  5
AEDD
  8
0
 10
4664.4522069514077884
 20
183.6074891441058128
 30
0.0
 40
0.125
 50
241.8772936687348079
 51
270.0
  0
LINE
  5
AEDE
  8
0
 10
4634.1715585594820368
 20
183.6167316609343914
 30
0.0
 11
4634.3951208615062569
 21
183.4972466272772067
 31
0.0
  0
LINE
  5
AEDF
  8
0
 10
4633.7413346235152858
 20
183.6167316609343914
 30
0.0
 11
4633.5177723214901562
 21
183.4972466272772067
 31
0.0
  0
LINE
  5
AEE0
  8
0
 10
4633.800254802427844
 20
183.6314891441058137
 30
0.0
 11
4634.1126383805667501
 21
183.6314891441058137
 31
0.0
  0
ARC
  5
AEE1
  8
0
 10
4633.800254802427844
 20
183.5064891441058137
 30
0.0
 40
0.125
 50
90.0
 51
118.1227063312652064
  0
ARC
  5
AEE2
  8
0
 10
4634.1126383805667501
 20
183.5064891441057
 30
0.0
 40
0.125
 50
61.87729366873711
 51
90.0
  0
ARC
  5
AEE3
  8
0
 10
4634.4540410404197246
 20
183.6074891441058128
 30
0.0
 40
0.125
 50
241.8772936687348079
 51
270.0
  0
ARC
  5
AEE4
  8
0
 10
4633.4588521425766885
 20
183.6074891441058128
 30
0.0
 40
0.125
 50
270.0
 51
298.1227063312651921
  0
LINE
  5
AEE5
  8
0
 10
4620.2053152904118178
 20
183.4824891441058128
 30
0.0
 11
4619.5980851512367735
 21
183.4824891441058128
 31
0.0
  0
LINE
  5
AEE6
  8
0
 10
4674.9031398536362758
 20
182.2676141441058064
 30
0.0
 11
4674.4891398467771069
 21
182.2676141441058064
 31
0.0
  0
LINE
  5
AEE7
  8
0
 10
4674.9650403520354303
 20
182.1085956357057967
 30
0.0
 11
4675.1616446513198753
 21
182.1051638949095945
 31
0.0
  0
LINE
  5
AEE8
  8
0
 10
4674.9031398536362758
 20
182.1715860405006993
 30
0.0
 11
4674.9031398536362758
 21
182.6565823507301047
 31
0.0
  0
ARC
  5
AEE9
  8
0
 10
4674.9661398536363777
 20
182.1715860405006993
 30
0.0
 40
0.063
 50
179.9999999999934914
 51
269.0000000037767904
  0
ARC
  5
AEEA
  8
0
 10
4675.1610852208450524
 20
182.073114144380213
 30
0.0
 40
0.0320546326051243
 50
62.7612523883538884
 51
88.9999996163826097
  0
LINE
  5
AEEB
  8
0
 10
4618.6190851512355948
 20
181.4617526276057902
 30
0.0
 11
4618.6190851512355948
 21
184.962480945871107
 31
0.0
  0
ARC
  5
AEEC
  8
0
 10
4618.6390851512369409
 20
184.1583662296536943
 30
0.0
 40
0.02
 50
90.0006488307123504
 51
180.0
  0
LINE
  5
AEED
  8
0
 10
4618.9790851512370864
 20
184.8738293764191951
 30
0.0
 11
4618.9790851512370864
 21
183.8018282562607055
 31
0.0
  0
LINE
  5
AEEE
  8
0
 10
4618.9193823164878268
 20
184.9367430371083003
 30
0.0
 11
4618.6190851512355948
 21
184.962480945871107
 31
0.0
  0
ARC
  5
AEEF
  8
0
 10
4618.916085151236075
 20
184.8738293764191951
 30
0.0
 40
0.063
 50
0.0000000000065138
 51
86.9999999920628682
  0
LINE
  5
AEF0
  8
0
 10
4646.8299729071441106
 20
182.7547214276058014
 30
0.0
 11
4646.8299729071441106
 21
182.5087712125057919
 31
0.0
  0
LINE
  5
AEF1
  8
0
 10
4649.5796125024362482
 20
183.6927214276057896
 30
0.0
 11
4649.5796125024362482
 21
183.9381570393057928
 31
0.0
  0
LINE
  5
AEF2
  8
0
 10
4649.3768444793367962
 20
183.7599163794899937
 30
0.0
 11
4649.3768444793367962
 21
183.8111040462910921
 31
0.0
  0
LINE
  5
AEF3
  8
0
 10
4649.3768444793367962
 20
183.7599163794899937
 30
0.0
 11
4647.0323803309356663
 21
183.7599163794899937
 31
0.0
  0
ARC
  5
AEF4
  8
0
 10
4649.8670914596095827
 20
183.7518361002593963
 30
0.0
 40
0.3147718953024337
 50
155.9644567008284071
 51
163.4923377567388911
  0
ARC
  5
AEF5
  8
0
 10
4649.49963399823082
 20
184.0662571939269014
 30
0.0
 40
0.2343662366162039
 50
273.8649246933986205
 51
286.2697210337115052
  0
ARC
  5
AEF6
  8
0
 10
4649.3681062316618409
 20
185.8525319606694097
 30
0.0
 40
2.025473027138383
 50
270.6992889913275917
 51
274.1711578756134031
  0
ARC
  5
AEF7
  8
0
 10
4649.3928738727481687
 20
183.8111802842377926
 30
0.0
 40
0.0160295746958844
 50
90.1700282445308261
 51
180.2725043633126916
  0
LINE
  5
AEF8
  8
0
 10
4649.3531125024373978
 20
183.8957078790577953
 30
0.0
 11
4649.3531125024373978
 21
183.7599163794899937
 31
0.0
  0
LINE
  5
AEF9
  8
0
 10
4649.5796125024362482
 20
184.5542745342058026
 30
0.0
 11
4649.5796125024362482
 21
184.1608893228057866
 31
0.0
  0
LINE
  5
AEFA
  8
0
 10
4646.8721086439863939
 20
184.5702745342057938
 30
0.0
 11
4649.563612502435717
 21
184.5702745342057938
 31
0.0
  0
LINE
  5
AEFB
  8
0
 10
4649.5652930112355534
 20
184.3503542039258036
 30
0.0
 11
4649.5652930112355534
 21
184.5112738025057979
 31
0.0
  0
LINE
  5
AEFC
  8
0
 10
4647.0937276311096866
 20
184.4992244084058086
 30
0.0
 11
4649.4268578060064101
 21
184.4992244084058086
 31
0.0
  0
ARC
  5
AEFD
  8
0
 10
4649.563612502435717
 20
184.5542745342058026
 30
0.0
 40
0.016
 50
359.9999999999478746
 51
90.0
  0
ARC
  5
AEFE
  8
0
 10
4649.4005666501398082
 20
185.78526550972731
 30
0.0
 40
1.286309814611067
 50
271.1711619987075892
 51
277.0773222184569136
  0
ARC
  5
AEFF
  8
0
 10
4649.5574374502857609
 20
184.5217543525363908
 30
0.0
 40
0.0130977771702119
 50
277.0773222184569136
 51
306.8529192172031799
  0
ARC
  5
AF00
  8
0
 10
4664.1051131586009433
 20
179.6933145938627945
 30
0.0
 40
15.31728111819743
 50
161.4971784539598048
 51
161.6667109811604917
  0
LINE
  5
AF01
  8
0
 10
4649.3531125024373978
 20
183.8957078790577953
 30
0.0
 11
4649.2250830977191072
 21
183.9381570393057928
 31
0.0
  0
LINE
  5
AF02
  8
0
 10
4646.8296123078353048
 20
183.6927214276057896
 30
0.0
 11
4646.8296123078353048
 21
183.9381570393057928
 31
0.0
  0
LINE
  5
AF03
  8
0
 10
4647.0323803309356663
 20
183.7599163794899937
 30
0.0
 11
4647.0323803309356663
 21
183.8111040462910921
 31
0.0
  0
ARC
  5
AF04
  8
0
 10
4646.5421333506610608
 20
183.7518361002593963
 30
0.0
 40
0.3147718953024337
 50
16.5076622432610804
 51
24.0355432991716214
  0
ARC
  5
AF05
  8
0
 10
4646.909590812040733
 20
184.0662571939269014
 30
0.0
 40
0.2343662366162039
 50
253.7302789662884948
 51
266.1350753066013795
  0
ARC
  5
AF06
  8
0
 10
4647.0411185786097121
 20
185.8525319606694097
 30
0.0
 40
2.025473027138383
 50
265.8288421243865969
 51
269.3007110086722946
  0
ARC
  5
AF07
  8
0
 10
4647.0163509375252033
 20
183.8111802842377926
 30
0.0
 40
0.0160295746958844
 50
359.7274956366871947
 51
89.8299717554691739
  0
LINE
  5
AF08
  8
0
 10
4647.0561123078359742
 20
183.8957078790577953
 30
0.0
 11
4647.0561123078359742
 21
183.7599163794899937
 31
0.0
  0
LINE
  5
AF09
  8
0
 10
4647.0561123078359742
 20
183.8957078790577953
 30
0.0
 11
4647.1841417125542648
 21
183.9381570393057928
 31
0.0
  0
LINE
  5
AF0A
  8
0
 10
4646.8296125024362482
 20
184.3241931805058016
 30
0.0
 11
4649.563612502435717
 21
184.3241931805058016
 31
0.0
  0
ARC
  5
AF0B
  8
0
 10
4649.563612502435717
 20
184.3401931805057927
 30
0.0
 40
0.016
 50
270.0
 51
359.999999999949523
  0
LINE
  5
AF0C
  8
0
 10
4646.8296125024362482
 20
184.3546047897058031
 30
0.0
 11
4649.4278584015701199
 21
184.3546047897058031
 31
0.0
  0
ARC
  5
AF0D
  8
0
 10
4649.4126951424414074
 20
181.6403609410448894
 30
0.0
 40
2.7142862034834891
 50
86.7771172393991463
 51
89.6799175895492766
  0
LINE
  5
AF0E
  8
0
 10
4649.5796125024362482
 20
184.343499493276795
 30
0.0
 11
4649.5652930112355534
 21
184.3503542039258036
 31
0.0
  0
LINE
  5
AF0F
  8
0
 10
4647.0938939174357074
 20
183.7599163794899937
 30
0.0
 11
4647.0938939174357074
 21
183.6927214276057896
 31
0.0
  0
LINE
  5
AF10
  8
0
 10
4649.3153310874367889
 20
183.7599163794899937
 30
0.0
 11
4649.3153310874367889
 21
183.6927214276057896
 31
0.0
  0
LINE
  5
AF11
  8
0
 10
4672.2371240776374179
 20
184.1808893228057968
 30
0.0
 11
4672.2744463682920468
 21
184.1808893228057968
 31
0.0
  0
LINE
  5
AF12
  8
0
 10
4672.2371240776374179
 20
184.1808893228057968
 30
0.0
 11
4672.2371240776374179
 21
184.1608893228057866
 31
0.0
  0
LINE
  5
AF13
  8
0
 10
4672.2360015600288534
 20
184.1921080162402973
 30
0.0
 11
4672.2681442628199875
 21
184.453889322805793
 31
0.0
  0
ARC
  5
AF14
  8
0
 10
4672.2459270215449578
 20
184.1908893228057877
 30
0.0
 40
0.01
 50
172.9999999973152001
 51
270.0
  0
LINE
  5
AF15
  8
0
 10
4672.548179141833316
 20
184.6808893228057968
 30
0.0
 11
4672.7523110649790397
 21
184.6808893228057968
 31
0.0
  0
ARC
  5
AF16
  8
0
 10
4672.548179141833316
 20
184.6508893228057104
 30
0.0
 40
0.03
 50
89.9999999999478888
 51
160.5287793654902941
  0
ARC
  5
AF17
  8
0
 10
4672.7523110649790397
 20
184.6508893228057104
 30
0.0
 40
0.0300000000000011
 50
19.4712206344973708
 51
90.0
  0
LINE
  5
AF18
  8
0
 10
4674.4891398467771069
 20
182.33561414410579
 30
0.0
 11
4650.0413625024357316
 21
182.33561414410579
 31
0.0
  0
LINE
  5
AF19
  8
0
 10
4621.6451086439874416
 20
182.2655743622057969
 30
0.0
 11
4621.6451086439874416
 21
182.2860389291058141
 31
0.0
  0
LINE
  5
AF1A
  8
0
 10
4621.6462311615941871
 20
182.2543556687712965
 30
0.0
 11
4621.6140884588030531
 21
181.9925743622058008
 31
0.0
  0
ARC
  5
AF1B
  8
0
 10
4621.6363057000780827
 20
182.255574362205806
 30
0.0
 40
0.01
 50
352.9999999973151716
 51
90.0
  0
LINE
  5
AF1C
  8
0
 10
4621.3334298076797495
 20
181.7655743622057969
 30
0.0
 11
4621.1292978845340258
 21
181.7655743622057969
 31
0.0
  0
ARC
  5
AF1D
  8
0
 10
4621.3334298076797495
 20
181.795574362205798
 30
0.0
 40
0.03
 50
269.9999999999478746
 51
340.5287793654903226
  0
ARC
  5
AF1E
  8
0
 10
4621.1292978845340258
 20
181.795574362205798
 30
0.0
 40
0.0300000000000011
 50
199.471220634497314
 51
270.0
  0
LINE
  5
AF1F
  8
0
 10
4621.6077865503129942
 20
182.2655743622057969
 30
0.0
 11
4621.6451086439874416
 21
182.2655743622057969
 31
0.0
  0
ARC
  5
AF20
  8
0
 10
4618.919197667930348
 20
182.1621166878084921
 30
0.0
 40
0.0534446273628419
 50
270.1979458589993897
 51
357.8151803169362779
  0
ARC
  5
AF21
  8
0
 10
4614.2756677369943645
 20
439.602263883254011
 30
0.0
 40
257.5354611516198133
 50
270.9889410108181096
 51
271.0331768089545221
  0
ARC
  5
AF22
  8
0
 10
4618.720108912672913
 20
182.0775435724191027
 30
0.0
 40
0.0276243457798913
 50
89.0221251456319891
 51
118.7928676385188993
  0
ARC
  5
AF23
  8
0
 10
4618.6385260071119774
 20
182.1504422807846879
 30
0.0
 40
0.0214313655462538
 50
204.8894317425263978
 51
275.05863932204511
  0
LINE
  5
AF24
  8
0
 10
4674.962842688382807
 20
184.9367430371030139
 30
0.0
 11
4675.2631398536368579
 21
184.962480945871107
 31
0.0
  0
LINE
  5
AF25
  8
0
 10
4674.9031398536362758
 20
184.8738293764139939
 30
0.0
 11
4674.9031398536362758
 21
184.2083893228058002
 31
0.0
  0
ARC
  5
AF26
  8
0
 10
4674.9661398536363777
 20
184.8738293764139939
 30
0.0
 40
0.063
 50
93.000000008928609
 51
179.999999999980389
  0
LINE
  5
AF27
  8
0
 10
4675.2631398536368579
 20
184.962480945871107
 30
0.0
 11
4675.2631398536368579
 21
181.4617526276057902
 31
0.0
  0
LINE
  5
AF28
  8
0
 10
4620.0101163607869239
 20
181.9526883312057919
 30
0.0
 11
4621.8851163607869239
 21
181.9526883312057919
 31
0.0
  0
LINE
  5
AF29
  8
0
 10
4621.8851163607869239
 20
181.8263895269058992
 30
0.0
 11
4620.0101163607869239
 21
181.8263895269058992
 31
0.0
  0
LINE
  5
AF2A
  8
0
 10
4644.9971086439873034
 20
184.4942399207058088
 30
0.0
 11
4646.8721086439863939
 21
184.4942399207058088
 31
0.0
  0
LINE
  5
AF2B
  8
0
 10
4646.8721086439863939
 20
184.6205387250057015
 30
0.0
 11
4644.9971086439873034
 21
184.6205387250057015
 31
0.0
  0
LINE
  5
AF2C
  8
0
 10
4647.0101125024357316
 20
181.9526883312057919
 30
0.0
 11
4648.8851125024357316
 21
181.9526883312057919
 31
0.0
  0
LINE
  5
AF2D
  8
0
 10
4648.8851125024357316
 20
181.8263895269058992
 30
0.0
 11
4647.0101125024357316
 21
181.8263895269058992
 31
0.0
  0
LINE
  5
AF2E
  8
0
 10
4671.9971125024358116
 20
184.6205387250057015
 30
0.0
 11
4673.8721125024358116
 21
184.6205387250057015
 31
0.0
  0
LINE
  5
AF2F
  8
0
 10
4671.9971125024358116
 20
184.4942399207058088
 30
0.0
 11
4673.8721125024358116
 21
184.4942399207058088
 31
0.0
  0
LINE
  5
AF30
  8
0
 10
4673.1533625024367211
 20
184.1608893228057866
 30
0.0
 11
4646.219862502435717
 21
184.1608893228057866
 31
0.0
  0
LINE
  5
AF31
  8
0
 10
4648.1663625024357316
 20
182.2860389291058141
 30
0.0
 11
4620.7288625024366411
 21
182.2860389291057004
 31
0.0
  0
ARC
  5
AF32
  8
0
 10
4648.2046125024371577
 20
186.1843846411030086
 30
0.0
 40
3.5924570880971909
 50
277.1399466398768823
 51
287.3146885797091841
  0
ARC
  5
AF33
  8
0
 10
4648.2374277755188814
 20
186.0319930231557919
 30
0.0
 40
3.4634317401713699
 50
276.8616137484470983
 51
288.8708911948809828
  0
ARC
  5
AF34
  8
0
 10
4648.2046125024480716
 20
186.1843846411439927
 30
0.0
 40
3.592457088139827
 50
252.6853114202922086
 51
255.3154399622951871
  0
ARC
  5
AF35
  8
0
 10
4648.2046125024317007
 20
186.1843846410939136
 30
0.0
 40
3.6189291749874979
 50
251.387915310787406
 51
254.2828427234013873
  0
LINE
  5
AF36
  8
0
 10
4618.9726034438317583
 20
182.1600792152590031
 30
0.0
 11
4618.9726034438317583
 21
182.2385389291058004
 31
0.0
  0
LINE
  5
AF37
  8
0
 10
4673.1533625024367211
 20
184.2083893228058002
 30
0.0
 11
4675.0283625012361881
 21
184.2083893228058002
 31
0.0
  0
LINE
  5
AF38
  8
0
 10
4675.0283625012361881
 20
184.2083893228058002
 30
0.0
 11
4675.0283625012361881
 21
183.8903893228057882
 31
0.0
  0
LINE
  5
AF39
  8
0
 10
4675.0283625012361881
 20
183.8903893228057882
 30
0.0
 11
4673.1533625024367211
 21
183.8903893228057882
 31
0.0
  0
LINE
  5
AF3A
  8
0
 10
4673.1533625024367211
 20
183.8903893228057882
 30
0.0
 11
4673.1533625024367211
 21
184.2083893228058002
 31
0.0
  0
LINE
  5
AF3B
  8
0
 10
4673.2497933285358158
 20
184.2083893228058002
 30
0.0
 11
4673.2497933285358158
 21
183.8903893228057882
 31
0.0
  0
LINE
  5
AF3C
  8
0
 10
4673.2692095893362421
 20
184.2083893228058002
 30
0.0
 11
4673.2692095893362421
 21
183.8903893228057882
 31
0.0
  0
LINE
  5
AF3D
  8
0
 10
4643.8408625024358116
 20
184.2083893228058002
 30
0.0
 11
4645.7158625024367211
 21
184.2083893228058002
 31
0.0
  0
LINE
  5
AF3E
  8
0
 10
4645.7158625024367211
 20
184.2083893228058002
 30
0.0
 11
4645.7158625024367211
 21
183.8903893228057882
 31
0.0
  0
LINE
  5
AF3F
  8
0
 10
4645.7158625024367211
 20
183.8903893228057882
 30
0.0
 11
4643.8408625024358116
 21
183.8903893228057882
 31
0.0
  0
LINE
  5
AF40
  8
0
 10
4643.8408625024358116
 20
183.8903893228057882
 30
0.0
 11
4643.8408625024358116
 21
184.2083893228058002
 31
0.0
  0
LINE
  5
AF41
  8
0
 10
4645.619431676235763
 20
184.2083893228058002
 30
0.0
 11
4645.619431676235763
 21
183.8903893228057882
 31
0.0
  0
LINE
  5
AF42
  8
0
 10
4645.6000154155362907
 20
184.2083893228058002
 30
0.0
 11
4645.6000154155362907
 21
183.8903893228057882
 31
0.0
  0
LINE
  5
AF43
  8
0
 10
4648.1663625024357316
 20
182.5565389291058125
 30
0.0
 11
4650.0413625024357316
 21
182.5565389291058125
 31
0.0
  0
LINE
  5
AF44
  8
0
 10
4650.0413625024357316
 20
182.5565389291058125
 30
0.0
 11
4650.0413625024357316
 21
182.2385389291058004
 31
0.0
  0
LINE
  5
AF45
  8
0
 10
4650.0413625024357316
 20
182.2385389291058004
 30
0.0
 11
4648.1663625024357316
 21
182.2385389291058004
 31
0.0
  0
LINE
  5
AF46
  8
0
 10
4648.1663625024357316
 20
182.2385389291058004
 30
0.0
 11
4648.1663625024357316
 21
182.5565389291058125
 31
0.0
  0
LINE
  5
AF47
  8
0
 10
4648.2627933285357358
 20
182.5565389291058125
 30
0.0
 11
4648.2627933285357358
 21
182.2385389291058004
 31
0.0
  0
LINE
  5
AF48
  8
0
 10
4648.2822095893370715
 20
182.5565389291058125
 30
0.0
 11
4648.2822095893370715
 21
182.2385389291058004
 31
0.0
  0
LINE
  5
AF49
  8
0
 10
4618.8538625024357316
 20
182.5565389291058125
 30
0.0
 11
4620.7288625024366411
 21
182.5565389291058125
 31
0.0
  0
LINE
  5
AF4A
  8
0
 10
4620.7288625024366411
 20
182.5565389291058125
 30
0.0
 11
4620.7288625024366411
 21
182.2385389291058004
 31
0.0
  0
LINE
  5
AF4B
  8
0
 10
4620.7288625024366411
 20
182.2385389291058004
 30
0.0
 11
4618.8538625024357316
 21
182.2385389291058004
 31
0.0
  0
LINE
  5
AF4C
  8
0
 10
4618.8538625024357316
 20
182.2385389291058004
 30
0.0
 11
4618.8538625024357316
 21
182.5565389291058125
 31
0.0
  0
LINE
  5
AF4D
  8
0
 10
4620.6324316762365925
 20
182.5565389291058125
 30
0.0
 11
4620.6324316762365925
 21
182.2385389291058004
 31
0.0
  0
LINE
  5
AF4E
  8
0
 10
4620.6130154155362106
 20
182.5565389291058125
 30
0.0
 11
4620.6130154155362106
 21
182.2385389291058004
 31
0.0
  0
LINE
  5
AF4F
  8
0
 10
4646.8296125024362482
 20
184.1608893228057866
 30
0.0
 11
4646.8296125024362482
 21
184.453889322805793
 31
0.0
  0
ARC
  5
AF50
  8
0
 10
4647.0723592993408602
 20
187.542316816724707
 30
0.0
 40
3.0431674306831882
 50
266.2270187074835235
 51
270.4023193973093271
  0
ENDSEC
  0
EOF
