  0
SECTION
  2
HEADER
  9
$ACADVER
  1
AC1009
  9
$INSBASE
 10
4579.16080037321899
 20
150.540194567346191
 30
0.0
  9
$EXTMIN
 10
4577.4104362135049087
 20
150.540194567346191
 30
0.0
  9
$EXTMAX
 10
4580.9111645317689181
 20
212.207654699386012
 30
0.0
  9
$LIMMIN
 10
0.0
 20
0.0
  9
$LIMMAX
 10
11.6929133858000007
 20
8.2677165353999982
  9
$ORTHOMODE
 70
     0
  9
$REGENMODE
 70
     1
  9
$FILLMODE
 70
     1
  9
$QTEXTMODE
 70
     0
  9
$MIRRTEXT
 70
     0
  9
$DRAGMODE
 70
     2
  9
$LTSCALE
 40
0.6431102362
  9
$OSMODE
 70
  4095
  9
$ATTMODE
 70
     1
  9
$TEXTSIZE
 40
0.2
  9
$TRACEWID
 40
0.05
  9
$TEXTSTYLE
  7
STANDARD
  9
$CLAYER
  8
0
  9
$CELTYPE
  6
BYLAYER
  9
$CECOLOR
 62
   256
  9
$DIMSCALE
 40
1.0
  9
$DIMASZ
 40
0.1875
  9
$DIMEXO
 40
0.0625
  9
$DIMDLI
 40
0.4443307087
  9
$DIMRND
 40
0.0
  9
$DIMDLE
 40
0.0
  9
$DIMEXE
 40
0.125
  9
$DIMTP
 40
0.01
  9
$DIMTM
 40
0.01
  9
$DIMTXT
 40
2.0
  9
$DIMCEN
 40
0.1052362205
  9
$DIMTSZ
 40
0.0
  9
$DIMTOL
 70
     1
  9
$DIMLIM
 70
     0
  9
$DIMTIH
 70
     1
  9
$DIMTOH
 70
     1
  9
$DIMSE1
 70
     0
  9
$DIMSE2
 70
     0
  9
$DIMTAD
 70
     0
  9
$DIMZIN
 70
     0
  9
$DIMBLK
  1

  9
$DIMASO
 70
     1
  9
$DIMSHO
 70
     1
  9
$DIMPOST
  1
\X
  9
$DIMAPOST
  1

  9
$DIMALT
 70
     1
  9
$DIMALTD
 70
     2
  9
$DIMALTF
 40
25.3999999999999986
  9
$DIMLFAC
 40
1.0
  9
$DIMTOFL
 70
     0
  9
$DIMTVP
 40
0.0
  9
$DIMTIX
 70
     0
  9
$DIMSOXD
 70
     0
  9
$DIMSAH
 70
     0
  9
$DIMBLK1
  1

  9
$DIMBLK2
  1

  9
$DIMSTYLE
  2
STANDARD
  9
$DIMCLRD
 70
     0
  9
$DIMCLRE
 70
     0
  9
$DIMCLRT
 70
     0
  9
$DIMTFAC
 40
1.0
  9
$DIMGAP
 40
0.09
  9
$LUNITS
 70
     2
  9
$LUPREC
 70
     4
  9
$SKETCHINC
 40
0.1
  9
$FILLETRAD
 40
0.0
  9
$AUNITS
 70
     0
  9
$AUPREC
 70
     0
  9
$MENU
  1
.
  9
$ELEVATION
 40
0.0
  9
$PELEVATION
 40
0.0
  9
$THICKNESS
 40
0.0
  9
$LIMCHECK
 70
     0
  9
$BLIPMODE
 70
     0
  9
$CHAMFERA
 40
0.0
  9
$CHAMFERB
 40
0.0
  9
$SKPOLY
 70
     0
  9
$TDCREATE
 40
2458060.468368056230247
  9
$TDUPDATE
 40
2459376.6516550928354263
  9
$TDINDWG
 40
0.410608912
  9
$TDUSRTIMER
 40
0.410608912
  9
$USRTIMER
 70
     1
  9
$ANGBASE
 50
0.0
  9
$ANGDIR
 70
     0
  9
$PDMODE
 70
     0
  9
$PDSIZE
 40
0.3125
  9
$PLINEWID
 40
0.0
  9
$COORDS
 70
     1
  9
$SPLFRAME
 70
     0
  9
$SPLINETYPE
 70
     6
  9
$SPLINESEGS
 70
     8
  9
$ATTDIA
 70
     1
  9
$ATTREQ
 70
     1
  9
$HANDLING
 70
     1
  9
$HANDSEED
  5
B2BF
  9
$SURFTAB1
 70
     6
  9
$SURFTAB2
 70
     6
  9
$SURFTYPE
 70
     6
  9
$SURFU
 70
     6
  9
$SURFV
 70
     6
  9
$UCSNAME
  2

  9
$UCSORG
 10
0.0
 20
0.0
 30
0.0
  9
$UCSXDIR
 10
1.0
 20
0.0
 30
0.0
  9
$UCSYDIR
 10
0.0
 20
1.0
 30
0.0
  9
$PUCSNAME
  2

  9
$PUCSORG
 10
0.0
 20
0.0
 30
0.0
  9
$PUCSXDIR
 10
1.0
 20
0.0
 30
0.0
  9
$PUCSYDIR
 10
0.0
 20
1.0
 30
0.0
  9
$USERI1
 70
     0
  9
$USERI2
 70
     0
  9
$USERI3
 70
     0
  9
$USERI4
 70
     0
  9
$USERI5
 70
     0
  9
$USERR1
 40
0.0
  9
$USERR2
 40
0.0
  9
$USERR3
 40
0.0
  9
$USERR4
 40
0.0
  9
$USERR5
 40
0.0
  9
$WORLDVIEW
 70
     1
  9
$SHADEDGE
 70
     3
  9
$SHADEDIF
 70
    70
  9
$TILEMODE
 70
     1
  9
$MAXACTVP
 70
    64
  9
$PLIMCHECK
 70
     0
  9
$PEXTMIN
 10
1.0000000000000000E+20
 20
1.0000000000000000E+20
 30
1.0000000000000000E+20
  9
$PEXTMAX
 10
-1.0000000000000000E+20
 20
-1.0000000000000000E+20
 30
-1.0000000000000000E+20
  9
$PLIMMIN
 10
0.0
 20
0.0
  9
$PLIMMAX
 10
12.0
 20
9.0
  9
$UNITMODE
 70
     0
  9
$VISRETAIN
 70
     1
  9
$PLINEGEN
 70
     0
  9
$PSLTSCALE
 70
     1
  0
ENDSEC
  0
SECTION
  2
TABLES
  0
TABLE
  2
VPORT
 70
     1
  0
VPORT
  2
*ACTIVE
 70
     0
 10
0.0
 20
0.0
 11
1.0
 21
1.0
 12
775.6167329898247544
 22
55.3786624366162101
 13
0.0
 23
0.0
 14
1.0
 24
1.0
 15
0.0
 25
0.0
 16
0.0
 26
0.0
 36
17.1152628219792007
 17
3803.5440673828129547
 27
125.9952621967499056
 37
0.0
 40
62.3972525596378702
 41
2.5612648221343872
 42
50.0
 43
0.0
 44
0.0
 50
0.0
 51
0.0
 71
     0
 72
   100
 73
     1
 74
     1
 75
     0
 76
     0
 77
     0
 78
     0
  0
ENDTAB
  0
TABLE
  2
LTYPE
 70
     2
  0
LTYPE
  2
CONTINUOUS
 70
     0
  3
Solid line
 72
    65
 73
     0
 40
0.0
  0
LTYPE
  2
PHANTOM2
 70
     0
  3
___ _ _ ___ _ _ ___ _ _ ___ _ _
 72
    65
 73
     6
 40
1.25
 49
0.625
 49
-0.125
 49
0.125
 49
-0.125
 49
0.125
 49
-0.125
  0
ENDTAB
  0
TABLE
  2
LAYER
 70
     2
  0
LAYER
  2
0
 70
     0
 62
   255
  6
CONTINUOUS
  0
LAYER
  2
DEFPOINTS
 70
     0
 62
     7
  6
CONTINUOUS
  0
ENDTAB
  0
TABLE
  2
STYLE
 70
     1
  0
STYLE
  2
STANDARD
 70
     0
 40
0.0
 41
0.8
 50
0.0
 71
     0
 42
0.2
  3
txt
  4

  0
ENDTAB
  0
TABLE
  2
VIEW
 70
     0
  0
ENDTAB
  0
TABLE
  2
UCS
 70
     0
  0
ENDTAB
  0
TABLE
  2
APPID
 70
     9
  0
APPID
  2
ACAD
 70
     0
  0
APPID
  2
ACAD_MLEADERVER
 70
     0
  0
APPID
  2
ACAD_EXEMPT_FROM_CAD_STANDARDS
 70
     0
  0
APPID
  2
ACAD_NAV_VCDISPLAY
 70
     0
  0
APPID
  2
ACAECLAYERSTANDARD
 70
     0
  0
APPID
  2
ACCMTRANSPARENCY
 70
     0
  0
APPID
  2
ACAD_DSTYLE_DIMJAG
 70
     0
  0
APPID
  2
ACAD_DSTYLE_DIMTALN
 70
     0
  0
APPID
  2
ACDBATTR
 70
     0
  0
ENDTAB
  0
TABLE
  2
DIMSTYLE
 70
     1
  0
DIMSTYLE
  2
STANDARD
 70
     0
  3

  4

  5

  6

  7

 40
1.0
 41
0.1875
 42
0.0625
 43
0.38
 44
0.125
 45
0.0
 46
0.0
 47
0.01
 48
0.01
140
0.15625
141
0.09
142
0.0
143
25.3999999999999986
144
1.0
145
0.0
146
1.0
147
0.09
 71
     1
 72
     0
 73
     1
 74
     1
 75
     0
 76
     0
 77
     0
 78
     4
170
     0
171
     2
172
     0
173
     0
174
     0
175
     0
176
     0
177
     0
178
     0
  0
ENDTAB
  0
ENDSEC
  0
SECTION
  2
BLOCKS
  0
BLOCK
  8
0
  2
$MODEL_SPACE
 70
     0
 10
0.0
 20
0.0
 30
0.0
  3
$MODEL_SPACE
  1

  0
ENDBLK
  5
21
  8
0
  0
BLOCK
 67
     1
  8
0
  2
$PAPER_SPACE
 70
     0
 10
0.0
 20
0.0
 30
0.0
  3
$PAPER_SPACE
  1

  0
ENDBLK
  5
1D
 67
     1
  8
0
  0
ENDSEC
  0
SECTION
  2
ENTITIES
  0
ATTDEF
  5
3930
  8
DEFPOINTS
 10
4579.1581169132241484
 20
150.543797828374295
 30
0.0
 40
0.001
  1
K-706000-D3
  3

  2
MODELNUMBER
 70
     0
1001
ACDBATTR
1070
     0
1070
     1
  0
ATTDEF
  5
3931
  8
DEFPOINTS
 10
4579.1581169132241484
 20
150.5421311617076867
 30
0.0
 40
0.001
  1
LEVITY
  3

  2
TRADENAME
 70
     0
1001
ACDBATTR
1070
     0
1070
     1
  0
ATTDEF
  5
3932
  8
DEFPOINTS
 10
4579.1581169132241484
 20
150.5404644950409931
 30
0.0
 40
0.001
  1
BATH DOOR
  3

  2
PRODUCT
 70
     0
1001
ACDBATTR
1070
     0
1070
     1
  0
LINE
  5
AFAE
  8
0
 10
4577.7444902326697047
 20
208.8631944938009042
 30
0.0
 11
4577.7444902326697047
 21
210.3860538100009876
 31
0.0
  0
LINE
  5
AFAF
  8
0
 10
4577.7444902326697047
 20
210.3860538100009876
 30
0.0
 11
4577.7848408304689656
 21
210.4264044078009874
 31
0.0
  0
LINE
  5
AFB0
  8
0
 10
4577.7848408304689656
 20
210.4264044078009874
 30
0.0
 11
4577.9111396347680056
 21
210.4264044078009874
 31
0.0
  0
LINE
  5
AFB1
  8
0
 10
4577.9111396347680056
 20
210.4264044078009874
 30
0.0
 11
4577.9514902326691299
 21
210.3860538100009876
 31
0.0
  0
LINE
  5
AFB2
  8
0
 10
4577.9514902326691299
 20
210.3860538100009876
 30
0.0
 11
4577.9514902326691299
 21
208.8631944938009042
 31
0.0
  0
LINE
  5
AFB3
  8
0
 10
4577.9514902326691299
 20
210.1514613801010114
 30
0.0
 11
4578.2444902326687952
 21
210.1489044078010124
 31
0.0
  0
LINE
  5
AFB4
  8
0
 10
4578.4674902326696611
 20
210.2051714036471139
 30
0.0
 11
4578.6679547996682231
 21
210.203421975814905
 31
0.0
  0
LINE
  5
AFB5
  8
0
 10
4578.6679547996682231
 20
210.203421975814905
 30
0.0
 11
4578.6679547996682231
 21
208.878842447603688
 31
0.0
  0
LINE
  5
AFB6
  8
0
 10
4578.6679547996682231
 20
210.0379897301149015
 30
0.0
 11
4578.7938799964704231
 21
210.0379897301149015
 31
0.0
  0
LINE
  5
AFB7
  8
0
 10
4578.7938799964704231
 20
208.8788424704650879
 30
0.0
 11
4578.7938799964704231
 21
210.2354957360149967
 31
0.0
  0
ARC
  5
AFB8
  8
0
 10
4578.9813799964686041
 20
210.0073917591793133
 30
0.0
 40
0.2952755903358905
 50
50.5800154985933617
 51
129.4199845014065886
  0
LINE
  5
AFB9
  8
0
 10
4579.1688799964686041
 20
210.2354957360149967
 30
0.0
 11
4579.1688799964686041
 21
208.878842538545598
 31
0.0
  0
LINE
  5
AFBA
  8
0
 10
4579.2013995407824041
 20
208.8788425444494976
 30
0.0
 11
4579.2013995407824041
 21
210.2151670358148863
 31
0.0
  0
LINE
  5
AFBB
  8
0
 10
4579.2013995407824041
 20
210.2151670358148863
 30
0.0
 11
4579.4622264006147816
 21
210.212891147860887
 31
0.0
  0
ARC
  5
AFBC
  8
0
 10
4579.4620955209948079
 20
210.197891762658287
 30
0.0
 40
0.0149999561975624
 50
44.7499307675950817
 51
89.5000688761453063
  0
LINE
  5
AFBD
  8
0
 10
4579.4727482832822716
 20
210.2084519398154896
 30
0.0
 11
4579.504052432815115
 21
210.1768733347794011
 31
0.0
  0
ARC
  5
AFBE
  8
0
 10
4579.493399881131154
 20
210.166313366395002
 30
0.0
 40
0.0149996596511602
 50
359.9997563723562735
 51
44.7499307675950817
  0
LINE
  5
AFBF
  8
0
 10
4579.5083995407821931
 20
210.1663133026148955
 30
0.0
 11
4579.5083940663216708
 21
208.8788426001837024
 31
0.0
  0
LINE
  5
AFC0
  8
0
 10
4579.1688799964686041
 20
209.7651673494148952
 30
0.0
 11
4579.2013995407824041
 21
209.7651673494148952
 31
0.0
  0
LINE
  5
AFC1
  8
0
 10
4580.1370518232743052
 20
207.8449854944709898
 30
0.0
 11
4580.4123406263688594
 21
207.8473879034009997
 31
0.0
  0
LINE
  5
AFC2
  8
0
 10
4580.1370504642363812
 20
206.5246763797850917
 30
0.0
 11
4580.4123406263688594
 21
206.5222739589009961
 31
0.0
  0
LINE
  5
AFC3
  8
0
 10
4580.4123406263688594
 20
206.2876815290009915
 30
0.0
 11
4580.4123406263688594
 21
208.0819803333010043
 31
0.0
  0
LINE
  5
AFC4
  8
0
 10
4580.4123406263688594
 20
208.0819803333010043
 30
0.0
 11
4580.4526912241690297
 21
208.1223309312009917
 31
0.0
  0
LINE
  5
AFC5
  8
0
 10
4580.4526912241690297
 20
208.1223309312009917
 30
0.0
 11
4580.5789900284689793
 21
208.1223309312009917
 31
0.0
  0
LINE
  5
AFC6
  8
0
 10
4580.5789900284689793
 20
208.1223309312009917
 30
0.0
 11
4580.6193406263691941
 21
208.0819803333010043
 31
0.0
  0
LINE
  5
AFC7
  8
0
 10
4580.6193406263691941
 20
208.0819803333010043
 30
0.0
 11
4580.6193406263691941
 21
206.2876815290009915
 31
0.0
  0
LINE
  5
AFC8
  8
0
 10
4580.6193406263691941
 20
206.2876815290009915
 30
0.0
 11
4580.5789900284689793
 21
206.2473309312009917
 31
0.0
  0
LINE
  5
AFC9
  8
0
 10
4580.5789900284689793
 20
206.2473309312009917
 30
0.0
 11
4580.4526912241690297
 21
206.2473309312009917
 31
0.0
  0
LINE
  5
AFCA
  8
0
 10
4580.4526912241690297
 20
206.2473309312009917
 30
0.0
 11
4580.4123406263688594
 21
206.2876815290009915
 31
0.0
  0
LINE
  5
AFCB
  8
0
 10
4577.4705300146688387
 20
208.6801944938009115
 30
0.0
 11
4580.0464050146692898
 21
208.6801944938009115
 31
0.0
  0
LINE
  5
AFCC
  8
0
 10
4580.0464050146692898
 20
208.6801944938009115
 30
0.0
 11
4580.0464050146692898
 21
206.1541944938009863
 31
0.0
  0
LINE
  5
AFCD
  8
0
 10
4580.0464050146692898
 20
206.1541944938009863
 30
0.0
 11
4577.4705300146688387
 21
206.1541944938009863
 31
0.0
  0
LINE
  5
AFCE
  8
0
 10
4577.4705300146688387
 20
206.1541944938009863
 30
0.0
 11
4577.4705300146688387
 21
208.6801944938009115
 31
0.0
  0
ARC
  5
AFCF
  8
0
 10
4578.1080577066468322
 20
208.8578681258875065
 30
0.0
 40
0.0209763731831983
 50
90.8209472796814197
 51
165.6805218255898069
  0
LINE
  5
AFD0
  8
0
 10
4578.1077571625692144
 20
208.8788423459010062
 30
0.0
 11
4580.1170144071447794
 21
208.8788427106773895
 31
0.0
  0
ARC
  5
AFD1
  8
0
 10
4580.117052201646402
 20
208.8588420811626065
 30
0.0
 40
0.0200006652243132
 50
0.0007583944567847
 51
90.1082697349481236
  0
ARC
  5
AFD2
  8
0
 10
4578.1088040455078954
 20
208.7671583812393976
 30
0.0
 40
0.0210698607675796
 50
182.6466546800741071
 51
267.1520133913314226
  0
LINE
  5
AFD3
  8
0
 10
4578.1077571625692144
 20
208.7461145444009958
 30
0.0
 11
4580.0648054973689796
 21
208.7461145444009958
 31
0.0
  0
ARC
  5
AFD4
  8
0
 10
4580.0640748264759168
 20
208.7253869199022915
 30
0.0
 40
0.0207404992243787
 50
2.0188986376976858
 51
87.9810986028120965
  0
LINE
  5
AFD5
  8
0
 10
4580.0848024512688426
 20
208.7261175897974965
 30
0.0
 11
4580.0827480233692768
 21
206.1488484389010125
 31
0.0
  0
ARC
  5
AFD6
  8
0
 10
4580.0627437156726955
 20
206.1488557926965086
 30
0.0
 40
0.0200043089472287
 50
270.0210628215997986
 51
359.9789377514039757
  0
LINE
  5
AFD7
  8
0
 10
4580.0627510695685487
 20
206.128851485100995
 30
0.0
 11
4579.6962676160319461
 21
206.1287167600650889
 31
0.0
  0
ARC
  5
AFD8
  8
0
 10
4579.7031128216958678
 20
206.1048099234039057
 30
0.0
 40
0.0248675225890384
 50
105.9779198290907942
 51
175.4096357465159031
  0
LINE
  5
AFD9
  8
0
 10
4579.6783250653679715
 20
206.1068001033009978
 30
0.0
 11
4579.6783250652688366
 21
206.1042713958941022
 31
0.0
  0
ARC
  5
AFDA
  8
0
 10
4579.6583379766598227
 20
206.1042615318092999
 30
0.0
 40
0.01998709104335
 50
269.9717180394233083
 51
0.0282767734607915
  0
LINE
  5
AFDB
  8
0
 10
4579.6583281107659786
 20
206.0842744432009965
 30
0.0
 11
4578.7164819168619943
 21
206.0842744432009965
 31
0.0
  0
ARC
  5
AFDC
  8
0
 10
4578.7170592437651067
 20
206.1048487227623127
 30
0.0
 40
0.0205823780409339
 50
181.6073294738878019
 51
268.3926670680015718
  0
LINE
  5
AFDD
  8
0
 10
4578.6964849641690307
 20
206.1042713971010016
 30
0.0
 11
4578.6964849641690307
 21
206.1067991083436937
 31
0.0
  0
ARC
  5
AFDE
  8
0
 10
4578.6757804071858118
 20
206.1060925353980906
 30
0.0
 40
0.0207166098869145
 50
1.9545427972453659
 51
88.0426064967230388
  0
LINE
  5
AFDF
  8
0
 10
4578.6764880102691677
 20
206.1267970572010029
 30
0.0
 11
4578.1077571625692144
 21
206.1267970572010029
 31
0.0
  0
ARC
  5
AFE0
  8
0
 10
4578.1085829639596341
 20
206.1059743019106918
 30
0.0
 40
0.0208391239214965
 50
92.2710804302372622
 51
183.9561514208712083
  0
ARC
  5
AFE1
  8
0
 10
4578.1077498022887085
 20
205.8995392813214096
 30
0.0
 40
0.0199895949753784
 50
183.3071110444593899
 51
270.0210966240870221
  0
LINE
  5
AFE2
  8
0
 10
4578.1077571625692144
 20
205.8795496877010009
 30
0.0
 11
4580.117243125719142
 21
205.8795484517009982
 31
0.0
  0
ARC
  5
AFE3
  8
0
 10
4580.1170238684189826
 20
205.8995732213691099
 30
0.0
 40
0.0200259699896519
 50
270.6273238673513788
 51
359.9239532974635836
  0
LINE
  5
AFE4
  8
0
 10
4580.1370498207688797
 20
205.8995466416010061
 30
0.0
 11
4580.1370528668694533
 21
208.8588423459011096
 31
0.0
  0
LINE
  5
AFE5
  8
0
 10
4578.0877934967020337
 20
206.1045365479106124
 30
0.0
 11
4578.0877934967020337
 21
205.8983861229289971
 31
0.0
  0
LINE
  5
AFE6
  8
0
 10
4579.9454050146678128
 20
208.6801944938009115
 30
0.0
 11
4579.9454050146678128
 21
206.1541944938009863
 31
0.0
  0
LINE
  5
AFE7
  8
0
 10
4579.7184050146688605
 20
208.6801944938009115
 30
0.0
 11
4579.7184050146688605
 21
206.1541944938009863
 31
0.0
  0
LINE
  5
AFE8
  8
0
 10
4579.6584050146693698
 20
208.6801944938009115
 30
0.0
 11
4579.6584050146693698
 21
206.1541944938009863
 31
0.0
  0
LINE
  5
AFE9
  8
0
 10
4578.4374050146689115
 20
208.6801944938009115
 30
0.0
 11
4578.4374050146689115
 21
206.1541944938009863
 31
0.0
  0
LINE
  5
AFEA
  8
0
 10
4578.3774050146694208
 20
208.6801944938009115
 30
0.0
 11
4578.3774050146694208
 21
206.1541944938009863
 31
0.0
  0
LINE
  5
AFEB
  8
0
 10
4578.140530014668002
 20
208.6801944938009115
 30
0.0
 11
4578.140530014668002
 21
206.1541944938009863
 31
0.0
  0
LINE
  5
AFEC
  8
0
 10
4577.88529773126902
 20
208.6801944938009115
 30
0.0
 11
4577.88529773126902
 21
206.1541944938009863
 31
0.0
  0
LINE
  5
AFED
  8
0
 10
4577.5952977312690564
 20
208.6801944938009115
 30
0.0
 11
4577.5952977312690564
 21
206.1541944938009863
 31
0.0
  0
CIRCLE
  5
AFEE
  8
0
 10
4579.3093425146689697
 20
207.8921944938009005
 30
0.0
 40
0.1300000000000001
  0
CIRCLE
  5
AFEF
  8
0
 10
4578.7864675146693116
 20
206.9421944938009972
 30
0.0
 40
0.1300000000000002
  0
CIRCLE
  5
AFF0
  8
0
 10
4579.3093425146689697
 20
206.9421944938009972
 30
0.0
 40
0.1300000000000002
  0
CIRCLE
  5
AFF1
  8
0
 10
4578.7864675146693116
 20
207.8921944938009005
 30
0.0
 40
0.1300000000000002
  0
LINE
  5
AFF2
  8
0
 10
4577.4104362146690619
 20
208.7831944938010054
 30
0.0
 11
4578.0504362146693893
 21
208.7831944938010054
 31
0.0
  0
LINE
  5
AFF3
  8
0
 10
4578.0504362146693893
 20
208.7831944938010054
 30
0.0
 11
4578.0489906352513572
 21
208.8245904736193097
 31
0.0
  0
ARC
  5
AFF4
  8
0
 10
4578.0090150021687805
 20
208.8231944938009974
 30
0.0
 40
0.0399999999999961
 50
1.999999928640771
 51
90.0
  0
LINE
  5
AFF5
  8
0
 10
4578.0090150021687805
 20
208.8631944938009042
 30
0.0
 11
4577.4518574272688056
 21
208.8631944938009042
 31
0.0
  0
ARC
  5
AFF6
  8
0
 10
4577.4518574272688056
 20
208.8231944938009121
 30
0.0
 40
0.0400000000000134
 50
90.0
 51
177.9999983223356992
  0
LINE
  5
AFF7
  8
0
 10
4577.4118817942289752
 20
208.8245904748395105
 30
0.0
 11
4577.4104362135049087
 21
208.7831944938415916
 31
0.0
  0
CIRCLE
  5
AFF8
  8
0
 10
4577.7402977312704024
 20
202.1541945673461953
 30
0.0
 40
0.095
  0
CIRCLE
  5
AFF9
  8
0
 10
4577.7402977312704024
 20
177.2611945673463083
 30
0.0
 40
0.095
  0
CIRCLE
  5
AFFA
  8
0
 10
4577.7402977312704024
 20
154.6181945673463076
 30
0.0
 40
0.095
  0
LINE
  5
AFFB
  8
0
 10
4577.4944362146688945
 20
208.7831944938010054
 30
0.0
 11
4577.4944362146688945
 21
208.6801944938009115
 31
0.0
  0
LINE
  5
AFFC
  8
0
 10
4577.9746365905693892
 20
208.7831944938010054
 30
0.0
 11
4577.9746365905693892
 21
208.6801944938009115
 31
0.0
  0
LINE
  5
AFFD
  8
0
 10
4577.9746365905693892
 20
206.1541944938009863
 30
0.0
 11
4577.9746365905693892
 21
152.6724363679462897
 31
0.0
  0
LINE
  5
AFFE
  8
0
 10
4578.0462758094690798
 20
208.7831944938010054
 30
0.0
 11
4578.0462758094690798
 21
208.6801944938009115
 31
0.0
  0
LINE
  5
AFFF
  8
0
 10
4578.0564276646691724
 20
206.1541944938009863
 30
0.0
 11
4578.0564276646691724
 21
152.6724363679462897
 31
0.0
  0
LINE
  5
B000
  8
0
 10
4578.4679547996693145
 20
176.0491945673028056
 30
0.0
 11
4578.9579547996690962
 21
176.0491945673028056
 31
0.0
  0
ARC
  5
B001
  8
0
 10
4578.9579547996690962
 20
176.0191945673028897
 30
0.0
 40
0.0300000000000011
 50
0.0
 51
90.0
  0
LINE
  5
B002
  8
0
 10
4578.9879547996688416
 20
176.0191945673028897
 30
0.0
 11
4578.9879547996688416
 21
167.079194567302892
 31
0.0
  0
ARC
  5
B003
  8
0
 10
4578.9579547996690962
 20
167.079194567302892
 30
0.0
 40
0.0300000000000011
 50
270.0
 51
0.0
  0
LINE
  5
B004
  8
0
 10
4578.9579547996690962
 20
167.0491945673028056
 30
0.0
 11
4578.4679547996693145
 21
167.0491945673028056
 31
0.0
  0
LINE
  5
B005
  8
0
 10
4579.8963406264692821
 20
176.0491945673028056
 30
0.0
 11
4579.4063406264685909
 21
176.0491945673028056
 31
0.0
  0
ARC
  5
B006
  8
0
 10
4579.4063406264685909
 20
176.0191945673028897
 30
0.0
 40
0.029999999999994
 50
90.0
 51
180.0000000000129887
  0
LINE
  5
B007
  8
0
 10
4579.3763406264688456
 20
176.0191945673028897
 30
0.0
 11
4579.3763406264706646
 21
167.079194567302892
 31
0.0
  0
ARC
  5
B008
  8
0
 10
4579.4063406264713194
 20
167.079194567302892
 30
0.0
 40
0.0300000000000083
 50
180.0000000000129887
 51
269.9999999959354113
  0
LINE
  5
B009
  8
0
 10
4579.4063406264685909
 20
167.0491945673028056
 30
0.0
 11
4579.8963406264692821
 21
167.0491945672681879
 31
0.0
  0
LINE
  5
B00A
  8
0
 10
4580.1193406263691941
 20
176.0491945673028056
 30
0.0
 11
4580.6093406263717043
 21
176.0491945673028056
 31
0.0
  0
ARC
  5
B00B
  8
0
 10
4580.6093406263717043
 20
176.0191945673028897
 30
0.0
 40
0.029999999999994
 50
359.9999999999869829
 51
90.0
  0
LINE
  5
B00C
  8
0
 10
4580.6393406263723591
 20
176.0191945673028897
 30
0.0
 11
4580.6393406263678116
 21
167.079194567302892
 31
0.0
  0
ARC
  5
B00D
  8
0
 10
4580.6093406263689758
 20
167.079194567302892
 30
0.0
 40
0.0300000000000083
 50
270.0000000040645887
 51
359.9999999999869829
  0
LINE
  5
B00E
  8
0
 10
4580.6093406263717043
 20
167.0491945673028056
 30
0.0
 11
4580.1193406263691941
 21
167.0491945672681879
 31
0.0
  0
LINE
  5
B010
  8
0
 10
4579.1883951370691648
 20
209.6871674229601012
 30
0.0
 11
4579.1883951370691648
 21
209.6391843433025883
 31
0.0
  0
ARC
  5
B011
  8
0
 10
4579.2043951370678769
 20
209.6871674229601012
 30
0.0
 40
0.0160000000000338
 50
100.7908689317472977
 51
179.9999999999234035
  0
ARC
  5
B012
  8
0
 10
4579.2048463022347278
 20
209.6390575597467034
 30
0.0
 40
0.0164516536899352
 50
179.558449581919092
 51
257.9064487637513139
  0
LINE
  5
B013
  8
0
 10
4577.5391101312688988
 20
204.6801945673462058
 30
0.0
 11
4577.9412977312686053
 21
204.6801945673462058
 31
0.0
  0
LINE
  5
B014
  8
0
 10
4577.9412977312686053
 20
204.6801945673462058
 30
0.0
 11
4577.9412977312686053
 21
206.1541944938009863
 31
0.0
  0
LINE
  5
B015
  8
0
 10
4577.5391101312688988
 20
204.6801945673462058
 30
0.0
 11
4577.5391101312688988
 21
206.1541944938009863
 31
0.0
  0
LINE
  5
B016
  8
0
 10
4578.0002977312688017
 20
206.1541944938009863
 30
0.0
 11
4578.0002977312688017
 21
152.6724363679462897
 31
0.0
  0
LINE
  5
B017
  8
0
 10
4577.4802977312692747
 20
206.1541944938009863
 30
0.0
 11
4577.4802977312692747
 21
152.4139607550235951
 31
0.0
  0
LINE
  5
B018
  8
0
 10
4577.4243062812693097
 20
208.7831944938010054
 30
0.0
 11
4577.4243062812693097
 21
150.6181945673461939
 31
0.0
  0
LINE
  5
B019
  8
0
 10
4577.5352977312686562
 20
207.9301945673462058
 30
0.0
 11
4577.5952933360686075
 21
207.9301945673462058
 31
0.0
  0
LINE
  5
B01A
  8
0
 10
4577.5952933360686075
 20
207.8676945673462058
 30
0.0
 11
4577.5352977312686562
 21
207.8676945673462058
 31
0.0
  0
LINE
  5
B01B
  8
0
 10
4577.5352977312686562
 20
207.8676945673462058
 30
0.0
 11
4577.5352977312686562
 21
207.9301945673462058
 31
0.0
  0
LINE
  5
B01C
  8
0
 10
4577.8853021263694245
 20
207.9301945673462058
 30
0.0
 11
4577.9452977312694202
 21
207.9301945673462058
 31
0.0
  0
LINE
  5
B01D
  8
0
 10
4577.9452977312694202
 20
207.9301945673462058
 30
0.0
 11
4577.9452977312694202
 21
207.8676945673462058
 31
0.0
  0
LINE
  5
B01E
  8
0
 10
4577.9452977312694202
 20
207.8676945673462058
 30
0.0
 11
4577.8853021263694245
 21
207.8676945673462058
 31
0.0
  0
LINE
  5
B01F
  8
0
 10
4578.9017290155679802
 20
208.7111608970461987
 30
0.0
 11
4578.9017290155679802
 21
208.6801944938009115
 31
0.0
  0
LINE
  5
B020
  8
0
 10
4579.1716164468689385
 20
208.7311608970462089
 30
0.0
 11
4578.9217290155693263
 21
208.7311608970462089
 31
0.0
  0
LINE
  5
B021
  8
0
 10
4579.1916164468693751
 20
208.7069185064858061
 30
0.0
 11
4579.1916164468693751
 21
208.7111608970461987
 31
0.0
  0
LINE
  5
B022
  8
0
 10
4579.1800985694526389
 20
208.6888062565849964
 30
0.0
 11
4579.1617094931243628
 21
208.6801944938009115
 31
0.0
  0
ARC
  5
B023
  8
0
 10
4579.1716164468689385
 20
208.7069185064858061
 30
0.0
 40
0.02
 50
295.0940974150204283
 51
0.0000000000407111
  0
ARC
  5
B024
  8
0
 10
4579.1716164468689385
 20
208.7111608970461987
 30
0.0
 40
0.02
 50
359.9999999999380975
 51
90.0000000000521254
  0
ARC
  5
B025
  8
0
 10
4578.9217290155693263
 20
208.7111608970461987
 30
0.0
 40
0.02
 50
89.9999999999478888
 51
180.0000000000406999
  0
LINE
  5
B026
  8
0
 10
4577.5303094629907719
 20
208.7756217549114979
 30
0.0
 11
4577.5350042456420852
 21
208.6801944938009115
 31
0.0
  0
ARC
  5
B027
  8
0
 10
4577.520937603035236
 20
208.7741190711190882
 30
0.0
 40
0.0094915656017779
 50
9.1092688357460236
 51
72.9709815150774403
  0
LINE
  5
B028
  8
0
 10
4577.9499102515419509
 20
208.7756217549114979
 30
0.0
 11
4577.9452154688897281
 21
208.6801944938009115
 31
0.0
  0
ARC
  5
B029
  8
0
 10
4577.9592821114956678
 20
208.7741190711190882
 30
0.0
 40
0.0094915656017779
 50
107.0290184849225028
 51
170.8907311642539923
  0
LINE
  5
B02A
  8
0
 10
4577.7155589363746913
 20
208.7756217549114979
 30
0.0
 11
4577.7202537190260045
 21
208.6801944938009115
 31
0.0
  0
ARC
  5
B02B
  8
0
 10
4577.7061870764200648
 20
208.7741190711190882
 30
0.0
 40
0.0094915656017779
 50
9.1092688357460236
 51
72.9709815150774403
  0
LINE
  5
B02C
  8
0
 10
4577.7652015019566534
 20
208.7756217549114979
 30
0.0
 11
4577.7605067193071591
 21
208.6801944938009115
 31
0.0
  0
ARC
  5
B02D
  8
0
 10
4577.7745733619121893
 20
208.7741190711190882
 30
0.0
 40
0.0094915656017779
 50
107.0290184849225028
 51
170.8907311642539923
  0
LINE
  5
B02E
  8
0
 10
4579.3065047026693719
 20
208.6801944938009115
 30
0.0
 11
4579.3065047034688178
 21
208.7091945674980025
 31
0.0
  0
LINE
  5
B02F
  8
0
 10
4579.3465047026693355
 20
208.6801944938009115
 30
0.0
 11
4579.3465047018689802
 21
208.7091888720115946
 31
0.0
  0
ARC
  5
B030
  8
0
 10
4579.3265047030690766
 20
208.709194566946195
 30
0.0
 40
0.0199999996000031
 50
359.9836852136132848
 51
179.9999984194110993
  0
LINE
  5
B031
  8
0
 10
4579.6553019001767098
 20
208.691371126646203
 30
0.0
 11
4579.4299890087258973
 21
208.691371126646203
 31
0.0
  0
ARC
  5
B032
  8
0
 10
4579.4299890087258973
 20
208.6513777568133037
 30
0.0
 40
0.0399933698399673
 50
90.0
 51
133.9010952503583098
  0
ARC
  5
B033
  8
0
 10
4579.6553398389532958
 20
208.6513362646493022
 30
0.0
 40
0.0400348799726069
 50
46.1228152454527205
 51
90.0542959571244239
  0
LINE
  5
B034
  8
0
 10
4578.7190935501039348
 20
208.691371126646203
 30
0.0
 11
4578.8030269783430413
 21
208.691371126646203
 31
0.0
  0
ARC
  5
B035
  8
0
 10
4578.8030269783430413
 20
208.6513777568133037
 30
0.0
 40
0.0399933698399673
 50
46.0989047496417328
 51
90.0
  0
ARC
  5
B036
  8
0
 10
4578.7190556113264392
 20
208.6513362646493022
 30
0.0
 40
0.0400348799726069
 50
89.9457040427713537
 51
133.8771847545473008
  0
LINE
  5
B037
  8
0
 10
4578.7131727312680596
 20
206.1541944938009863
 30
0.0
 11
4578.7131727312680596
 21
206.1211945673462083
 31
0.0
  0
LINE
  5
B038
  8
0
 10
4578.7331727312694056
 20
206.101194567346198
 30
0.0
 11
4579.6411727312679432
 21
206.101194567346198
 31
0.0
  0
LINE
  5
B039
  8
0
 10
4579.6611727312692892
 20
206.1541944938009863
 30
0.0
 11
4579.6611727312692892
 21
206.1211945673462083
 31
0.0
  0
ARC
  5
B03A
  8
0
 10
4578.7331727312694056
 20
206.1211945673462083
 30
0.0
 40
0.02
 50
179.9999999999787974
 51
269.9999999999478746
  0
ARC
  5
B03B
  8
0
 10
4579.6411727312679432
 20
206.1211945673462083
 30
0.0
 40
0.02
 50
269.9999999999478746
 51
0.0000000000814222
  0
LINE
  5
B03C
  8
0
 10
4577.7433591986691681
 20
154.5232439095424866
 30
0.0
 11
4577.7433591986691681
 21
152.6724363679462897
 31
0.0
  0
LINE
  5
B03D
  8
0
 10
4577.7433591986691681
 20
154.7131452251499866
 30
0.0
 11
4577.7433591986691681
 21
177.1662439095426009
 31
0.0
  0
LINE
  5
B03E
  8
0
 10
4577.7433591986691681
 20
177.3561452251499873
 30
0.0
 11
4577.7433591986691681
 21
202.0592439095424879
 31
0.0
  0
LINE
  5
B03F
  8
0
 10
4577.7433591986691681
 20
202.2491452251499879
 30
0.0
 11
4577.7433591986691681
 21
204.6801945673462058
 31
0.0
  0
LINE
  5
B040
  8
0
 10
4577.7372362637688639
 20
154.5232439095458119
 30
0.0
 11
4577.7372362637688639
 21
152.6724363679462897
 31
0.0
  0
LINE
  5
B041
  8
0
 10
4577.7372362637688639
 20
154.7131452251468033
 30
0.0
 11
4577.7372362637688639
 21
177.1662439095458126
 31
0.0
  0
LINE
  5
B042
  8
0
 10
4577.7372362637688639
 20
177.356145225146804
 30
0.0
 11
4577.7372362637688639
 21
202.0592439095456996
 31
0.0
  0
LINE
  5
B043
  8
0
 10
4577.7372362637688639
 20
202.249145225146691
 30
0.0
 11
4577.7372362637688639
 21
204.6801945673462058
 31
0.0
  0
LINE
  5
B044
  8
0
 10
4577.5867039312679481
 20
204.6801945673462058
 30
0.0
 11
4577.5867039312679481
 21
206.1541944938009863
 31
0.0
  0
LINE
  5
B045
  8
0
 10
4577.8937039312686466
 20
204.6801945673462058
 30
0.0
 11
4577.8937039312686466
 21
206.1541944938009863
 31
0.0
  0
LINE
  5
B046
  8
0
 10
4580.5289581213692145
 20
150.5401945673463047
 30
0.0
 11
4580.4734840573046313
 21
151.5987027668462872
 31
0.0
  0
LINE
  5
B047
  8
0
 10
4577.543297731270286
 20
150.5401945673463047
 30
0.0
 11
4578.2102977312688381
 21
150.5401945673463047
 31
0.0
  0
LINE
  5
B048
  8
0
 10
4577.4243062812693097
 20
150.6181945673463076
 30
0.0
 11
4578.2102977312688381
 21
150.6181945673463076
 31
0.0
  0
LINE
  5
B049
  8
0
 10
4577.5352977312686562
 20
150.548194567346286
 30
0.0
 11
4577.5352977312686562
 21
151.5356945673462121
 31
0.0
  0
ARC
  5
B04A
  8
0
 10
4577.543297731270286
 20
150.5481945673462008
 30
0.0
 40
0.008
 50
179.9999999998468923
 51
269.999999999895806
  0
LINE
  5
B04B
  8
0
 10
4578.2877502684932551
 20
150.582641435554109
 30
0.0
 11
4578.682458121320451
 21
150.5401945673463047
 31
0.0
  0
LINE
  5
B04C
  8
0
 10
4578.2457756713256458
 20
150.6690600550028023
 30
0.0
 11
4578.2457756713256458
 21
150.6293719965005948
 31
0.0
  0
LINE
  5
B04D
  8
0
 10
4578.2103481640151585
 20
150.7174738058463106
 30
0.0
 11
4578.0561373260679829
 21
150.7174738058463106
 31
0.0
  0
LINE
  5
B04E
  8
0
 10
4578.2117756713259951
 20
150.7011945673461923
 30
0.0
 11
4578.0561373260679829
 21
150.7011945673461923
 31
0.0
  0
ARC
  5
B04F
  8
0
 10
4578.1961006530063969
 20
150.6662932038196061
 30
0.0
 40
0.0497520141352377
 50
3.188026215569717
 51
49.852097521769231
  0
ARC
  5
B050
  8
0
 10
4578.118600021293787
 20
150.5744142616960914
 30
0.0
 40
0.1699522134756777
 50
49.852097521769231
 51
57.3267951626296224
  0
ARC
  5
B051
  8
0
 10
4578.2117756713259951
 20
150.6671945673462005
 30
0.0
 40
0.034
 50
0.0000000000488533
 51
90.0
  0
ARC
  5
B052
  8
0
 10
4578.292775671326126
 20
150.6293719965005948
 30
0.0
 40
0.047
 50
180.0
 51
263.8620030705953923
  0
LINE
  5
B053
  8
0
 10
4578.2262977312693693
 20
150.6021945673462028
 30
0.0
 11
4578.2262977312693693
 21
150.5561945673462958
 31
0.0
  0
ARC
  5
B054
  8
0
 10
4578.2102977312688381
 20
150.6021945673462028
 30
0.0
 40
0.016
 50
0.0000000000504818
 51
90.0
  0
ARC
  5
B055
  8
0
 10
4578.2102977312688381
 20
150.5561945673462958
 30
0.0
 40
0.016
 50
270.0
 51
359.9999999999740226
  0
LINE
  5
B056
  8
0
 10
4578.682458121320451
 20
150.5401945673463047
 30
0.0
 11
4580.5289581213692145
 21
150.5401945673463047
 31
0.0
  0
LINE
  5
B057
  8
0
 10
4578.2049581213686906
 20
150.6481945673463088
 30
0.0
 11
4578.2049581213686906
 21
150.7011945673461923
 31
0.0
  0
LINE
  5
B058
  8
0
 10
4578.2049581213686906
 20
150.6481945673463088
 30
0.0
 11
4578.1749581213680358
 21
150.6181945673461939
 31
0.0
  0
LINE
  5
B059
  8
0
 10
4578.0561373260679829
 20
150.6181945673463076
 30
0.0
 11
4578.0561373260679829
 21
151.5987027668462872
 31
0.0
  0
LINE
  5
B05A
  8
0
 10
4577.4802977312692747
 20
151.5356945673462121
 30
0.0
 11
4578.0002977312688017
 21
151.5356945673462121
 31
0.0
  0
LINE
  5
B05B
  8
0
 10
4578.0002977312688017
 20
151.5356945673462121
 30
0.0
 11
4578.0002977312688017
 21
150.6181945673463076
 31
0.0
  0
LINE
  5
B05C
  8
0
 10
4577.5427977312692747
 20
151.5987027668462872
 30
0.0
 11
4580.66166453176902
 21
151.5987027668462872
 31
0.0
  0
LINE
  5
B05D
  8
0
 10
4577.5419811965803092
 20
151.6011543628133893
 30
0.0
 11
4577.5427977312692747
 21
151.5987027668462872
 31
0.0
  0
LINE
  5
B05E
  8
0
 10
4577.4881668182688372
 20
151.6019782530462123
 30
0.0
 11
4577.5327003079437418
 21
151.6019782530462123
 31
0.0
  0
ARC
  5
B05F
  8
0
 10
4577.4881668182688372
 20
151.6099782530461937
 30
0.0
 40
0.008
 50
179.9999999998468923
 51
270.000000000104194
  0
LINE
  5
B060
  8
0
 10
4577.5419811965803092
 20
151.6011543628133893
 30
0.0
 11
4577.5327003079437418
 21
151.6019782530462123
 31
0.0
  0
LINE
  5
B061
  8
0
 10
4577.5427977312692747
 20
151.5987027668462872
 30
0.0
 11
4577.5427977312692747
 21
151.6955695673462117
 31
0.0
  0
LINE
  5
B062
  8
0
 10
4577.5419811965803092
 20
151.6011543628133893
 30
0.0
 11
4577.5419811965803092
 21
151.6963861020352908
 31
0.0
  0
LINE
  5
B063
  8
0
 10
4577.4802977312692747
 20
151.5356945673462121
 30
0.0
 11
4577.4802977312692747
 21
150.6181945673463076
 31
0.0
  0
LINE
  5
B064
  8
0
 10
4577.4954969237687692
 20
151.5356945673462121
 30
0.0
 11
4577.4954969237687692
 21
151.6019782530462123
 31
0.0
  0
LINE
  5
B065
  8
0
 10
4577.7372362638679988
 20
150.6181945673463076
 30
0.0
 11
4577.7372362638679988
 21
151.5356945673462121
 31
0.0
  0
LINE
  5
B066
  8
0
 10
4577.7433591987692125
 20
150.6181945673463076
 30
0.0
 11
4577.7433591987692125
 21
151.5356945673462121
 31
0.0
  0
LINE
  5
B067
  8
0
 10
4577.7568890302682121
 20
150.6181945673463076
 30
0.0
 11
4577.7568890302682121
 21
151.5356945673462121
 31
0.0
  0
LINE
  5
B068
  8
0
 10
4577.7237064323689992
 20
150.6181945673463076
 30
0.0
 11
4577.7237064323689992
 21
151.5356945673462121
 31
0.0
  0
ARC
  5
B069
  8
0
 10
4577.6177100405648162
 20
150.5481945673527093
 30
0.0
 40
0.0080000000073903
 50
289.8698424305769095
 51
23.4158538203563502
  0
ARC
  5
B06A
  8
0
 10
4577.5048397435057268
 20
150.4993141439761928
 30
0.0
 40
0.1309999989810586
 50
23.4158538203533695
 51
50.4769638272444894
  0
LINE
  5
B06B
  8
0
 10
4577.5852977312679286
 20
150.6065344038059095
 30
0.0
 11
4577.5852977312679286
 21
150.6181945673463076
 31
0.0
  0
ARC
  5
B06C
  8
0
 10
4577.5932977312713774
 20
150.6065344038065916
 30
0.0
 40
0.008
 50
180.0000000051392988
 51
230.4769638227211885
  0
ARC
  5
B06D
  8
0
 10
4577.5757030172690065
 20
150.4041447817479877
 30
0.0
 40
0.2299999999980624
 50
61.7244552387413421
 51
68.5365602432568153
  0
ARC
  5
B06E
  8
0
 10
4577.6903028587958033
 20
150.6132531915604886
 30
0.0
 40
0.0086491196667729
 50
229.2482310694302043
 51
308.6490683689675052
  0
ARC
  5
B06F
  8
0
 10
4577.8584754482080825
 20
150.4338920585701089
 30
0.0
 40
0.2372493695839153
 50
129.0272274038543117
 51
133.3201859964397045
  0
ARC
  5
B070
  8
0
 10
4577.7658854220690046
 20
150.5481945673462008
 30
0.0
 40
0.007999999999981
 50
161.7921850087136022
 51
267.4028300897060717
  0
ARC
  5
B071
  8
0
 10
4577.8776104597509402
 20
150.5001354794017061
 30
0.0
 40
0.1295936825412438
 50
140.5855234059515055
 51
157.0372094734125881
  0
ARC
  5
B072
  8
0
 10
4577.7724980109260287
 20
150.589222505708193
 30
0.0
 40
0.0084393100334314
 50
306.263475830986124
 51
52.9299658014878602
  0
ARC
  5
B073
  8
0
 10
4577.8815778435073298
 20
150.7710754233598891
 30
0.0
 40
0.2036693743104376
 50
228.6451986051424967
 51
239.2964868664664095
  0
LINE
  5
B074
  8
0
 10
4578.0418657772688675
 20
150.6181945673463076
 30
0.0
 11
4578.0418657772688675
 21
151.5987027668462872
 31
0.0
  0
LINE
  5
B075
  8
0
 10
4578.0117452807689915
 20
150.6181945673463076
 30
0.0
 11
4578.0117452807689915
 21
151.5987027668462872
 31
0.0
  0
LINE
  5
B076
  8
0
 10
4577.9850985387702167
 20
151.5356945673462121
 30
0.0
 11
4577.9850985387702167
 21
151.5987027668462872
 31
0.0
  0
LINE
  5
B077
  8
0
 10
4577.9711298477677701
 20
151.5356945673462121
 30
0.0
 11
4577.9711298477677701
 21
151.5987027668462872
 31
0.0
  0
LINE
  5
B078
  8
0
 10
4577.4688501818691293
 20
150.6181945673463076
 30
0.0
 11
4577.4688501818691293
 21
208.7831944938010054
 31
0.0
  0
LINE
  5
B079
  8
0
 10
4577.5427977312692747
 20
151.6955695673462117
 30
0.0
 11
4577.5419811965803092
 21
151.6963861020352908
 31
0.0
  0
LINE
  5
B07A
  8
0
 10
4577.5419811965803092
 20
151.6963861020352908
 30
0.0
 11
4577.4801668182681169
 21
151.6989233035104974
 31
0.0
  0
LINE
  5
B07B
  8
0
 10
4580.66166453176902
 20
152.6724363679462897
 30
0.0
 11
4577.4801668182681169
 21
152.6724363679462897
 31
0.0
  0
LINE
  5
B07C
  8
0
 10
4577.5427977312692747
 20
152.5755695673462924
 30
0.0
 11
4577.5419811965803092
 21
152.5747530326572985
 31
0.0
  0
LINE
  5
B07D
  8
0
 10
4577.5419811965803092
 20
152.5747530326572985
 30
0.0
 11
4577.5352957627383148
 21
152.574478625746309
 31
0.0
  0
LINE
  5
B07E
  8
0
 10
4577.4802977312692747
 20
152.574478625746309
 30
0.0
 11
4577.5352957627383148
 21
152.574478625746309
 31
0.0
  0
LINE
  5
B07F
  8
0
 10
4578.7133989354715595
 20
150.7646936603983079
 30
0.0
 11
4578.7541011100138348
 21
151.5987027668462872
 31
0.0
  0
LINE
  5
B080
  8
0
 10
4578.3413087410790467
 20
150.7616936751009007
 30
0.0
 11
4578.318120352760161
 21
151.204154481346194
 31
0.0
  0
LINE
  5
B081
  8
0
 10
4578.6274120336884152
 20
150.6801945673462058
 30
0.0
 11
4578.4271908810669629
 21
150.6801945673462058
 31
0.0
  0
ARC
  5
B082
  8
0
 10
4578.6274120336884152
 20
150.7661945673463038
 30
0.0
 40
0.086
 50
270.0
 51
359.0000000037525751
  0
ARC
  5
B083
  8
0
 10
4578.4271908810669629
 20
150.7661945673461901
 30
0.0
 40
0.086
 50
183.0000000056334102
 51
270.0
  0
LINE
  5
B084
  8
0
 10
4578.5212887826546648
 20
151.4566283708732044
 30
0.0
 11
4578.5212887826546648
 21
151.446551834119191
 31
0.0
  0
LINE
  5
B085
  8
0
 10
4578.5258579168694268
 20
151.4355209683326962
 30
0.0
 11
4578.5367196485422028
 21
151.4246592366596929
 31
0.0
  0
LINE
  5
B086
  8
0
 10
4578.5477505143280723
 20
151.4200901024462098
 30
0.0
 11
4578.7453842701315807
 21
151.4200901024462098
 31
0.0
  0
LINE
  5
B087
  8
0
 10
4578.5477505142280279
 20
151.4830901024463117
 30
0.0
 11
4578.7484588612560401
 21
151.4830901024463117
 31
0.0
  0
LINE
  5
B088
  8
0
 10
4578.5367196484421584
 20
151.4785209682326865
 30
0.0
 11
4578.5258579168694268
 21
151.4676592366596992
 31
0.0
  0
ARC
  5
B089
  8
0
 10
4578.5477505142280279
 20
151.4674901024463054
 30
0.0
 40
0.0156
 50
89.9999999999478888
 51
135.000000000299309
  0
ARC
  5
B08A
  8
0
 10
4578.5368887826562059
 20
151.4566283708732044
 30
0.0
 40
0.0156
 50
135.0000000001427907
 51
180.000000000052097
  0
ARC
  5
B08B
  8
0
 10
4578.5368887826562059
 20
151.446551834119191
 30
0.0
 40
0.0156
 50
180.0000000000260059
 51
224.9999999999309068
  0
ARC
  5
B08C
  8
0
 10
4578.5477505143280723
 20
151.4356901024463014
 30
0.0
 40
0.0156
 50
225.0000000002993943
 51
270.000000000104194
  0
LINE
  5
B08D
  8
0
 10
4578.7086182621569606
 20
151.4566283708732044
 30
0.0
 11
4578.7086182621569606
 21
151.446551834119191
 31
0.0
  0
LINE
  5
B08E
  8
0
 10
4578.7131873963708131
 20
151.4355209683326962
 30
0.0
 11
4578.724049128043589
 21
151.4246592366596929
 31
0.0
  0
LINE
  5
B08F
  8
0
 10
4578.7240491279444541
 20
151.4785209682326865
 30
0.0
 11
4578.7131873963708131
 21
151.4676592366596992
 31
0.0
  0
ARC
  5
B090
  8
0
 10
4578.7350799937312331
 20
151.4674901024463054
 30
0.0
 40
0.0156
 50
89.9999999999478888
 51
135.000000000299309
  0
ARC
  5
B091
  8
0
 10
4578.7242182621566826
 20
151.4566283708732044
 30
0.0
 40
0.0156
 50
135.0000000001427907
 51
180.000000000052097
  0
ARC
  5
B092
  8
0
 10
4578.7242182621566826
 20
151.446551834119191
 30
0.0
 40
0.0156
 50
180.0000000000260059
 51
224.9999999999309068
  0
ARC
  5
B093
  8
0
 10
4578.735079993832187
 20
151.4356901024463014
 30
0.0
 40
0.0156
 50
225.0000000002993943
 51
270.000000000104194
  0
LINE
  5
B094
  8
0
 10
4578.5367196484421584
 20
151.4785209682328002
 30
0.0
 11
4578.7240491279444541
 21
151.4785209682328002
 31
0.0
  0
LINE
  5
B095
  8
0
 10
4578.5367196485422028
 20
151.4246592366596929
 30
0.0
 11
4578.724049128043589
 21
151.4246592366596929
 31
0.0
  0
LINE
  5
B096
  8
0
 10
4578.7131873963708131
 20
151.4676592366596992
 30
0.0
 11
4578.5258579168676079
 21
151.4676592366596992
 31
0.0
  0
LINE
  5
B097
  8
0
 10
4578.7131873963708131
 20
151.4355209683326109
 30
0.0
 11
4578.5258579168694268
 21
151.4355209683326109
 31
0.0
  0
LINE
  5
B098
  8
0
 10
4578.274303227769451
 20
151.4591945673462874
 30
0.0
 11
4578.0561373260679829
 21
151.4591945673462874
 31
0.0
  0
LINE
  5
B099
  8
0
 10
4578.274303227769451
 20
151.4991835744461923
 30
0.0
 11
4578.0561373260679829
 21
151.4991835744461923
 31
0.0
  0
LINE
  5
B09A
  8
0
 10
4580.5791873558382576
 20
151.8831128729661941
 30
0.0
 11
4580.1111873558384104
 21
151.8790286987984075
 31
0.0
  0
LINE
  5
B09B
  8
0
 10
4580.095047731268096
 20
151.8950280895674041
 30
0.0
 11
4580.095047731268096
 21
152.3761110452250875
 31
0.0
  0
LINE
  5
B09C
  8
0
 10
4580.1111873558384104
 20
152.3921104359941125
 30
0.0
 11
4580.5791873558382576
 21
152.3880262618262975
 31
0.0
  0
LINE
  5
B09D
  8
0
 10
4580.5950477312690055
 20
151.8991122637351907
 30
0.0
 11
4580.5950477312690055
 21
152.3720268710573009
 31
0.0
  0
ARC
  5
B09E
  8
0
 10
4580.5790477312693838
 20
151.8991122637351907
 30
0.0
 40
0.016
 50
270.5000000051246047
 51
0.0000000000130276
  0
ARC
  5
B09F
  8
0
 10
4580.1110477312704461
 20
151.8950280895674041
 30
0.0
 40
0.016
 50
180.0000000000634941
 51
270.5000000049681717
  0
ARC
  5
B0A0
  8
0
 10
4580.1110477312704461
 20
152.3761110452250875
 30
0.0
 40
0.016
 50
89.4999999948232841
 51
180.000000000037403
  0
ARC
  5
B0A1
  8
0
 10
4580.5790477312693838
 20
152.3720268710573009
 30
0.0
 40
0.016
 50
359.9999999999869829
 51
89.4999999949796319
  0
LINE
  5
B0A2
  8
0
 10
4577.4802977312692747
 20
152.4692528775123037
 30
0.0
 11
4577.5419811965703047
 21
152.4688861020950128
 31
0.0
  0
LINE
  5
B0A3
  8
0
 10
4577.5419811965703047
 20
152.4688861020950128
 30
0.0
 11
4577.5427977312692747
 21
152.4680695673463049
 31
0.0
  0
LINE
  5
B0A4
  8
0
 10
4577.5427977312692747
 20
152.4680695673463049
 30
0.0
 11
4577.5427977312692747
 21
152.4145244326462887
 31
0.0
  0
LINE
  5
B0A5
  8
0
 10
4577.5427977312692747
 20
152.4145244326462887
 30
0.0
 11
4577.5419811965703047
 21
152.4137149927462076
 31
0.0
  0
LINE
  5
B0A6
  8
0
 10
4577.5419811965703047
 20
152.4137149927462076
 30
0.0
 11
4577.4802977312692747
 21
152.4139607550237088
 31
0.0
  0
LINE
  5
B0A7
  8
0
 10
4578.2302977312692747
 20
152.3926637317399866
 30
0.0
 11
4578.2302977312692747
 21
151.8784754031352975
 31
0.0
  0
LINE
  5
B0A8
  8
0
 10
4577.4801668182681169
 20
151.8560681304475963
 30
0.0
 11
4578.2144373558367079
 21
151.8624760123661872
 31
0.0
  0
LINE
  5
B0A9
  8
0
 10
4578.2144373558348889
 20
152.4086631225090969
 30
0.0
 11
4577.5427977312692747
 21
152.4145244326462887
 31
0.0
  0
ARC
  5
B0AA
  8
0
 10
4578.214297731267834
 20
152.3926637317401003
 30
0.0
 40
0.016
 50
359.999999999949523
 51
89.5000000058710867
  0
ARC
  5
B0AB
  8
0
 10
4578.214297731267834
 20
151.8784754031352975
 30
0.0
 40
0.016
 50
270.5000000012162218
 51
359.9999999999234888
  0
LINE
  5
B0AC
  8
0
 10
4577.5054084242692625
 20
151.8855695673462094
 30
0.0
 11
4578.2302977312692747
 21
151.8855695673462094
 31
0.0
  0
LINE
  5
B0AD
  8
0
 10
4577.5054084242692625
 20
152.3855695673462947
 30
0.0
 11
4577.5054084242692625
 21
151.8855695673462094
 31
0.0
  0
LINE
  5
B0AE
  8
0
 10
4577.5054084242692625
 20
152.3855695673462947
 30
0.0
 11
4578.2302977312692747
 21
152.3855695673462947
 31
0.0
  0
CIRCLE
  5
B0AF
  8
0
 10
4577.7402977312704024
 20
152.1030695673462105
 30
0.0
 40
0.0820000000000018
  0
ARC
  5
B0B0
  8
0
 10
4577.7416216528981749
 20
152.1317878202706027
 30
0.0
 40
0.0728850325450638
 50
5.3887818581932194
 51
169.3322442771820988
  0
ARC
  5
B0B1
  8
0
 10
4577.732141411766861
 20
152.1349916418944872
 30
0.0
 40
0.0714000440102233
 50
20.9293916091807795
 51
75.9080815213716704
  0
LINE
  5
B0B2
  8
0
 10
4578.1739076994681454
 20
151.8855695673462094
 30
0.0
 11
4578.1739076994681454
 21
152.3855695673462947
 31
0.0
  0
LINE
  5
B0B3
  8
0
 10
4578.1251339988693871
 20
151.8855695673462094
 30
0.0
 11
4578.1251339988693871
 21
152.3855695673462947
 31
0.0
  0
LINE
  5
B0B4
  8
0
 10
4577.9508602474688814
 20
151.8855695673462094
 30
0.0
 11
4577.9508602474688814
 21
152.3855695673462947
 31
0.0
  0
LINE
  5
B0B5
  8
0
 10
4577.9023296787690924
 20
151.8855695673462094
 30
0.0
 11
4577.9023296787690924
 21
152.3855695673462947
 31
0.0
  0
LINE
  5
B0B6
  8
0
 10
4577.8398398248691592
 20
151.8855695673462094
 30
0.0
 11
4577.8398398248691592
 21
152.3855695673462947
 31
0.0
  0
LINE
  5
B0B7
  8
0
 10
4577.6519670729685458
 20
151.8855695673462094
 30
0.0
 11
4577.6519670729685458
 21
152.3855695673462947
 31
0.0
  0
LINE
  5
B0B8
  8
0
 10
4577.5346921826685502
 20
151.8855695673462094
 30
0.0
 11
4577.5346921826685502
 21
152.3855695673462947
 31
0.0
  0
ARC
  5
B0B9
  8
0
 10
4578.274303227769451
 20
151.4791890708962967
 30
0.0
 40
0.0199945035500022
 50
270.0
 51
90.0
  0
LINE
  5
B0BA
  8
0
 10
4577.973362912968696
 20
150.6181945673463076
 30
0.0
 11
4577.973362912968696
 21
151.5356945673462121
 31
0.0
  0
LINE
  5
B0BB
  8
0
 10
4577.9452977312694202
 20
150.6181945673463076
 30
0.0
 11
4577.9452977312694202
 21
151.5356945673462121
 31
0.0
  0
LINE
  5
B0BC
  8
0
 10
4577.929297731268889
 20
150.6181945673463076
 30
0.0
 11
4577.929297731268889
 21
151.5356945673462121
 31
0.0
  0
LINE
  5
B0BD
  8
0
 10
4577.5512977312691874
 20
150.6181945673463076
 30
0.0
 11
4577.5512977312691874
 21
151.5356945673462121
 31
0.0
  0
LINE
  5
B0BE
  8
0
 10
4577.5072325496694248
 20
150.6181945673463076
 30
0.0
 11
4577.5072325496694248
 21
151.5356945673462121
 31
0.0
  0
LINE
  5
B0BF
  8
0
 10
4578.1969902326691226
 20
151.4331945673461917
 30
0.0
 11
4578.0561373260679829
 21
151.4331945673461917
 31
0.0
  0
LINE
  5
B0C0
  8
0
 10
4579.9071609437687584
 20
150.7646936603983079
 30
0.0
 11
4579.8861721067241888
 21
151.1947660441462062
 31
0.0
  0
LINE
  5
B0C1
  8
0
 10
4580.2815506871093021
 20
150.7616936751009007
 30
0.0
 11
4580.2974621654284419
 21
151.5987027668462872
 31
0.0
  0
LINE
  5
B0C2
  8
0
 10
4579.9931478455519027
 20
150.6801945673462058
 30
0.0
 11
4580.1956685471195669
 21
150.6801945673462058
 31
0.0
  0
ARC
  5
B0C3
  8
0
 10
4579.9931478455519027
 20
150.7661945673463038
 30
0.0
 40
0.086
 50
180.9999999962473964
 51
270.0
  0
ARC
  5
B0C4
  8
0
 10
4580.1956685471195669
 20
150.7661945673461901
 30
0.0
 40
0.086
 50
270.0
 51
356.9999999943665898
  0
LINE
  5
B0C5
  8
0
 10
4580.9111645317689181
 20
152.4229363679463063
 30
0.0
 11
4580.9111645317689181
 21
151.8482027668462138
 31
0.0
  0
ARC
  5
B0C6
  8
0
 10
4580.66166453176902
 20
152.4229363679463063
 30
0.0
 40
0.2495
 50
359.9999999999984084
 51
90.0
  0
ARC
  5
B0C7
  8
0
 10
4580.66166453176902
 20
151.8482027668462138
 30
0.0
 40
0.2495
 50
270.0
 51
0.0000000000016284
  0
LINE
  5
B0C8
  8
0
 10
4577.4801668182681169
 20
151.6099782530463074
 30
0.0
 11
4577.4801668182681169
 21
151.8560681304475963
 31
0.0
  0
LINE
  5
B0C9
  8
0
 10
4577.5427977312692747
 20
152.5755695673462924
 30
0.0
 11
4577.5427977312692747
 21
152.6724363679462897
 31
0.0
  0
LINE
  5
B0CA
  8
0
 10
4577.701547731267965
 20
152.484069567346296
 30
0.0
 11
4577.701547731267965
 21
152.5595695673463013
 31
0.0
  0
LINE
  5
B0CB
  8
0
 10
4577.5427977312692747
 20
152.5755695673462924
 30
0.0
 11
4577.6855477312692528
 21
152.5755695673462924
 31
0.0
  0
LINE
  5
B0CC
  8
0
 10
4577.5427977312692747
 20
152.4680695673463049
 30
0.0
 11
4577.6855477312692528
 21
152.4680695673463049
 31
0.0
  0
LINE
  5
B0CD
  8
0
 10
4577.5704200975678759
 20
152.5566147872461897
 30
0.0
 11
4577.5704200975678759
 21
152.4870243474462086
 31
0.0
  0
LINE
  5
B0CE
  8
0
 10
4577.6825929511687718
 20
152.5726147872462093
 30
0.0
 11
4577.4802977312692747
 21
152.5726147872462093
 31
0.0
  0
LINE
  5
B0CF
  8
0
 10
4577.698592951169303
 20
152.4870243474462086
 30
0.0
 11
4577.698592951169303
 21
152.5566147872461897
 31
0.0
  0
LINE
  5
B0D0
  8
0
 10
4577.6825929511687718
 20
152.4710243474463027
 30
0.0
 11
4577.4802977312692747
 21
152.4710243474463027
 31
0.0
  0
ARC
  5
B0D1
  8
0
 10
4577.6825929511687718
 20
152.4870243474462939
 30
0.0
 40
0.016
 50
270.0
 51
359.9999999999608917
  0
ARC
  5
B0D2
  8
0
 10
4577.6855477312692528
 20
152.484069567346296
 30
0.0
 40
0.016
 50
270.0
 51
359.9999999999608917
  0
ARC
  5
B0D3
  8
0
 10
4577.6855477312692528
 20
152.5595695673463013
 30
0.0
 40
0.016
 50
0.0000000000635093
 51
90.0
  0
ARC
  5
B0D4
  8
0
 10
4577.6825929511687718
 20
152.5566147872461897
 30
0.0
 40
0.016
 50
0.0000000000130276
 51
90.0000000000521254
  0
ARC
  5
B0D5
  8
0
 10
4577.5864200975702261
 20
152.5566147872461897
 30
0.0
 40
0.016
 50
90.0000000000521254
 51
179.9999999999608917
  0
ARC
  5
B0D6
  8
0
 10
4577.5864200975702261
 20
152.4870243474462086
 30
0.0
 40
0.016
 50
180.0000000000260059
 51
269.9999999999478746
  0
LINE
  5
B0D7
  8
0
 10
4577.701547731267965
 20
151.787069567528988
 30
0.0
 11
4577.701547731267965
 21
151.7115695675290112
 31
0.0
  0
LINE
  5
B0D8
  8
0
 10
4577.5427977312692747
 20
151.6955695675289917
 30
0.0
 11
4577.6855477312692528
 21
151.6955695675289917
 31
0.0
  0
LINE
  5
B0D9
  8
0
 10
4577.4801668182681169
 20
151.8030695675290076
 30
0.0
 11
4577.6855477312692528
 21
151.8030695675290076
 31
0.0
  0
LINE
  5
B0DA
  8
0
 10
4577.5704200975678759
 20
151.7145243476290943
 30
0.0
 11
4577.5704200975678759
 21
151.7841147874291039
 31
0.0
  0
LINE
  5
B0DB
  8
0
 10
4577.6825929511687718
 20
151.6985243476289895
 30
0.0
 11
4577.4898866651255958
 21
151.6985243476289895
 31
0.0
  0
LINE
  5
B0DC
  8
0
 10
4577.698592951169303
 20
151.7841147874291039
 30
0.0
 11
4577.698592951169303
 21
151.7145243476290943
 31
0.0
  0
LINE
  5
B0DD
  8
0
 10
4577.6825929511687718
 20
151.800114787429095
 30
0.0
 11
4577.4802977312692747
 21
151.800114787429095
 31
0.0
  0
ARC
  5
B0DE
  8
0
 10
4577.6825929511687718
 20
151.7841147874291039
 30
0.0
 40
0.016
 50
0.0000000000390827
 51
90.0
  0
ARC
  5
B0DF
  8
0
 10
4577.6855477312692528
 20
151.787069567528988
 30
0.0
 40
0.016
 50
0.0000000000390827
 51
90.0
  0
ARC
  5
B0E0
  8
0
 10
4577.6855477312692528
 20
151.7115695675290965
 30
0.0
 40
0.016
 50
270.0
 51
359.9999999999365059
  0
ARC
  5
B0E1
  8
0
 10
4577.6825929511687718
 20
151.7145243476290943
 30
0.0
 40
0.016
 50
269.9999999999478746
 51
359.9999999999869829
  0
ARC
  5
B0E2
  8
0
 10
4577.5864200975702261
 20
151.7145243476290943
 30
0.0
 40
0.016
 50
180.000000000037403
 51
269.9999999999478746
  0
ARC
  5
B0E3
  8
0
 10
4577.5864200975702261
 20
151.7841147874291039
 30
0.0
 40
0.016
 50
90.0000000000521254
 51
179.9999999999739089
  0
LINE
  5
B0E4
  8
0
 10
4577.8949759758679647
 20
151.6955695673462969
 30
0.0
 11
4577.7687259758677101
 21
151.6955695673462969
 31
0.0
  0
LINE
  5
B0E5
  8
0
 10
4577.7527259758689979
 20
151.7115695673462881
 30
0.0
 11
4577.7527259758689979
 21
151.7870695673462933
 31
0.0
  0
LINE
  5
B0E6
  8
0
 10
4577.8949759758679647
 20
151.8030695673463129
 30
0.0
 11
4577.7687259758677101
 21
151.8030695673463129
 31
0.0
  0
LINE
  5
B0E7
  8
0
 10
4577.9109759758675864
 20
151.7870695673462933
 30
0.0
 11
4577.9109759758675864
 21
151.7115695673462881
 31
0.0
  0
ARC
  5
B0E8
  8
0
 10
4577.8949759758679647
 20
151.787069567346208
 30
0.0
 40
0.016
 50
0.0000000001009635
 51
90.0000000000521254
  0
ARC
  5
B0E9
  8
0
 10
4577.8949759758679647
 20
151.7115695673462881
 30
0.0
 40
0.016
 50
269.9999999999478746
 51
359.9999999999478746
  0
ARC
  5
B0EA
  8
0
 10
4577.7687259758677101
 20
151.7115695673462881
 30
0.0
 40
0.016
 50
180.0
 51
270.0
  0
ARC
  5
B0EB
  8
0
 10
4577.7687259758677101
 20
151.7870695673462933
 30
0.0
 40
0.016
 50
90.0
 51
179.9999999999739089
  0
LINE
  5
B0EC
  8
0
 10
4578.2707259758681175
 20
151.6955695673462969
 30
0.0
 11
4578.1444759758687724
 21
151.6955695673462969
 31
0.0
  0
LINE
  5
B0ED
  8
0
 10
4578.1284759758682412
 20
151.7115695673462881
 30
0.0
 11
4578.1284759758682412
 21
151.7870695673462933
 31
0.0
  0
LINE
  5
B0EE
  8
0
 10
4578.2707259758681175
 20
151.8030695673463129
 30
0.0
 11
4578.1444759758687724
 21
151.8030695673463129
 31
0.0
  0
LINE
  5
B0EF
  8
0
 10
4578.2867259758686487
 20
151.7870695673462933
 30
0.0
 11
4578.2867259758686487
 21
151.7115695673462881
 31
0.0
  0
ARC
  5
B0F0
  8
0
 10
4578.2707259758681175
 20
151.787069567346208
 30
0.0
 40
0.016
 50
0.0000000001009635
 51
90.0000000000521254
  0
ARC
  5
B0F1
  8
0
 10
4578.2707259758681175
 20
151.7115695673462881
 30
0.0
 40
0.016
 50
269.9999999999478746
 51
359.9999999999478746
  0
ARC
  5
B0F2
  8
0
 10
4578.1444759758687724
 20
151.7115695673462881
 30
0.0
 40
0.016
 50
180.0
 51
270.0
  0
ARC
  5
B0F3
  8
0
 10
4578.1444759758687724
 20
151.7870695673462933
 30
0.0
 40
0.016
 50
90.0
 51
179.9999999999739089
  0
LINE
  5
B0F4
  8
0
 10
4578.489725975869078
 20
151.6955695673462969
 30
0.0
 11
4578.3634759758679138
 21
151.6955695673462969
 31
0.0
  0
LINE
  5
B0F5
  8
0
 10
4578.3474759758692016
 20
151.7115695673462881
 30
0.0
 11
4578.3474759758692016
 21
151.7870695673462933
 31
0.0
  0
LINE
  5
B0F6
  8
0
 10
4578.489725975869078
 20
151.8030695673463129
 30
0.0
 11
4578.3634759758679138
 21
151.8030695673463129
 31
0.0
  0
LINE
  5
B0F7
  8
0
 10
4578.5057259758677901
 20
151.7870695673462933
 30
0.0
 11
4578.5057259758677901
 21
151.7115695673462881
 31
0.0
  0
ARC
  5
B0F8
  8
0
 10
4578.489725975869078
 20
151.787069567346208
 30
0.0
 40
0.016
 50
0.0000000001009635
 51
90.0000000000521254
  0
ARC
  5
B0F9
  8
0
 10
4578.489725975869078
 20
151.7115695673462881
 30
0.0
 40
0.016
 50
269.9999999999478746
 51
359.9999999999478746
  0
ARC
  5
B0FA
  8
0
 10
4578.3634759758679138
 20
151.7115695673462881
 30
0.0
 40
0.016
 50
180.0
 51
270.0
  0
ARC
  5
B0FB
  8
0
 10
4578.3634759758679138
 20
151.7870695673462933
 30
0.0
 40
0.016
 50
90.0
 51
179.9999999999739089
  0
LINE
  5
B0FC
  8
0
 10
4580.6779759758692308
 20
151.6955695673462969
 30
0.0
 11
4580.5552259758687796
 21
151.6955695673462969
 31
0.0
  0
LINE
  5
B0FD
  8
0
 10
4580.539225975869158
 20
151.7115695673462881
 30
0.0
 11
4580.539225975869158
 21
151.7870695673462933
 31
0.0
  0
LINE
  5
B0FE
  8
0
 10
4580.645725975869027
 20
151.8030695673463129
 30
0.0
 11
4580.5552259758687796
 21
151.8030695673463129
 31
0.0
  0
ARC
  5
B0FF
  8
0
 10
4580.5552259758687796
 20
151.7115695673462881
 30
0.0
 40
0.016
 50
180.0
 51
270.0
  0
ARC
  5
B100
  8
0
 10
4580.5552259758687796
 20
151.7870695673462933
 30
0.0
 40
0.016
 50
90.0
 51
179.9999999999739089
  0
LINE
  5
B101
  8
0
 10
4580.7869759758677901
 20
151.8543195673462947
 30
0.0
 11
4580.6777259758691798
 21
151.8543195673462947
 31
0.0
  0
LINE
  5
B102
  8
0
 10
4580.8029759758701402
 20
151.8383195673463035
 30
0.0
 11
4580.8029759758701402
 21
151.8205695673462969
 31
0.0
  0
LINE
  5
B103
  8
0
 10
4580.6617259758677392
 20
151.8383195673463035
 30
0.0
 11
4580.6617259758677392
 21
151.819069567346304
 31
0.0
  0
ARC
  5
B104
  8
0
 10
4580.7869759758677901
 20
151.8383195673463035
 30
0.0
 40
0.016
 50
0.0000000000504818
 51
89.9999999999478888
  0
ARC
  5
B105
  8
0
 10
4580.6777259758691798
 20
151.8383195673463035
 30
0.0
 40
0.016
 50
90.0
 51
179.9999999999739089
  0
ARC
  5
B106
  8
0
 10
4580.645725975869027
 20
151.819069567346304
 30
0.0
 40
0.016
 50
270.0
 51
359.9999999999234888
  0
ARC
  5
B107
  8
0
 10
4580.6779759758692308
 20
151.8205695673462969
 30
0.0
 40
0.125
 50
270.0
 51
0.0000000000032569
  0
LINE
  5
B108
  8
0
 10
4580.8029759758701402
 20
152.0883195673463035
 30
0.0
 11
4580.8029759758701402
 21
151.9328195673462858
 31
0.0
  0
LINE
  5
B109
  8
0
 10
4580.6617259758677392
 20
152.0883195673463035
 30
0.0
 11
4580.6617259758677392
 21
151.9328195673462858
 31
0.0
  0
LINE
  5
B10A
  8
0
 10
4580.7869759758677901
 20
151.9168195673462947
 30
0.0
 11
4580.6777259758691798
 21
151.9168195673462947
 31
0.0
  0
LINE
  5
B10B
  8
0
 10
4580.6777259758691798
 20
152.1043195673462947
 30
0.0
 11
4580.7869759758677901
 21
152.1043195673462947
 31
0.0
  0
ARC
  5
B10C
  8
0
 10
4580.6777259758691798
 20
152.0883195673463035
 30
0.0
 40
0.016
 50
90.0
 51
179.9999999999870113
  0
ARC
  5
B10D
  8
0
 10
4580.7869759758677901
 20
152.0883195673463035
 30
0.0
 40
0.016
 50
0.0000000000260551
 51
90.0000000001042082
  0
ARC
  5
B10E
  8
0
 10
4580.7869759758677901
 20
151.9328195673462858
 30
0.0
 40
0.016
 50
270.0
 51
0.0
  0
ARC
  5
B10F
  8
0
 10
4580.6777259758691798
 20
151.9328195673462858
 30
0.0
 40
0.016
 50
179.9999999999870113
 51
270.0
  0
LINE
  5
B110
  8
0
 10
4578.7087259758691289
 20
151.6955695673462969
 30
0.0
 11
4578.5824759758688742
 21
151.6955695673462969
 31
0.0
  0
LINE
  5
B111
  8
0
 10
4578.5664759758692526
 20
151.7115695673462881
 30
0.0
 11
4578.5664759758692526
 21
151.7870695673462933
 31
0.0
  0
LINE
  5
B112
  8
0
 10
4578.7087259758691289
 20
151.8030695673463129
 30
0.0
 11
4578.5824759758688742
 21
151.8030695673463129
 31
0.0
  0
LINE
  5
B113
  8
0
 10
4578.724725975867841
 20
151.7870695673462933
 30
0.0
 11
4578.724725975867841
 21
151.7115695673462881
 31
0.0
  0
ARC
  5
B114
  8
0
 10
4578.7087259758691289
 20
151.787069567346208
 30
0.0
 40
0.016
 50
0.0000000001009635
 51
90.0000000000521254
  0
ARC
  5
B115
  8
0
 10
4578.7087259758691289
 20
151.7115695673462881
 30
0.0
 40
0.016
 50
269.9999999999478746
 51
359.9999999999478746
  0
ARC
  5
B116
  8
0
 10
4578.5824759758688742
 20
151.7115695673462881
 30
0.0
 40
0.016
 50
180.0
 51
270.0
  0
ARC
  5
B117
  8
0
 10
4578.5824759758688742
 20
151.7870695673462933
 30
0.0
 40
0.016
 50
90.0
 51
179.9999999999739089
  0
LINE
  5
B118
  8
0
 10
4578.9277259758682703
 20
151.6955695673462969
 30
0.0
 11
4578.8014759758680157
 21
151.6955695673462969
 31
0.0
  0
LINE
  5
B119
  8
0
 10
4578.7854759758693035
 20
151.7115695673462881
 30
0.0
 11
4578.7854759758693035
 21
151.7870695673462933
 31
0.0
  0
LINE
  5
B11A
  8
0
 10
4578.9277259758682703
 20
151.8030695673463129
 30
0.0
 11
4578.8014759758680157
 21
151.8030695673463129
 31
0.0
  0
LINE
  5
B11B
  8
0
 10
4578.9437259758688015
 20
151.7870695673462933
 30
0.0
 11
4578.9437259758688015
 21
151.7115695673462881
 31
0.0
  0
ARC
  5
B11C
  8
0
 10
4578.9277259758682703
 20
151.787069567346208
 30
0.0
 40
0.016
 50
0.0000000001009635
 51
90.0000000000521254
  0
ARC
  5
B11D
  8
0
 10
4578.9277259758682703
 20
151.7115695673462881
 30
0.0
 40
0.016
 50
269.9999999999478746
 51
359.9999999999478746
  0
ARC
  5
B11E
  8
0
 10
4578.8014759758680157
 20
151.7115695673462881
 30
0.0
 40
0.016
 50
180.0
 51
270.0
  0
ARC
  5
B11F
  8
0
 10
4578.8014759758680157
 20
151.7870695673462933
 30
0.0
 40
0.016
 50
90.0
 51
179.9999999999739089
  0
LINE
  5
B120
  8
0
 10
4579.1467259758692308
 20
151.6955695673462969
 30
0.0
 11
4579.0204759758689761
 21
151.6955695673462969
 31
0.0
  0
LINE
  5
B121
  8
0
 10
4579.0044759758693544
 20
151.7115695673462881
 30
0.0
 11
4579.0044759758693544
 21
151.7870695673462933
 31
0.0
  0
LINE
  5
B122
  8
0
 10
4579.1467259758692308
 20
151.8030695673463129
 30
0.0
 11
4579.0204759758689761
 21
151.8030695673463129
 31
0.0
  0
LINE
  5
B123
  8
0
 10
4579.1627259758679429
 20
151.7870695673462933
 30
0.0
 11
4579.1627259758679429
 21
151.7115695673462881
 31
0.0
  0
ARC
  5
B124
  8
0
 10
4579.1467259758692308
 20
151.787069567346208
 30
0.0
 40
0.016
 50
0.0000000001009635
 51
90.0000000000521254
  0
ARC
  5
B125
  8
0
 10
4579.1467259758692308
 20
151.7115695673462881
 30
0.0
 40
0.016
 50
269.9999999999478746
 51
359.9999999999478746
  0
ARC
  5
B126
  8
0
 10
4579.0204759758689761
 20
151.7115695673462881
 30
0.0
 40
0.016
 50
180.0
 51
270.0
  0
ARC
  5
B127
  8
0
 10
4579.0204759758689761
 20
151.7870695673462933
 30
0.0
 40
0.016
 50
90.0
 51
179.9999999999739089
  0
LINE
  5
B128
  8
0
 10
4579.3657259758692817
 20
151.6955695673462969
 30
0.0
 11
4579.239475975869027
 21
151.6955695673462969
 31
0.0
  0
LINE
  5
B129
  8
0
 10
4579.2234759758694054
 20
151.7115695673462881
 30
0.0
 11
4579.2234759758694054
 21
151.7870695673462933
 31
0.0
  0
LINE
  5
B12A
  8
0
 10
4579.3657259758692817
 20
151.8030695673463129
 30
0.0
 11
4579.239475975869027
 21
151.8030695673463129
 31
0.0
  0
LINE
  5
B12B
  8
0
 10
4579.3817259758689033
 20
151.7870695673462933
 30
0.0
 11
4579.3817259758689033
 21
151.7115695673462881
 31
0.0
  0
ARC
  5
B12C
  8
0
 10
4579.3657259758692817
 20
151.787069567346208
 30
0.0
 40
0.016
 50
0.0000000001009635
 51
90.0000000000521254
  0
ARC
  5
B12D
  8
0
 10
4579.3657259758692817
 20
151.7115695673462881
 30
0.0
 40
0.016
 50
269.9999999999478746
 51
359.9999999999478746
  0
ARC
  5
B12E
  8
0
 10
4579.239475975869027
 20
151.7115695673462881
 30
0.0
 40
0.016
 50
180.0
 51
270.0
  0
ARC
  5
B12F
  8
0
 10
4579.239475975869027
 20
151.7870695673462933
 30
0.0
 40
0.016
 50
90.0
 51
179.9999999999739089
  0
LINE
  5
B130
  8
0
 10
4579.5847259758693326
 20
151.6955695673462969
 30
0.0
 11
4579.458475975869078
 21
151.6955695673462969
 31
0.0
  0
LINE
  5
B131
  8
0
 10
4579.4424759758685468
 20
151.7115695673462881
 30
0.0
 11
4579.4424759758685468
 21
151.7870695673462933
 31
0.0
  0
LINE
  5
B132
  8
0
 10
4579.5847259758693326
 20
151.8030695673463129
 30
0.0
 11
4579.458475975869078
 21
151.8030695673463129
 31
0.0
  0
LINE
  5
B133
  8
0
 10
4579.6007259758680448
 20
151.7870695673462933
 30
0.0
 11
4579.6007259758680448
 21
151.7115695673462881
 31
0.0
  0
ARC
  5
B134
  8
0
 10
4579.5847259758693326
 20
151.787069567346208
 30
0.0
 40
0.016
 50
0.0000000001009635
 51
90.0000000000521254
  0
ARC
  5
B135
  8
0
 10
4579.5847259758693326
 20
151.7115695673462881
 30
0.0
 40
0.016
 50
269.9999999999478746
 51
359.9999999999478746
  0
ARC
  5
B136
  8
0
 10
4579.458475975869078
 20
151.7115695673462881
 30
0.0
 40
0.016
 50
180.0
 51
270.0
  0
ARC
  5
B137
  8
0
 10
4579.458475975869078
 20
151.7870695673462933
 30
0.0
 40
0.016
 50
90.0
 51
179.9999999999739089
  0
LINE
  5
B138
  8
0
 10
4579.8037259758693835
 20
151.6955695673462969
 30
0.0
 11
4579.6774759758691289
 21
151.6955695673462969
 31
0.0
  0
LINE
  5
B139
  8
0
 10
4579.6614759758704167
 20
151.7115695673462881
 30
0.0
 11
4579.6614759758704167
 21
151.7870695673462933
 31
0.0
  0
LINE
  5
B13A
  8
0
 10
4579.8037259758693835
 20
151.8030695673463129
 30
0.0
 11
4579.6774759758691289
 21
151.8030695673463129
 31
0.0
  0
LINE
  5
B13B
  8
0
 10
4579.8197259758690052
 20
151.7870695673462933
 30
0.0
 11
4579.8197259758690052
 21
151.7115695673462881
 31
0.0
  0
ARC
  5
B13C
  8
0
 10
4579.8037259758693835
 20
151.787069567346208
 30
0.0
 40
0.016
 50
0.0000000001009635
 51
90.0000000000521254
  0
ARC
  5
B13D
  8
0
 10
4579.8037259758693835
 20
151.7115695673462881
 30
0.0
 40
0.016
 50
269.9999999999478746
 51
359.9999999999478746
  0
ARC
  5
B13E
  8
0
 10
4579.6774759758691289
 20
151.7115695673462881
 30
0.0
 40
0.016
 50
180.0
 51
270.0
  0
ARC
  5
B13F
  8
0
 10
4579.6774759758691289
 20
151.7870695673462933
 30
0.0
 40
0.016
 50
90.0
 51
179.9999999999739089
  0
LINE
  5
B140
  8
0
 10
4580.0227259758694345
 20
151.6955695673462969
 30
0.0
 11
4579.8964759758691798
 21
151.6955695673462969
 31
0.0
  0
LINE
  5
B141
  8
0
 10
4579.8804759758686487
 20
151.7115695673462881
 30
0.0
 11
4579.8804759758686487
 21
151.7870695673462933
 31
0.0
  0
LINE
  5
B142
  8
0
 10
4580.0227259758694345
 20
151.8030695673463129
 30
0.0
 11
4579.8964759758691798
 21
151.8030695673463129
 31
0.0
  0
LINE
  5
B143
  8
0
 10
4580.0387259758690561
 20
151.7870695673462933
 30
0.0
 11
4580.0387259758690561
 21
151.7115695673462881
 31
0.0
  0
ARC
  5
B144
  8
0
 10
4580.0227259758694345
 20
151.787069567346208
 30
0.0
 40
0.016
 50
0.0000000001009635
 51
90.0000000000521254
  0
ARC
  5
B145
  8
0
 10
4580.0227259758694345
 20
151.7115695673462881
 30
0.0
 40
0.016
 50
269.9999999999478746
 51
359.9999999999478746
  0
ARC
  5
B146
  8
0
 10
4579.8964759758691798
 20
151.7115695673462881
 30
0.0
 40
0.016
 50
180.0
 51
270.0
  0
ARC
  5
B147
  8
0
 10
4579.8964759758691798
 20
151.7870695673462933
 30
0.0
 40
0.016
 50
90.0
 51
179.9999999999739089
  0
LINE
  5
B148
  8
0
 10
4580.2417259758685759
 20
151.6955695673462969
 30
0.0
 11
4580.1154759758692308
 21
151.6955695673462969
 31
0.0
  0
LINE
  5
B149
  8
0
 10
4580.0994759758686996
 20
151.7115695673462881
 30
0.0
 11
4580.0994759758686996
 21
151.7870695673462933
 31
0.0
  0
LINE
  5
B14A
  8
0
 10
4580.2417259758685759
 20
151.8030695673463129
 30
0.0
 11
4580.1154759758692308
 21
151.8030695673463129
 31
0.0
  0
LINE
  5
B14B
  8
0
 10
4580.2577259758691071
 20
151.7870695673462933
 30
0.0
 11
4580.2577259758691071
 21
151.7115695673462881
 31
0.0
  0
ARC
  5
B14C
  8
0
 10
4580.2417259758685759
 20
151.787069567346208
 30
0.0
 40
0.016
 50
0.0000000001009635
 51
90.0000000000521254
  0
ARC
  5
B14D
  8
0
 10
4580.2417259758685759
 20
151.7115695673462881
 30
0.0
 40
0.016
 50
269.9999999999478746
 51
359.9999999999478746
  0
ARC
  5
B14E
  8
0
 10
4580.1154759758692308
 20
151.7115695673462881
 30
0.0
 40
0.016
 50
180.0
 51
270.0
  0
ARC
  5
B14F
  8
0
 10
4580.1154759758692308
 20
151.7870695673462933
 30
0.0
 40
0.016
 50
90.0
 51
179.9999999999739089
  0
LINE
  5
B150
  8
0
 10
4580.4607259758704458
 20
151.6955695673462969
 30
0.0
 11
4580.3344759758692817
 21
151.6955695673462969
 31
0.0
  0
LINE
  5
B151
  8
0
 10
4580.31847597586966
 20
151.7115695673462881
 30
0.0
 11
4580.31847597586966
 21
151.7870695673462933
 31
0.0
  0
LINE
  5
B152
  8
0
 10
4580.4607259758704458
 20
151.8030695673463129
 30
0.0
 11
4580.3344759758692817
 21
151.8030695673463129
 31
0.0
  0
LINE
  5
B153
  8
0
 10
4580.476725975869158
 20
151.7870695673462933
 30
0.0
 11
4580.476725975869158
 21
151.7115695673462881
 31
0.0
  0
ARC
  5
B154
  8
0
 10
4580.4607259758704458
 20
151.787069567346208
 30
0.0
 40
0.016
 50
0.0000000001009635
 51
90.0000000000521254
  0
ARC
  5
B155
  8
0
 10
4580.4607259758704458
 20
151.7115695673462881
 30
0.0
 40
0.016
 50
269.9999999999478746
 51
359.9999999999478746
  0
ARC
  5
B156
  8
0
 10
4580.3344759758692817
 20
151.7115695673462881
 30
0.0
 40
0.016
 50
180.0
 51
270.0
  0
ARC
  5
B157
  8
0
 10
4580.3344759758692817
 20
151.7870695673462933
 30
0.0
 40
0.016
 50
90.0
 51
179.9999999999739089
  0
LINE
  5
B158
  8
0
 10
4577.8949759758679647
 20
152.5755695674463084
 30
0.0
 11
4577.7687259758677101
 21
152.5755695674463084
 31
0.0
  0
LINE
  5
B159
  8
0
 10
4577.7527259758689979
 20
152.5595695674462888
 30
0.0
 11
4577.7527259758689979
 21
152.484069567446312
 31
0.0
  0
LINE
  5
B15A
  8
0
 10
4577.8949759758679647
 20
152.4680695674462925
 30
0.0
 11
4577.7687259758677101
 21
152.4680695674462925
 31
0.0
  0
LINE
  5
B15B
  8
0
 10
4577.9109759758675864
 20
152.484069567446312
 30
0.0
 11
4577.9109759758675864
 21
152.5595695674462888
 31
0.0
  0
ARC
  5
B15C
  8
0
 10
4577.8949759758679647
 20
152.484069567446312
 30
0.0
 40
0.016
 50
269.9999999999478746
 51
359.9999999998991029
  0
ARC
  5
B15D
  8
0
 10
4577.8949759758679647
 20
152.5595695674462036
 30
0.0
 40
0.016
 50
0.0000000000521102
 51
90.0000000000521254
  0
ARC
  5
B15E
  8
0
 10
4577.7687259758677101
 20
152.5595695674462888
 30
0.0
 40
0.016
 50
90.0
 51
180.0
  0
ARC
  5
B15F
  8
0
 10
4577.7687259758677101
 20
152.484069567446312
 30
0.0
 40
0.016
 50
180.0000000000260059
 51
270.0
  0
LINE
  5
B160
  8
0
 10
4578.2707259758681175
 20
152.5755695674463084
 30
0.0
 11
4578.1444759758687724
 21
152.5755695674463084
 31
0.0
  0
LINE
  5
B161
  8
0
 10
4578.1284759758682412
 20
152.5595695674462888
 30
0.0
 11
4578.1284759758682412
 21
152.484069567446312
 31
0.0
  0
LINE
  5
B162
  8
0
 10
4578.2707259758681175
 20
152.4680695674462925
 30
0.0
 11
4578.1444759758687724
 21
152.4680695674462925
 31
0.0
  0
LINE
  5
B163
  8
0
 10
4578.2867259758686487
 20
152.484069567446312
 30
0.0
 11
4578.2867259758686487
 21
152.5595695674462888
 31
0.0
  0
ARC
  5
B164
  8
0
 10
4578.2707259758681175
 20
152.484069567446312
 30
0.0
 40
0.016
 50
269.9999999999478746
 51
359.9999999998991029
  0
ARC
  5
B165
  8
0
 10
4578.2707259758681175
 20
152.5595695674462036
 30
0.0
 40
0.016
 50
0.0000000000521102
 51
90.0000000000521254
  0
ARC
  5
B166
  8
0
 10
4578.1444759758687724
 20
152.5595695674462888
 30
0.0
 40
0.016
 50
90.0
 51
180.0
  0
ARC
  5
B167
  8
0
 10
4578.1444759758687724
 20
152.484069567446312
 30
0.0
 40
0.016
 50
180.0000000000260059
 51
270.0
  0
LINE
  5
B168
  8
0
 10
4578.489725975869078
 20
152.5755695674463084
 30
0.0
 11
4578.3634759758679138
 21
152.5755695674463084
 31
0.0
  0
LINE
  5
B169
  8
0
 10
4578.3474759758692016
 20
152.5595695674462888
 30
0.0
 11
4578.3474759758692016
 21
152.484069567446312
 31
0.0
  0
LINE
  5
B16A
  8
0
 10
4578.489725975869078
 20
152.4680695674462925
 30
0.0
 11
4578.3634759758679138
 21
152.4680695674462925
 31
0.0
  0
LINE
  5
B16B
  8
0
 10
4578.5057259758677901
 20
152.484069567446312
 30
0.0
 11
4578.5057259758677901
 21
152.5595695674462888
 31
0.0
  0
ARC
  5
B16C
  8
0
 10
4578.489725975869078
 20
152.484069567446312
 30
0.0
 40
0.016
 50
269.9999999999478746
 51
359.9999999998991029
  0
ARC
  5
B16D
  8
0
 10
4578.489725975869078
 20
152.5595695674462036
 30
0.0
 40
0.016
 50
0.0000000000521102
 51
90.0000000000521254
  0
ARC
  5
B16E
  8
0
 10
4578.3634759758679138
 20
152.5595695674462888
 30
0.0
 40
0.016
 50
90.0
 51
180.0
  0
ARC
  5
B16F
  8
0
 10
4578.3634759758679138
 20
152.484069567446312
 30
0.0
 40
0.016
 50
180.0000000000260059
 51
270.0
  0
LINE
  5
B170
  8
0
 10
4580.6779759758692308
 20
152.5755695674463084
 30
0.0
 11
4580.5552259758687796
 21
152.5755695674463084
 31
0.0
  0
LINE
  5
B171
  8
0
 10
4580.539225975869158
 20
152.5595695674462888
 30
0.0
 11
4580.539225975869158
 21
152.484069567446312
 31
0.0
  0
LINE
  5
B172
  8
0
 10
4580.645725975869027
 20
152.4680695674462925
 30
0.0
 11
4580.5552259758687796
 21
152.4680695674462925
 31
0.0
  0
ARC
  5
B173
  8
0
 10
4580.5552259758687796
 20
152.5595695674462888
 30
0.0
 40
0.016
 50
90.0
 51
180.0
  0
ARC
  5
B174
  8
0
 10
4580.5552259758687796
 20
152.484069567446312
 30
0.0
 40
0.016
 50
180.0000000000260059
 51
270.0
  0
LINE
  5
B175
  8
0
 10
4580.7869759758677901
 20
152.416819567446197
 30
0.0
 11
4580.6777259758691798
 21
152.416819567446197
 31
0.0
  0
LINE
  5
B176
  8
0
 10
4580.8029759758701402
 20
152.4328195674461881
 30
0.0
 11
4580.8029759758701402
 21
152.4505695674463084
 31
0.0
  0
LINE
  5
B177
  8
0
 10
4580.6617259758677392
 20
152.4328195674461881
 30
0.0
 11
4580.6617259758677392
 21
152.4520695674461876
 31
0.0
  0
ARC
  5
B178
  8
0
 10
4580.7869759758677901
 20
152.4328195674461881
 30
0.0
 40
0.016
 50
270.0000000000521254
 51
359.999999999949523
  0
ARC
  5
B179
  8
0
 10
4580.6777259758691798
 20
152.4328195674461881
 30
0.0
 40
0.016
 50
180.0000000000260059
 51
270.0
  0
ARC
  5
B17A
  8
0
 10
4580.645725975869027
 20
152.4520695674461876
 30
0.0
 40
0.016
 50
0.0000000000765369
 51
90.0
  0
ARC
  5
B17B
  8
0
 10
4580.6779759758692308
 20
152.4505695674463084
 30
0.0
 40
0.125
 50
359.9999999999968168
 51
90.0
  0
LINE
  5
B17C
  8
0
 10
4580.8029759758701402
 20
152.1828195674463018
 30
0.0
 11
4580.8029759758701402
 21
152.3383195674462911
 31
0.0
  0
LINE
  5
B17D
  8
0
 10
4580.6617259758677392
 20
152.1828195674463018
 30
0.0
 11
4580.6617259758677392
 21
152.3383195674462911
 31
0.0
  0
LINE
  5
B17E
  8
0
 10
4580.7869759758677901
 20
152.3543195674463107
 30
0.0
 11
4580.6777259758691798
 21
152.3543195674463107
 31
0.0
  0
LINE
  5
B17F
  8
0
 10
4580.6777259758691798
 20
152.1668195674463107
 30
0.0
 11
4580.7869759758677901
 21
152.1668195674463107
 31
0.0
  0
ARC
  5
B180
  8
0
 10
4580.6777259758691798
 20
152.1828195674463018
 30
0.0
 40
0.016
 50
180.0000000000129887
 51
270.0
  0
ARC
  5
B181
  8
0
 10
4580.7869759758677901
 20
152.1828195674463018
 30
0.0
 40
0.016
 50
269.999999999895806
 51
359.9999999999740226
  0
ARC
  5
B182
  8
0
 10
4580.7869759758677901
 20
152.3383195674462911
 30
0.0
 40
0.016
 50
0.0
 51
90.0
  0
ARC
  5
B183
  8
0
 10
4580.6777259758691798
 20
152.3383195674462911
 30
0.0
 40
0.016
 50
90.0
 51
180.0000000000129887
  0
LINE
  5
B184
  8
0
 10
4578.7087259758691289
 20
152.5755695674463084
 30
0.0
 11
4578.5824759758688742
 21
152.5755695674463084
 31
0.0
  0
LINE
  5
B185
  8
0
 10
4578.5664759758692526
 20
152.5595695674462888
 30
0.0
 11
4578.5664759758692526
 21
152.484069567446312
 31
0.0
  0
LINE
  5
B186
  8
0
 10
4578.7087259758691289
 20
152.4680695674462925
 30
0.0
 11
4578.5824759758688742
 21
152.4680695674462925
 31
0.0
  0
LINE
  5
B187
  8
0
 10
4578.724725975867841
 20
152.484069567446312
 30
0.0
 11
4578.724725975867841
 21
152.5595695674462888
 31
0.0
  0
ARC
  5
B188
  8
0
 10
4578.7087259758691289
 20
152.484069567446312
 30
0.0
 40
0.016
 50
269.9999999999478746
 51
359.9999999998991029
  0
ARC
  5
B189
  8
0
 10
4578.7087259758691289
 20
152.5595695674462036
 30
0.0
 40
0.016
 50
0.0000000000521102
 51
90.0000000000521254
  0
ARC
  5
B18A
  8
0
 10
4578.5824759758688742
 20
152.5595695674462888
 30
0.0
 40
0.016
 50
90.0
 51
180.0
  0
ARC
  5
B18B
  8
0
 10
4578.5824759758688742
 20
152.484069567446312
 30
0.0
 40
0.016
 50
180.0000000000260059
 51
270.0
  0
LINE
  5
B18C
  8
0
 10
4578.9277259758682703
 20
152.5755695674463084
 30
0.0
 11
4578.8014759758680157
 21
152.5755695674463084
 31
0.0
  0
LINE
  5
B18D
  8
0
 10
4578.7854759758693035
 20
152.5595695674462888
 30
0.0
 11
4578.7854759758693035
 21
152.484069567446312
 31
0.0
  0
LINE
  5
B18E
  8
0
 10
4578.9277259758682703
 20
152.4680695674462925
 30
0.0
 11
4578.8014759758680157
 21
152.4680695674462925
 31
0.0
  0
LINE
  5
B18F
  8
0
 10
4578.9437259758688015
 20
152.484069567446312
 30
0.0
 11
4578.9437259758688015
 21
152.5595695674462888
 31
0.0
  0
ARC
  5
B190
  8
0
 10
4578.9277259758682703
 20
152.484069567446312
 30
0.0
 40
0.016
 50
269.9999999999478746
 51
359.9999999998991029
  0
ARC
  5
B191
  8
0
 10
4578.9277259758682703
 20
152.5595695674462036
 30
0.0
 40
0.016
 50
0.0000000000521102
 51
90.0000000000521254
  0
ARC
  5
B192
  8
0
 10
4578.8014759758680157
 20
152.5595695674462888
 30
0.0
 40
0.016
 50
90.0
 51
180.0
  0
ARC
  5
B193
  8
0
 10
4578.8014759758680157
 20
152.484069567446312
 30
0.0
 40
0.016
 50
180.0000000000260059
 51
270.0
  0
LINE
  5
B194
  8
0
 10
4579.1467259758692308
 20
152.5755695674463084
 30
0.0
 11
4579.0204759758689761
 21
152.5755695674463084
 31
0.0
  0
LINE
  5
B195
  8
0
 10
4579.0044759758693544
 20
152.5595695674462888
 30
0.0
 11
4579.0044759758693544
 21
152.484069567446312
 31
0.0
  0
LINE
  5
B196
  8
0
 10
4579.1467259758692308
 20
152.4680695674462925
 30
0.0
 11
4579.0204759758689761
 21
152.4680695674462925
 31
0.0
  0
LINE
  5
B197
  8
0
 10
4579.1627259758679429
 20
152.484069567446312
 30
0.0
 11
4579.1627259758679429
 21
152.5595695674462888
 31
0.0
  0
ARC
  5
B198
  8
0
 10
4579.1467259758692308
 20
152.484069567446312
 30
0.0
 40
0.016
 50
269.9999999999478746
 51
359.9999999998991029
  0
ARC
  5
B199
  8
0
 10
4579.1467259758692308
 20
152.5595695674462036
 30
0.0
 40
0.016
 50
0.0000000000521102
 51
90.0000000000521254
  0
ARC
  5
B19A
  8
0
 10
4579.0204759758689761
 20
152.5595695674462888
 30
0.0
 40
0.016
 50
90.0
 51
180.0
  0
ARC
  5
B19B
  8
0
 10
4579.0204759758689761
 20
152.484069567446312
 30
0.0
 40
0.016
 50
180.0000000000260059
 51
270.0
  0
LINE
  5
B19C
  8
0
 10
4579.3657259758692817
 20
152.5755695674463084
 30
0.0
 11
4579.239475975869027
 21
152.5755695674463084
 31
0.0
  0
LINE
  5
B19D
  8
0
 10
4579.2234759758694054
 20
152.5595695674462888
 30
0.0
 11
4579.2234759758694054
 21
152.484069567446312
 31
0.0
  0
LINE
  5
B19E
  8
0
 10
4579.3657259758692817
 20
152.4680695674462925
 30
0.0
 11
4579.239475975869027
 21
152.4680695674462925
 31
0.0
  0
LINE
  5
B19F
  8
0
 10
4579.3817259758689033
 20
152.484069567446312
 30
0.0
 11
4579.3817259758689033
 21
152.5595695674462888
 31
0.0
  0
ARC
  5
B1A0
  8
0
 10
4579.3657259758692817
 20
152.484069567446312
 30
0.0
 40
0.016
 50
269.9999999999478746
 51
359.9999999998991029
  0
ARC
  5
B1A1
  8
0
 10
4579.3657259758692817
 20
152.5595695674462036
 30
0.0
 40
0.016
 50
0.0000000000521102
 51
90.0000000000521254
  0
ARC
  5
B1A2
  8
0
 10
4579.239475975869027
 20
152.5595695674462888
 30
0.0
 40
0.016
 50
90.0
 51
180.0
  0
ARC
  5
B1A3
  8
0
 10
4579.239475975869027
 20
152.484069567446312
 30
0.0
 40
0.016
 50
180.0000000000260059
 51
270.0
  0
LINE
  5
B1A4
  8
0
 10
4579.5847259758693326
 20
152.5755695674463084
 30
0.0
 11
4579.458475975869078
 21
152.5755695674463084
 31
0.0
  0
LINE
  5
B1A5
  8
0
 10
4579.4424759758685468
 20
152.5595695674462888
 30
0.0
 11
4579.4424759758685468
 21
152.484069567446312
 31
0.0
  0
LINE
  5
B1A6
  8
0
 10
4579.5847259758693326
 20
152.4680695674462925
 30
0.0
 11
4579.458475975869078
 21
152.4680695674462925
 31
0.0
  0
LINE
  5
B1A7
  8
0
 10
4579.6007259758680448
 20
152.484069567446312
 30
0.0
 11
4579.6007259758680448
 21
152.5595695674462888
 31
0.0
  0
ARC
  5
B1A8
  8
0
 10
4579.5847259758693326
 20
152.484069567446312
 30
0.0
 40
0.016
 50
269.9999999999478746
 51
359.9999999998991029
  0
ARC
  5
B1A9
  8
0
 10
4579.5847259758693326
 20
152.5595695674462036
 30
0.0
 40
0.016
 50
0.0000000000521102
 51
90.0000000000521254
  0
ARC
  5
B1AA
  8
0
 10
4579.458475975869078
 20
152.5595695674462888
 30
0.0
 40
0.016
 50
90.0
 51
180.0
  0
ARC
  5
B1AB
  8
0
 10
4579.458475975869078
 20
152.484069567446312
 30
0.0
 40
0.016
 50
180.0000000000260059
 51
270.0
  0
LINE
  5
B1AC
  8
0
 10
4579.8037259758693835
 20
152.5755695674463084
 30
0.0
 11
4579.6774759758691289
 21
152.5755695674463084
 31
0.0
  0
LINE
  5
B1AD
  8
0
 10
4579.6614759758704167
 20
152.5595695674462888
 30
0.0
 11
4579.6614759758704167
 21
152.484069567446312
 31
0.0
  0
LINE
  5
B1AE
  8
0
 10
4579.8037259758693835
 20
152.4680695674462925
 30
0.0
 11
4579.6774759758691289
 21
152.4680695674462925
 31
0.0
  0
LINE
  5
B1AF
  8
0
 10
4579.8197259758690052
 20
152.484069567446312
 30
0.0
 11
4579.8197259758690052
 21
152.5595695674462888
 31
0.0
  0
ARC
  5
B1B0
  8
0
 10
4579.8037259758693835
 20
152.484069567446312
 30
0.0
 40
0.016
 50
269.9999999999478746
 51
359.9999999998991029
  0
ARC
  5
B1B1
  8
0
 10
4579.8037259758693835
 20
152.5595695674462036
 30
0.0
 40
0.016
 50
0.0000000000521102
 51
90.0000000000521254
  0
ARC
  5
B1B2
  8
0
 10
4579.6774759758691289
 20
152.5595695674462888
 30
0.0
 40
0.016
 50
90.0
 51
180.0
  0
ARC
  5
B1B3
  8
0
 10
4579.6774759758691289
 20
152.484069567446312
 30
0.0
 40
0.016
 50
180.0000000000260059
 51
270.0
  0
LINE
  5
B1B4
  8
0
 10
4580.0227259758694345
 20
152.5755695674463084
 30
0.0
 11
4579.8964759758691798
 21
152.5755695674463084
 31
0.0
  0
LINE
  5
B1B5
  8
0
 10
4579.8804759758686487
 20
152.5595695674462888
 30
0.0
 11
4579.8804759758686487
 21
152.484069567446312
 31
0.0
  0
LINE
  5
B1B6
  8
0
 10
4580.0227259758694345
 20
152.4680695674462925
 30
0.0
 11
4579.8964759758691798
 21
152.4680695674462925
 31
0.0
  0
LINE
  5
B1B7
  8
0
 10
4580.0387259758690561
 20
152.484069567446312
 30
0.0
 11
4580.0387259758690561
 21
152.5595695674462888
 31
0.0
  0
ARC
  5
B1B8
  8
0
 10
4580.0227259758694345
 20
152.484069567446312
 30
0.0
 40
0.016
 50
269.9999999999478746
 51
359.9999999998991029
  0
ARC
  5
B1B9
  8
0
 10
4580.0227259758694345
 20
152.5595695674462036
 30
0.0
 40
0.016
 50
0.0000000000521102
 51
90.0000000000521254
  0
ARC
  5
B1BA
  8
0
 10
4579.8964759758691798
 20
152.5595695674462888
 30
0.0
 40
0.016
 50
90.0
 51
180.0
  0
ARC
  5
B1BB
  8
0
 10
4579.8964759758691798
 20
152.484069567446312
 30
0.0
 40
0.016
 50
180.0000000000260059
 51
270.0
  0
LINE
  5
B1BC
  8
0
 10
4580.2417259758685759
 20
152.5755695674463084
 30
0.0
 11
4580.1154759758692308
 21
152.5755695674463084
 31
0.0
  0
LINE
  5
B1BD
  8
0
 10
4580.0994759758686996
 20
152.5595695674462888
 30
0.0
 11
4580.0994759758686996
 21
152.484069567446312
 31
0.0
  0
LINE
  5
B1BE
  8
0
 10
4580.2417259758685759
 20
152.4680695674462925
 30
0.0
 11
4580.1154759758692308
 21
152.4680695674462925
 31
0.0
  0
LINE
  5
B1BF
  8
0
 10
4580.2577259758691071
 20
152.484069567446312
 30
0.0
 11
4580.2577259758691071
 21
152.5595695674462888
 31
0.0
  0
ARC
  5
B1C0
  8
0
 10
4580.2417259758685759
 20
152.484069567446312
 30
0.0
 40
0.016
 50
269.9999999999478746
 51
359.9999999998991029
  0
ARC
  5
B1C1
  8
0
 10
4580.2417259758685759
 20
152.5595695674462036
 30
0.0
 40
0.016
 50
0.0000000000521102
 51
90.0000000000521254
  0
ARC
  5
B1C2
  8
0
 10
4580.1154759758692308
 20
152.5595695674462888
 30
0.0
 40
0.016
 50
90.0
 51
180.0
  0
ARC
  5
B1C3
  8
0
 10
4580.1154759758692308
 20
152.484069567446312
 30
0.0
 40
0.016
 50
180.0000000000260059
 51
270.0
  0
LINE
  5
B1C4
  8
0
 10
4580.4607259758704458
 20
152.5755695674463084
 30
0.0
 11
4580.3344759758692817
 21
152.5755695674463084
 31
0.0
  0
LINE
  5
B1C5
  8
0
 10
4580.31847597586966
 20
152.5595695674462888
 30
0.0
 11
4580.31847597586966
 21
152.484069567446312
 31
0.0
  0
LINE
  5
B1C6
  8
0
 10
4580.4607259758704458
 20
152.4680695674462925
 30
0.0
 11
4580.3344759758692817
 21
152.4680695674462925
 31
0.0
  0
LINE
  5
B1C7
  8
0
 10
4580.476725975869158
 20
152.484069567446312
 30
0.0
 11
4580.476725975869158
 21
152.5595695674462888
 31
0.0
  0
ARC
  5
B1C8
  8
0
 10
4580.4607259758704458
 20
152.484069567446312
 30
0.0
 40
0.016
 50
269.9999999999478746
 51
359.9999999998991029
  0
ARC
  5
B1C9
  8
0
 10
4580.4607259758704458
 20
152.5595695674462036
 30
0.0
 40
0.016
 50
0.0000000000521102
 51
90.0000000000521254
  0
ARC
  5
B1CA
  8
0
 10
4580.3344759758692817
 20
152.5595695674462888
 30
0.0
 40
0.016
 50
90.0
 51
180.0
  0
ARC
  5
B1CB
  8
0
 10
4580.3344759758692817
 20
152.484069567446312
 30
0.0
 40
0.016
 50
180.0000000000260059
 51
270.0
  0
LINE
  5
B1CC
  8
0
 10
4580.5789900284689793
 20
206.2473309312009917
 30
0.0
 11
4580.5789900284689793
 21
208.1223309312009917
 31
0.0
  0
LINE
  5
B1CD
  8
0
 10
4580.4526912241690297
 20
206.2473309312009917
 30
0.0
 11
4580.4526912241690297
 21
208.1223309312009917
 31
0.0
  0
LINE
  5
B1CE
  8
0
 10
4577.9111396347680056
 20
210.4264044078009874
 30
0.0
 11
4577.9111396347680056
 21
208.8631944938009042
 31
0.0
  0
LINE
  5
B1CF
  8
0
 10
4577.7848408304689656
 20
210.4264044078009874
 30
0.0
 11
4577.7848408304689656
 21
208.8631944938009042
 31
0.0
  0
LINE
  5
B1D0
  8
0
 10
4578.4674902326696611
 20
210.332654699386012
 30
0.0
 11
4578.4674902326696611
 21
208.8788424112098028
 31
0.0
  0
LINE
  5
B1D1
  8
0
 10
4578.4674902326696611
 20
205.8795494664354067
 30
0.0
 11
4578.4674902326696611
 21
153.0791544813463076
 31
0.0
  0
LINE
  5
B1D2
  8
0
 10
4578.2444902326687952
 20
210.332654699386012
 30
0.0
 11
4578.2444902326687952
 21
208.8788423707246125
 31
0.0
  0
LINE
  5
B1D3
  8
0
 10
4578.2444902326687952
 20
205.8795496035988037
 30
0.0
 11
4578.2444902326687952
 21
153.0791544813463076
 31
0.0
  0
LINE
  5
B1D4
  8
0
 10
4580.1193406263691941
 20
210.3232662621859959
 30
0.0
 11
4580.1193406263691941
 21
208.8787113972481109
 31
0.0
  0
LINE
  5
B1D5
  8
0
 10
4580.1193406263691941
 20
205.8796817129640999
 30
0.0
 11
4580.1193406263691941
 21
153.0697660441462062
 31
0.0
  0
LINE
  5
B1D6
  8
0
 10
4579.8963406263692377
 20
210.3232662621859959
 30
0.0
 11
4579.8963406263692377
 21
208.8788426706146026
 31
0.0
  0
LINE
  5
B1D7
  8
0
 10
4579.8963406263692377
 20
205.8795485875743054
 30
0.0
 11
4579.8963406263692377
 21
153.0697660441462062
 31
0.0
  0
LINE
  5
B1D8
  8
0
 10
4578.0877330335933948
 20
208.8630561791947002
 30
0.0
 11
4578.0877330335933948
 21
208.6801944938009115
 31
0.0
  0
LINE
  5
B1D9
  8
0
 10
4578.2444902326687952
 20
167.0491945673059035
 30
0.0
 11
4578.0564276646691724
 21
167.0491945673059035
 31
0.0
  0
LINE
  5
B1DA
  8
0
 10
4578.2444902326687952
 20
176.0491945673059035
 30
0.0
 11
4578.0564276646691724
 21
176.0491945673059035
 31
0.0
  0
LINE
  5
B1DB
  8
0
 10
4578.0901481746186619
 20
206.1156916898208067
 30
0.0
 11
4578.0901481746186619
 21
206.1541944938009863
 31
0.0
  0
LINE
  5
B1DC
  8
0
 10
4579.4727482832822716
 20
210.2084519398154896
 30
0.0
 11
4579.4727485246703509
 21
208.8788425937123066
 31
0.0
  0
LINE
  5
B1DD
  8
0
 10
4580.1668406263679572
 20
151.1947660441462062
 30
0.0
 11
4579.8488406263686556
 21
151.1947660441462062
 31
0.0
  0
LINE
  5
B1DE
  8
0
 10
4579.8488406263686556
 20
151.1947660441462062
 30
0.0
 11
4579.8488406263686556
 21
151.5987027668462872
 31
0.0
  0
LINE
  5
B1DF
  8
0
 10
4579.8488406263686556
 20
152.6724363679462897
 30
0.0
 11
4579.8488406263686556
 21
153.0697660441462062
 31
0.0
  0
LINE
  5
B1E0
  8
0
 10
4579.8488406263686556
 20
153.0697660441462062
 30
0.0
 11
4580.1668406263679572
 21
153.0697660441462062
 31
0.0
  0
LINE
  5
B1E1
  8
0
 10
4580.1668406263679572
 20
153.0697660441462062
 30
0.0
 11
4580.1668406263679572
 21
152.6724363679462897
 31
0.0
  0
LINE
  5
B1E2
  8
0
 10
4580.1668406263679572
 20
151.5987027668462872
 30
0.0
 11
4580.1668406263679572
 21
151.1947660441462062
 31
0.0
  0
LINE
  5
B1E3
  8
0
 10
4578.1969902326691226
 20
151.4991835744461923
 30
0.0
 11
4578.1969902326691226
 21
151.5987027668462872
 31
0.0
  0
LINE
  5
B1E4
  8
0
 10
4578.1969902326691226
 20
152.6724363679462897
 30
0.0
 11
4578.1969902326691226
 21
153.0791544813463076
 31
0.0
  0
LINE
  5
B1E5
  8
0
 10
4578.1969902326691226
 20
153.0791544813463076
 30
0.0
 11
4578.5149902326693336
 21
153.0791544813463076
 31
0.0
  0
LINE
  5
B1E6
  8
0
 10
4578.5149902326693336
 20
153.0791544813463076
 30
0.0
 11
4578.5149902326693336
 21
152.6724363679462897
 31
0.0
  0
LINE
  5
B1E7
  8
0
 10
4578.5149902326693336
 20
151.5987027668462872
 30
0.0
 11
4578.5149902326693336
 21
151.204154481346194
 31
0.0
  0
LINE
  5
B1E8
  8
0
 10
4578.5149902326693336
 20
151.204154481346194
 30
0.0
 11
4578.1969902326691226
 21
151.204154481346194
 31
0.0
  0
LINE
  5
B1E9
  8
0
 10
4578.1969902326691226
 20
151.204154481346194
 30
0.0
 11
4578.1969902326691226
 21
151.4591945673462874
 31
0.0
  0
LINE
  5
B1EA
  8
0
 10
4580.1668406263679572
 20
152.9539189571461861
 30
0.0
 11
4579.8488406263686556
 21
152.9539189571461861
 31
0.0
  0
LINE
  5
B1EB
  8
0
 10
4578.5149902326693336
 20
152.9539189571461861
 30
0.0
 11
4578.1969902326691226
 21
152.9539189571461861
 31
0.0
  0
LINE
  5
B1EC
  8
0
 10
4580.1668406263679572
 20
152.973335217946186
 30
0.0
 11
4579.8488406263686556
 21
152.973335217946186
 31
0.0
  0
LINE
  5
B1ED
  8
0
 10
4578.5149902326693336
 20
152.973335217946186
 30
0.0
 11
4578.1969902326691226
 21
152.973335217946186
 31
0.0
  0
LINE
  5
B1EE
  8
0
 10
4580.1668406263679572
 20
210.3232662621859959
 30
0.0
 11
4579.8488406263686556
 21
210.3232662621859959
 31
0.0
  0
LINE
  5
B1EF
  8
0
 10
4579.8488406263686556
 20
210.3232662621859959
 30
0.0
 11
4579.8488406263686556
 21
212.1982662621859959
 31
0.0
  0
LINE
  5
B1F0
  8
0
 10
4578.5149902326693336
 20
212.207654699386012
 30
0.0
 11
4578.5149902326693336
 21
210.332654699386012
 31
0.0
  0
LINE
  5
B1F1
  8
0
 10
4578.5149902326693336
 20
210.332654699386012
 30
0.0
 11
4578.1969902326691226
 21
210.332654699386012
 31
0.0
  0
LINE
  5
B1F2
  8
0
 10
4578.1969902326691226
 20
210.332654699386012
 30
0.0
 11
4578.1969902326691226
 21
212.207654699386012
 31
0.0
  0
LINE
  5
B1F3
  8
0
 10
4578.5149902326693336
 20
210.4485017862859877
 30
0.0
 11
4578.1969902326691226
 21
210.4485017862859877
 31
0.0
  0
LINE
  5
B1F4
  8
0
 10
4578.5149902326693336
 20
210.4290855255860038
 30
0.0
 11
4578.1969902326691226
 21
210.4290855255860038
 31
0.0
  0
LINE
  5
B1F5
  8
0
 10
4580.1668406263679572
 20
210.439113349086
 30
0.0
 11
4579.8488406263686556
 21
210.439113349086
 31
0.0
  0
LINE
  5
B1F6
  8
0
 10
4580.1668406263679572
 20
210.4196970882860001
 30
0.0
 11
4579.8488406263686556
 21
210.4196970882860001
 31
0.0
  0
LINE
  5
B1F7
  8
0
 10
4580.1668406263679572
 20
212.1982662621859959
 30
0.0
 11
4580.1668406263679572
 21
210.3232662621859959
 31
0.0
  0
LINE
  5
B1F8
  8
0
 10
4579.8488406263686556
 20
212.1982662621859959
 30
0.0
 11
4580.1668406263679572
 21
212.1982662621859959
 31
0.0
  0
LINE
  5
B1F9
  8
0
 10
4578.5149902326693336
 20
212.207654699386012
 30
0.0
 11
4578.1969902326691226
 21
212.207654699386012
 31
0.0
  0
ENDSEC
  0
EOF
