  0
SECTION
  2
HEADER
  9
$ACADVER
  1
AC1009
  9
$INSBASE
 10
4595.906981801665097
 20
164.7124002130512963
 30
0.0
  9
$EXTMIN
 10
4567.2487505115177555
 20
164.7065460284107985
 30
-0.0000000000000058
  9
$EXTMAX
 10
4624.566890125934151
 20
226.390933323805001
 30
0.0000000000000104
  9
$LIMMIN
 10
0.0
 20
0.0
  9
$LIMMAX
 10
11.6929133858000007
 20
8.2677165353999982
  9
$ORTHOMODE
 70
     0
  9
$REGENMODE
 70
     1
  9
$FILLMODE
 70
     1
  9
$QTEXTMODE
 70
     0
  9
$MIRRTEXT
 70
     0
  9
$DRAGMODE
 70
     2
  9
$LTSCALE
 40
0.6431102362
  9
$OSMODE
 70
  4095
  9
$ATTMODE
 70
     1
  9
$TEXTSIZE
 40
0.2
  9
$TRACEWID
 40
0.05
  9
$TEXTSTYLE
  7
STANDARD
  9
$CLAYER
  8
0
  9
$CELTYPE
  6
BYLAYER
  9
$CECOLOR
 62
   256
  9
$DIMSCALE
 40
1.0
  9
$DIMASZ
 40
0.1875
  9
$DIMEXO
 40
0.0625
  9
$DIMDLI
 40
0.4443307087
  9
$DIMRND
 40
0.0
  9
$DIMDLE
 40
0.0
  9
$DIMEXE
 40
0.125
  9
$DIMTP
 40
0.01
  9
$DIMTM
 40
0.01
  9
$DIMTXT
 40
2.0
  9
$DIMCEN
 40
0.1052362205
  9
$DIMTSZ
 40
0.0
  9
$DIMTOL
 70
     1
  9
$DIMLIM
 70
     0
  9
$DIMTIH
 70
     1
  9
$DIMTOH
 70
     1
  9
$DIMSE1
 70
     0
  9
$DIMSE2
 70
     0
  9
$DIMTAD
 70
     0
  9
$DIMZIN
 70
     0
  9
$DIMBLK
  1

  9
$DIMASO
 70
     1
  9
$DIMSHO
 70
     1
  9
$DIMPOST
  1
\X
  9
$DIMAPOST
  1

  9
$DIMALT
 70
     1
  9
$DIMALTD
 70
     2
  9
$DIMALTF
 40
25.3999999999999986
  9
$DIMLFAC
 40
1.0
  9
$DIMTOFL
 70
     0
  9
$DIMTVP
 40
0.0
  9
$DIMTIX
 70
     0
  9
$DIMSOXD
 70
     0
  9
$DIMSAH
 70
     0
  9
$DIMBLK1
  1

  9
$DIMBLK2
  1

  9
$DIMSTYLE
  2
STANDARD
  9
$DIMCLRD
 70
     0
  9
$DIMCLRE
 70
     0
  9
$DIMCLRT
 70
     0
  9
$DIMTFAC
 40
1.0
  9
$DIMGAP
 40
0.09
  9
$LUNITS
 70
     2
  9
$LUPREC
 70
     4
  9
$SKETCHINC
 40
0.1
  9
$FILLETRAD
 40
0.0
  9
$AUNITS
 70
     0
  9
$AUPREC
 70
     0
  9
$MENU
  1
.
  9
$ELEVATION
 40
0.0
  9
$PELEVATION
 40
0.0
  9
$THICKNESS
 40
0.0
  9
$LIMCHECK
 70
     0
  9
$BLIPMODE
 70
     0
  9
$CHAMFERA
 40
0.0
  9
$CHAMFERB
 40
0.0
  9
$SKPOLY
 70
     0
  9
$TDCREATE
 40
2458060.468368056230247
  9
$TDUPDATE
 40
2459376.6510879630222917
  9
$TDINDWG
 40
0.4103890046
  9
$TDUSRTIMER
 40
0.4103890046
  9
$USRTIMER
 70
     1
  9
$ANGBASE
 50
0.0
  9
$ANGDIR
 70
     0
  9
$PDMODE
 70
     0
  9
$PDSIZE
 40
0.3125
  9
$PLINEWID
 40
0.0
  9
$COORDS
 70
     1
  9
$SPLFRAME
 70
     0
  9
$SPLINETYPE
 70
     6
  9
$SPLINESEGS
 70
     8
  9
$ATTDIA
 70
     1
  9
$ATTREQ
 70
     1
  9
$HANDLING
 70
     1
  9
$HANDSEED
  5
AA5A
  9
$SURFTAB1
 70
     6
  9
$SURFTAB2
 70
     6
  9
$SURFTYPE
 70
     6
  9
$SURFU
 70
     6
  9
$SURFV
 70
     6
  9
$UCSNAME
  2

  9
$UCSORG
 10
0.0
 20
0.0
 30
0.0
  9
$UCSXDIR
 10
1.0
 20
0.0
 30
0.0
  9
$UCSYDIR
 10
0.0
 20
1.0
 30
0.0
  9
$PUCSNAME
  2

  9
$PUCSORG
 10
0.0
 20
0.0
 30
0.0
  9
$PUCSXDIR
 10
1.0
 20
0.0
 30
0.0
  9
$PUCSYDIR
 10
0.0
 20
1.0
 30
0.0
  9
$USERI1
 70
     0
  9
$USERI2
 70
     0
  9
$USERI3
 70
     0
  9
$USERI4
 70
     0
  9
$USERI5
 70
     0
  9
$USERR1
 40
0.0
  9
$USERR2
 40
0.0
  9
$USERR3
 40
0.0
  9
$USERR4
 40
0.0
  9
$USERR5
 40
0.0
  9
$WORLDVIEW
 70
     1
  9
$SHADEDGE
 70
     3
  9
$SHADEDIF
 70
    70
  9
$TILEMODE
 70
     1
  9
$MAXACTVP
 70
    64
  9
$PLIMCHECK
 70
     0
  9
$PEXTMIN
 10
1.0000000000000000E+20
 20
1.0000000000000000E+20
 30
1.0000000000000000E+20
  9
$PEXTMAX
 10
-1.0000000000000000E+20
 20
-1.0000000000000000E+20
 30
-1.0000000000000000E+20
  9
$PLIMMIN
 10
0.0
 20
0.0
  9
$PLIMMAX
 10
12.0
 20
9.0
  9
$UNITMODE
 70
     0
  9
$VISRETAIN
 70
     1
  9
$PLINEGEN
 70
     0
  9
$PSLTSCALE
 70
     1
  0
ENDSEC
  0
SECTION
  2
TABLES
  0
TABLE
  2
VPORT
 70
     1
  0
VPORT
  2
*ACTIVE
 70
     0
 10
0.0
 20
0.0
 11
1.0
 21
1.0
 12
792.363752935913908
 22
69.5534774793579942
 13
0.0
 23
0.0
 14
1.0
 24
1.0
 15
0.0
 25
0.0
 16
0.0
 26
0.0
 36
17.1152628219792007
 17
3803.5440673828129547
 27
125.9952621967499056
 37
0.0
 40
62.4143800444521375
 41
2.5612648221343872
 42
50.0
 43
0.0
 44
0.0
 50
0.0
 51
0.0
 71
     0
 72
   100
 73
     1
 74
     1
 75
     0
 76
     0
 77
     0
 78
     0
  0
ENDTAB
  0
TABLE
  2
LTYPE
 70
     2
  0
LTYPE
  2
CONTINUOUS
 70
     0
  3
Solid line
 72
    65
 73
     0
 40
0.0
  0
LTYPE
  2
PHANTOM2
 70
     0
  3
___ _ _ ___ _ _ ___ _ _ ___ _ _
 72
    65
 73
     6
 40
1.25
 49
0.625
 49
-0.125
 49
0.125
 49
-0.125
 49
0.125
 49
-0.125
  0
ENDTAB
  0
TABLE
  2
LAYER
 70
     2
  0
LAYER
  2
0
 70
     0
 62
   255
  6
CONTINUOUS
  0
LAYER
  2
DEFPOINTS
 70
     0
 62
     7
  6
CONTINUOUS
  0
ENDTAB
  0
TABLE
  2
STYLE
 70
     1
  0
STYLE
  2
STANDARD
 70
     0
 40
0.0
 41
0.8
 50
0.0
 71
     0
 42
0.2
  3
txt
  4

  0
ENDTAB
  0
TABLE
  2
VIEW
 70
     0
  0
ENDTAB
  0
TABLE
  2
UCS
 70
     0
  0
ENDTAB
  0
TABLE
  2
APPID
 70
     9
  0
APPID
  2
ACAD
 70
     0
  0
APPID
  2
ACAD_MLEADERVER
 70
     0
  0
APPID
  2
ACAD_EXEMPT_FROM_CAD_STANDARDS
 70
     0
  0
APPID
  2
ACAD_NAV_VCDISPLAY
 70
     0
  0
APPID
  2
ACAECLAYERSTANDARD
 70
     0
  0
APPID
  2
ACCMTRANSPARENCY
 70
     0
  0
APPID
  2
ACAD_DSTYLE_DIMJAG
 70
     0
  0
APPID
  2
ACAD_DSTYLE_DIMTALN
 70
     0
  0
APPID
  2
ACDBATTR
 70
     0
  0
ENDTAB
  0
TABLE
  2
DIMSTYLE
 70
     1
  0
DIMSTYLE
  2
STANDARD
 70
     0
  3

  4

  5

  6

  7

 40
1.0
 41
0.1875
 42
0.0625
 43
0.38
 44
0.125
 45
0.0
 46
0.0
 47
0.01
 48
0.01
140
0.15625
141
0.09
142
0.0
143
25.3999999999999986
144
1.0
145
0.0
146
1.0
147
0.09
 71
     1
 72
     0
 73
     1
 74
     1
 75
     0
 76
     0
 77
     0
 78
     4
170
     0
171
     2
172
     0
173
     0
174
     0
175
     0
176
     0
177
     0
178
     0
  0
ENDTAB
  0
ENDSEC
  0
SECTION
  2
BLOCKS
  0
BLOCK
  8
0
  2
$MODEL_SPACE
 70
     0
 10
0.0
 20
0.0
 30
0.0
  3
$MODEL_SPACE
  1

  0
ENDBLK
  5
21
  8
0
  0
BLOCK
 67
     1
  8
0
  2
$PAPER_SPACE
 70
     0
 10
0.0
 20
0.0
 30
0.0
  3
$PAPER_SPACE
  1

  0
ENDBLK
  5
1D
 67
     1
  8
0
  0
ENDSEC
  0
SECTION
  2
ENTITIES
  0
ATTDEF
  5
3930
  8
DEFPOINTS
 10
4595.9040030150899838
 20
164.7173902694609922
 30
0.0
 40
0.001
  1
K-706000-D3
  3

  2
MODELNUMBER
 70
     0
1001
ACDBATTR
1070
     0
1070
     1
  0
ATTDEF
  5
3931
  8
DEFPOINTS
 10
4595.9040030150899838
 20
164.7157236027942986
 30
0.0
 40
0.001
  1
LEVITY
  3

  2
TRADENAME
 70
     0
1001
ACDBATTR
1070
     0
1070
     1
  0
ATTDEF
  5
3932
  8
DEFPOINTS
 10
4595.9040030150899838
 20
164.7140569361276903
 30
0.0
 40
0.001
  1
BATH DOOR
  3

  2
PRODUCT
 70
     0
1001
ACDBATTR
1070
     0
1070
     1
  0
LINE
  5
A92A
  8
0
 10
4567.9204818016651188
 20
164.7124002130512963
 30
0.0
 11
4623.8934818016650752
 21
164.7124002130512963
 31
0.0
  0
LINE
  5
A92B
  8
0
 10
4568.3631860155646791
 20
165.7564002130513927
 30
0.0
 11
4623.4507775877636959
 21
165.7564002130513927
 31
0.0
  0
LINE
  5
A92C
  8
0
 10
4623.2304818016637
 20
222.8294002130514002
 30
0.0
 11
4598.9134818016636927
 21
222.8294002130514002
 31
0.0
  0
LINE
  5
A92D
  8
0
 10
4598.9134818016636927
 20
220.2744002130511092
 30
0.0
 11
4623.2304818016637
 21
220.27440021263331
 31
0.0
  0
LINE
  5
A92E
  8
0
 10
4621.2080454279694095
 20
190.2214002130708081
 30
0.0
 11
4621.5275948384696676
 21
190.2214002130361052
 31
0.0
  0
ARC
  5
A92F
  8
0
 10
4621.5275948384669391
 20
190.1911740722702859
 30
0.0
 40
0.0302261407657579
 50
0.4286697542373694
 51
89.9999999937467692
  0
LINE
  5
A930
  8
0
 10
4621.5578201332700701
 20
190.1914002130361041
 30
0.0
 11
4621.5578201332700701
 21
181.2514002130365895
 31
0.0
  0
ARC
  5
A931
  8
0
 10
4621.5277067691658885
 20
181.251513582487604
 30
0.0
 40
0.0301135775073696
 50
269.7870338979582243
 51
359.7842964223660829
  0
LINE
  5
A932
  8
0
 10
4621.5275948384705771
 20
181.2214002130012886
 30
0.0
 11
4621.208045427970319
 21
181.2214002130012886
 31
0.0
  0
ARC
  5
A933
  8
0
 10
4621.2079334971449498
 20
181.2515135822918069
 30
0.0
 40
0.0301135772773481
 50
180.2157032079352916
 51
270.2129663505049848
  0
LINE
  5
A934
  8
0
 10
4621.1778201332699609
 20
181.2514002130361064
 30
0.0
 11
4621.177820133169007
 21
190.1914002130355072
 31
0.0
  0
ARC
  5
A935
  8
0
 10
4621.2078999128807482
 20
190.1913206801561955
 30
0.0
 40
0.0300798848553893
 50
89.7228236397408239
 51
179.848506613412809
  0
ARC
  5
A936
  8
0
 10
4621.2674809465615908
 20
190.1899090912895076
 30
0.0
 40
0.0315384289722357
 50
93.1385966893997335
 51
177.2900728658609069
  0
LINE
  5
A937
  8
0
 10
4621.2359777870688049
 20
190.1914002130361041
 30
0.0
 11
4621.2359777870688049
 21
181.2514002130361064
 31
0.0
  0
ARC
  5
A938
  8
0
 10
4621.26586639920788
 20
181.2512888220443017
 30
0.0
 40
0.0298888197070992
 50
179.7864670285792954
 51
269.7848631973421902
  0
ARC
  5
A939
  8
0
 10
4621.4681593199784402
 20
190.1899090912895076
 30
0.0
 40
0.0315384289722357
 50
2.7099271341390678
 51
86.8614033106002665
  0
LINE
  5
A93A
  8
0
 10
4621.4996624794703166
 20
190.1914002130361041
 30
0.0
 11
4621.4996624794703166
 21
181.2514002130361064
 31
0.0
  0
ARC
  5
A93B
  8
0
 10
4621.469773867332151
 20
181.2512888220443017
 30
0.0
 40
0.0298888197070992
 50
270.2151368026576961
 51
0.21353297142068
  0
LINE
  5
A93C
  8
0
 10
4624.219481801665097
 20
164.7904002130514129
 30
0.0
 11
4624.219481801665097
 21
165.7127752130512874
 31
0.0
  0
LINE
  5
A93D
  8
0
 10
4624.219481801665097
 20
165.7709084125513925
 30
0.0
 11
4624.219481801665097
 21
166.0577752130514
 31
0.0
  0
LINE
  5
A93E
  8
0
 10
4624.219481801665097
 20
165.7709084125513925
 30
0.0
 11
4624.1594818016637873
 21
165.7740528793513022
 31
0.0
  0
LINE
  5
A93F
  8
0
 10
4624.219481801665097
 20
165.7127752130512874
 30
0.0
 11
4624.1594818016637873
 21
165.7127752130512874
 31
0.0
  0
LINE
  5
A940
  8
0
 10
4624.229009152864819
 20
166.0577752130514
 30
0.0
 11
4624.1594818016637873
 21
166.0577752130514
 31
0.0
  0
LINE
  5
A941
  8
0
 10
4624.229009152864819
 20
166.0577752130514
 30
0.0
 11
4624.229009152864819
 21
166.5577752130512863
 31
0.0
  0
LINE
  5
A942
  8
0
 10
4624.229009152864819
 20
166.5577752130512863
 30
0.0
 11
4624.1594818016637873
 21
166.5577752130512863
 31
0.0
  0
LINE
  5
A943
  8
0
 10
4624.1594818016637873
 20
166.051716837151389
 30
0.0
 11
4624.219481801665097
 21
166.0506786330514046
 31
0.0
  0
LINE
  5
A944
  8
0
 10
4624.1594818016637873
 20
166.035719883151387
 30
0.0
 11
4624.219481801665097
 21
166.0346816791513902
 31
0.0
  0
LINE
  5
A945
  8
0
 10
4624.1594818016637873
 20
166.02985855188291
 30
0.0
 11
4624.219481801665097
 21
166.0288203478513083
 31
0.0
  0
LINE
  5
A946
  8
0
 10
4624.1594818016637873
 20
165.8688225169514112
 30
0.0
 11
4624.219481801665097
 21
165.8677752130514023
 31
0.0
  0
LINE
  5
A947
  8
0
 10
4624.1594818016637873
 20
165.8848200801513997
 30
0.0
 11
4624.219481801665097
 21
165.8837727762513907
 31
0.0
  0
LINE
  5
A948
  8
0
 10
4624.1594818016637873
 20
165.9586490000733932
 30
0.0
 11
4624.219481801665097
 21
165.9586490000733932
 31
0.0
  0
LINE
  5
A949
  8
0
 10
4624.1594818016637873
 20
165.9586490000733932
 30
0.0
 11
4624.219481801665097
 21
165.9586490000733932
 31
0.0
  0
LINE
  5
A94A
  8
0
 10
4624.1594818016637873
 20
165.9742279091514092
 30
0.0
 11
4624.219481801665097
 21
165.9752752130513898
 31
0.0
  0
LINE
  5
A94B
  8
0
 10
4624.1594818016637873
 20
166.5638335889512973
 30
0.0
 11
4624.219481801665097
 21
166.5648717930513953
 31
0.0
  0
LINE
  5
A94C
  8
0
 10
4624.1594818016637873
 20
166.579830542951413
 30
0.0
 11
4624.219481801665097
 21
166.5808687470513973
 31
0.0
  0
LINE
  5
A94D
  8
0
 10
4624.1594818016637873
 20
166.585691874319906
 30
0.0
 11
4624.219481801665097
 21
166.586730078351394
 31
0.0
  0
LINE
  5
A94E
  8
0
 10
4624.1594818016637873
 20
166.6413225169513908
 30
0.0
 11
4624.219481801665097
 21
166.6402752130514102
 31
0.0
  0
LINE
  5
A94F
  8
0
 10
4624.1594818016637873
 20
166.657320080151294
 30
0.0
 11
4624.219481801665097
 21
166.6562727762513987
 31
0.0
  0
LINE
  5
A950
  8
0
 10
4624.1594818016637873
 20
166.8377752130514011
 30
0.0
 11
4624.219481801665097
 21
166.8377752130514011
 31
0.0
  0
LINE
  5
A951
  8
0
 10
4624.1594818016637873
 20
166.7467279091513888
 30
0.0
 11
4624.219481801665097
 21
166.7477752130513977
 31
0.0
  0
LINE
  5
A952
  8
0
 10
4624.1594818016637873
 20
166.7307303460513879
 30
0.0
 11
4624.219481801665097
 21
166.7317776499513968
 31
0.0
  0
LINE
  5
A953
  8
0
 10
4624.1598225905654544
 20
164.7904002130514129
 30
0.0
 11
4624.1598225905654544
 21
222.9554002130512913
 31
0.0
  0
LINE
  5
A954
  8
0
 10
4624.1594818016637873
 20
164.7904002130514129
 30
0.0
 11
4623.4507775877636959
 21
164.7904002130514129
 31
0.0
  0
LINE
  5
A955
  8
0
 10
4624.1598225905654544
 20
164.7904002130514129
 30
0.0
 11
4624.219481801665097
 21
164.7904002130514129
 31
0.0
  0
LINE
  5
A956
  8
0
 10
4623.4507775877636959
 20
164.7904002130514129
 30
0.0
 11
4623.4507775877636959
 21
222.9554002130512913
 31
0.0
  0
LINE
  5
A957
  8
0
 10
4623.8934818016650752
 20
164.7904002130514129
 30
0.0
 11
4623.8934818016650752
 21
164.7124002130512963
 31
0.0
  0
LINE
  5
A958
  8
0
 10
4624.219481801665097
 20
166.5577752130512863
 30
0.0
 11
4624.219481801665097
 21
223.031048065247802
 31
0.0
  0
LINE
  5
A959
  8
0
 10
4623.2501327535337623
 20
223.0344801624507056
 30
0.0
 11
4624.1991327535342862
 21
223.0510450191509051
 31
0.0
  0
LINE
  5
A95A
  8
0
 10
4623.2304818016637
 20
220.0883172175549021
 30
0.0
 11
4623.2304818016637
 21
223.0144832085476025
 31
0.0
  0
LINE
  5
A95B
  8
0
 10
4623.2501327535328528
 20
220.0683202636519127
 30
0.0
 11
4623.4507775877636959
 21
220.0648179950090082
 31
0.0
  0
ARC
  5
A95C
  8
0
 10
4623.2504818016641366
 20
220.0883172175549873
 30
0.0
 40
0.02
 50
180.0000000000406999
 51
268.9999999902781838
  0
ARC
  5
A95D
  8
0
 10
4623.2504818016641366
 20
223.0144832085476025
 30
0.0
 40
0.02
 50
91.0000000050833222
 51
179.9999999999380975
  0
ARC
  5
A95E
  8
0
 10
4624.1994818016646605
 20
223.031048065247802
 30
0.0
 40
0.02
 50
0.0000000000195413
 51
91.0000000049790714
  0
LINE
  5
A95F
  8
0
 10
4623.445481801664755
 20
222.9554002130512913
 30
0.0
 11
4624.219481801665097
 21
222.9554002130512913
 31
0.0
  0
LINE
  5
A960
  8
0
 10
4623.445481801664755
 20
222.9554002130512913
 30
0.0
 11
4623.4469273811582752
 21
222.996796192940991
 31
0.0
  0
ARC
  5
A961
  8
0
 10
4623.4869030142390329
 20
222.9954002130513118
 30
0.0
 40
0.04
 50
89.8901279747141899
 51
177.9999999691536061
  0
LINE
  5
A962
  8
0
 10
4624.219481801665097
 20
222.9554002130512913
 30
0.0
 11
4624.2166881401635692
 21
223.0354002130513038
 31
0.0
  0
ARC
  5
A963
  8
0
 10
4623.9204818016651188
 20
223.0261781020512899
 30
0.0
 40
0.0200000000000191
 50
91.0000000050311684
 51
152.5417677815227933
  0
LINE
  5
A964
  8
0
 10
4597.2259820197050431
 20
226.2861101270513018
 30
0.0
 11
4569.6009815836250709
 21
226.2861101270513018
 31
0.0
  0
LINE
  5
A965
  8
0
 10
4623.9004818016646823
 20
223.04583204736889
 30
0.0
 11
4623.9004818016646823
 21
224.5892219078913001
 31
0.0
  0
LINE
  5
A966
  8
0
 10
4599.0031191835450954
 20
226.2767216897512981
 30
0.0
 11
4622.212982019806077
 21
226.2767216897512981
 31
0.0
  0
LINE
  5
A967
  8
0
 10
4598.9134818016636927
 20
224.5986103450910889
 30
0.0
 11
4598.9134818016636927
 21
167.1561025799454967
 31
0.0
  0
LINE
  5
A968
  8
0
 10
4570.6058436367547984
 20
190.2214002130708081
 30
0.0
 11
4570.2862942262563593
 21
190.2214002130361052
 31
0.0
  0
ARC
  5
A969
  8
0
 10
4570.2862942262581782
 20
190.1911740722702859
 30
0.0
 40
0.0302261407657579
 50
90.0000000062011054
 51
179.5713302457625957
  0
LINE
  5
A96A
  8
0
 10
4570.2560689314550473
 20
190.1914002130361041
 30
0.0
 11
4570.2560689314550473
 21
181.2514002130365895
 31
0.0
  0
ARC
  5
A96B
  8
0
 10
4570.2861822955592288
 20
181.251513582487604
 30
0.0
 40
0.0301135775073696
 50
180.2157035776338034
 51
270.2129661019895934
  0
LINE
  5
A96C
  8
0
 10
4570.2862942262554498
 20
181.2214002130012886
 30
0.0
 11
4570.6058436367538889
 21
181.2214002130012886
 31
0.0
  0
ARC
  5
A96D
  8
0
 10
4570.6059555675801676
 20
181.2515135822918069
 30
0.0
 40
0.0301135772773481
 50
269.7870336494950152
 51
359.7842967920647084
  0
LINE
  5
A96E
  8
0
 10
4570.6360689314551564
 20
181.2514002130361064
 30
0.0
 11
4570.6360689315552008
 21
190.1914002130355072
 31
0.0
  0
ARC
  5
A96F
  8
0
 10
4570.6059891518443692
 20
190.1913206801561955
 30
0.0
 40
0.0300798848553893
 50
0.1514933865871997
 51
90.2771763602591761
  0
ARC
  5
A970
  8
0
 10
4570.546408118164436
 20
190.1899090912895076
 30
0.0
 40
0.0315384289722357
 50
2.7099271341390678
 51
86.8614033106002665
  0
LINE
  5
A971
  8
0
 10
4570.577911277655403
 20
190.1914002130361041
 30
0.0
 11
4570.577911277655403
 21
181.2514002130361064
 31
0.0
  0
ARC
  5
A972
  8
0
 10
4570.5480226655172373
 20
181.2512888220443017
 30
0.0
 40
0.0298888197070992
 50
270.2151368026576961
 51
0.21353297142068
  0
ARC
  5
A973
  8
0
 10
4570.3457297447457677
 20
190.1899090912895076
 30
0.0
 40
0.0315384289722357
 50
93.1385966893997335
 51
177.2900728658609069
  0
LINE
  5
A974
  8
0
 10
4570.3142265852548007
 20
190.1914002130361041
 30
0.0
 11
4570.3142265852548007
 21
181.2514002130361064
 31
0.0
  0
ARC
  5
A975
  8
0
 10
4570.3441151973929664
 20
181.2512888220443017
 30
0.0
 40
0.0298888197070992
 50
179.7864670285792954
 51
269.7848631973421902
  0
LINE
  5
A976
  8
0
 10
4567.594481801665097
 20
164.7904002130514129
 30
0.0
 11
4567.594481801665097
 21
165.7127752130512874
 31
0.0
  0
LINE
  5
A977
  8
0
 10
4567.594481801665097
 20
165.7709084125513925
 30
0.0
 11
4567.594481801665097
 21
166.0577752130514
 31
0.0
  0
LINE
  5
A978
  8
0
 10
4567.594481801665097
 20
165.7709084125513925
 30
0.0
 11
4567.6544818016636782
 21
165.7740528793513022
 31
0.0
  0
LINE
  5
A979
  8
0
 10
4567.594481801665097
 20
165.7127752130512874
 30
0.0
 11
4567.6544818016636782
 21
165.7127752130512874
 31
0.0
  0
LINE
  5
A97A
  8
0
 10
4567.5849544504662845
 20
166.0577752130514
 30
0.0
 11
4567.6544818016636782
 21
166.0577752130514
 31
0.0
  0
LINE
  5
A97B
  8
0
 10
4567.5849544504662845
 20
166.0577752130514
 30
0.0
 11
4567.5849544504662845
 21
166.5577752130512863
 31
0.0
  0
LINE
  5
A97C
  8
0
 10
4567.5849544504662845
 20
166.5577752130512863
 30
0.0
 11
4567.6544818016636782
 21
166.5577752130512863
 31
0.0
  0
LINE
  5
A97D
  8
0
 10
4567.6544818016636782
 20
166.051716837151389
 30
0.0
 11
4567.594481801665097
 21
166.0506786330514046
 31
0.0
  0
LINE
  5
A97E
  8
0
 10
4567.6544818016636782
 20
166.035719883151387
 30
0.0
 11
4567.594481801665097
 21
166.0346816791513902
 31
0.0
  0
LINE
  5
A97F
  8
0
 10
4567.6544818016636782
 20
166.02985855188291
 30
0.0
 11
4567.594481801665097
 21
166.0288203478513083
 31
0.0
  0
LINE
  5
A980
  8
0
 10
4567.6544818016636782
 20
165.8688225169514112
 30
0.0
 11
4567.594481801665097
 21
165.8677752130514023
 31
0.0
  0
LINE
  5
A981
  8
0
 10
4567.6544818016636782
 20
165.8848200801513997
 30
0.0
 11
4567.594481801665097
 21
165.8837727762513907
 31
0.0
  0
LINE
  5
A982
  8
0
 10
4567.6544818016636782
 20
165.9586490000733932
 30
0.0
 11
4567.594481801665097
 21
165.9586490000733932
 31
0.0
  0
LINE
  5
A983
  8
0
 10
4567.6544818016636782
 20
165.9586490000733932
 30
0.0
 11
4567.594481801665097
 21
165.9586490000733932
 31
0.0
  0
LINE
  5
A984
  8
0
 10
4567.6544818016636782
 20
165.9742279091514092
 30
0.0
 11
4567.594481801665097
 21
165.9752752130513898
 31
0.0
  0
LINE
  5
A985
  8
0
 10
4567.6544818016636782
 20
166.5638335889512973
 30
0.0
 11
4567.594481801665097
 21
166.5648717930513953
 31
0.0
  0
LINE
  5
A986
  8
0
 10
4567.6544818016636782
 20
166.579830542951413
 30
0.0
 11
4567.594481801665097
 21
166.5808687470513973
 31
0.0
  0
LINE
  5
A987
  8
0
 10
4567.6544818016636782
 20
166.585691874319906
 30
0.0
 11
4567.594481801665097
 21
166.586730078351394
 31
0.0
  0
LINE
  5
A988
  8
0
 10
4567.6544818016636782
 20
166.6413225169513908
 30
0.0
 11
4567.594481801665097
 21
166.6402752130514102
 31
0.0
  0
LINE
  5
A989
  8
0
 10
4567.6544818016636782
 20
166.657320080151294
 30
0.0
 11
4567.594481801665097
 21
166.6562727762513987
 31
0.0
  0
LINE
  5
A98A
  8
0
 10
4567.6544818016636782
 20
166.8377752130514011
 30
0.0
 11
4567.594481801665097
 21
166.8377752130514011
 31
0.0
  0
LINE
  5
A98B
  8
0
 10
4567.6544818016636782
 20
166.7467279091513888
 30
0.0
 11
4567.594481801665097
 21
166.7477752130513977
 31
0.0
  0
LINE
  5
A98C
  8
0
 10
4567.6544818016636782
 20
166.7307303460513879
 30
0.0
 11
4567.594481801665097
 21
166.7317776499513968
 31
0.0
  0
LINE
  5
A98D
  8
0
 10
4567.6541410127647396
 20
164.7904002130514129
 30
0.0
 11
4567.6541410127647396
 21
222.9554002130512913
 31
0.0
  0
LINE
  5
A98E
  8
0
 10
4567.6544818016636782
 20
164.7904002130514129
 30
0.0
 11
4568.3631860155646791
 21
164.7904002130514129
 31
0.0
  0
LINE
  5
A98F
  8
0
 10
4567.6541410127647396
 20
164.7904002130514129
 30
0.0
 11
4567.594481801665097
 21
164.7904002130514129
 31
0.0
  0
LINE
  5
A990
  8
0
 10
4568.3631860155646791
 20
164.7904002130514129
 30
0.0
 11
4568.3631860155646791
 21
222.9554002130512913
 31
0.0
  0
LINE
  5
A991
  8
0
 10
4567.9204818016651188
 20
164.7904002130514129
 30
0.0
 11
4567.9204818016651188
 21
164.7124002130512963
 31
0.0
  0
LINE
  5
A992
  8
0
 10
4567.594481801665097
 20
166.5577752130512863
 30
0.0
 11
4567.594481801665097
 21
223.031048065247802
 31
0.0
  0
LINE
  5
A993
  8
0
 10
4567.9134818016646022
 20
223.04583204736889
 30
0.0
 11
4567.6148308497949984
 21
223.0510450191509051
 31
0.0
  0
ARC
  5
A994
  8
0
 10
4567.6144818016646241
 20
223.031048065247802
 30
0.0
 40
0.02
 50
88.9999999950209428
 51
179.9999999999787974
  0
LINE
  5
A995
  8
0
 10
4568.36848180166362
 20
222.9554002130512913
 30
0.0
 11
4567.594481801665097
 21
222.9554002130512913
 31
0.0
  0
LINE
  5
A996
  8
0
 10
4568.36848180166362
 20
222.9554002130512913
 30
0.0
 11
4568.3670362221710093
 21
222.996796192940991
 31
0.0
  0
ARC
  5
A997
  8
0
 10
4568.3270605890911611
 20
222.9954002130513118
 30
0.0
 40
0.04
 50
2.0000000308463641
 51
90.1098720252858385
  0
LINE
  5
A998
  8
0
 10
4567.594481801665097
 20
222.9554002130512913
 30
0.0
 11
4567.5972754631648058
 21
223.0354002130513038
 31
0.0
  0
ARC
  5
A999
  8
0
 10
4567.8934818016641657
 20
223.0261781020512899
 30
0.0
 40
0.0200000000000191
 50
27.4582322184815091
 51
88.9999999949688174
  0
LINE
  5
A99A
  8
0
 10
4567.9134818016646022
 20
223.0354001395060095
 30
0.0
 11
4567.9134818016646022
 21
224.5986103450912026
 31
0.0
  0
CIRCLE
  5
A99B
  8
0
 10
4569.9134818016636927
 20
223.6611100535060928
 30
0.0
 40
0.9374999999999991
  0
CIRCLE
  5
A99C
  8
0
 10
4596.9134818016646022
 20
223.6611100535060928
 30
0.0
 40
0.9375000000000014
  0
LINE
  5
A99D
  8
0
 10
4567.594481801665097
 20
222.8524002130513111
 30
0.0
 11
4567.6541410127647396
 21
222.8524002130513111
 31
0.0
  0
LINE
  5
A99E
  8
0
 10
4567.6141327535069649
 20
222.9183202636523049
 30
0.0
 11
4567.6541410127647396
 21
222.917621916844098
 31
0.0
  0
ARC
  5
A99F
  8
0
 10
4567.6144818016573481
 20
222.9383172175479899
 30
0.0
 40
0.0199999999929176
 50
180.0
 51
268.9999999352934879
  0
LINE
  5
A9A1
  8
0
 10
4624.2166881427328917
 20
223.0354001395060095
 30
0.0
 11
4623.4869797193359773
 21
223.0354001395060095
 31
0.0
  0
LINE
  5
A9A2
  8
0
 10
4567.5972754605963928
 20
223.0354001395060095
 30
0.0
 11
4568.3269838839942167
 21
223.0354001395060095
 31
0.0
  0
LINE
  5
A9A3
  8
0
 10
4622.1192318016637728
 20
226.3704719078911012
 30
0.0
 11
4623.9942318016637728
 21
224.4954719078911012
 31
0.0
  0
LINE
  5
A9A4
  8
0
 10
4623.9473568016637728
 20
224.6334367922935087
 30
0.0
 11
4623.9473568016637728
 21
226.2207441626574109
 31
0.0
  0
ARC
  5
A9A5
  8
0
 10
4623.9161068016637728
 20
226.2923469078911012
 30
0.0
 40
0.0781250000000012
 50
293.5781784781793817
 51
156.4218215217823911
  0
LINE
  5
A9A6
  8
0
 10
4622.2571966860659813
 20
226.3235969078911012
 30
0.0
 11
4623.8445040564311057
 21
226.3235969078911012
 31
0.0
  0
LINE
  5
A9A7
  8
0
 10
4622.2350642438159412
 20
226.3327644656399968
 30
0.0
 11
4622.2156626277401301
 21
226.3521660817152963
 31
0.0
  0
ARC
  5
A9A8
  8
0
 10
4622.2571966860659813
 20
226.3548969078910886
 30
0.0
 40
0.0313
 50
225.0000000000459863
 51
270.0
  0
LINE
  5
A9A9
  8
0
 10
4622.1714684539156224
 20
226.3704719078911012
 30
0.0
 11
4622.1192318016637728
 21
226.3704719078911012
 31
0.0
  0
ARC
  5
A9AA
  8
0
 10
4622.1714684539156224
 20
226.3079719078911012
 30
0.0
 40
0.0625
 50
45.0
 51
90.0
  0
LINE
  5
A9AB
  8
0
 10
4623.9565243594142885
 20
224.6113043500423032
 30
0.0
 11
4623.9759259754882805
 21
224.591902733967089
 31
0.0
  0
ARC
  5
A9AC
  8
0
 10
4623.9786568016652382
 20
224.6334367922935087
 30
0.0
 40
0.0313
 50
180.0000000000194973
 51
224.9999999999816112
  0
LINE
  5
A9AD
  8
0
 10
4623.9942318016637728
 20
224.5477085601428939
 30
0.0
 11
4623.9942318016637728
 21
224.4954719078911012
 31
0.0
  0
ARC
  5
A9AE
  8
0
 10
4623.9317318016637728
 20
224.5477085601428939
 30
0.0
 40
0.0625
 50
0.0000000000130276
 51
44.9999999999907772
  0
LINE
  5
A9AF
  8
0
 10
4597.1322318016646022
 20
226.3798603450910889
 30
0.0
 11
4599.0072318016636927
 21
224.5048603450912026
 31
0.0
  0
LINE
  5
A9B0
  8
0
 10
4598.9603568016636927
 20
224.6428252294934964
 30
0.0
 11
4598.9603568016636927
 21
226.2301325998573986
 31
0.0
  0
ARC
  5
A9B1
  8
0
 10
4598.9291068016646022
 20
226.3017353450910889
 30
0.0
 40
0.0781250000000012
 50
293.5781784781793817
 51
156.4218215217823911
  0
LINE
  5
A9B2
  8
0
 10
4597.2701966860668108
 20
226.3329853450910889
 30
0.0
 11
4598.8575040564310257
 21
226.3329853450910889
 31
0.0
  0
LINE
  5
A9B3
  8
0
 10
4597.2480642438158611
 20
226.342152902840013
 30
0.0
 11
4597.2286626277409596
 21
226.3615545189153124
 31
0.0
  0
ARC
  5
A9B4
  8
0
 10
4597.2701966860668108
 20
226.36428534509119
 30
0.0
 40
0.0313
 50
225.0000000000459863
 51
270.0
  0
LINE
  5
A9B5
  8
0
 10
4597.1844684539164518
 20
226.3798603450910889
 30
0.0
 11
4597.1322318016646022
 21
226.3798603450910889
 31
0.0
  0
ARC
  5
A9B6
  8
0
 10
4597.1844684539164518
 20
226.3173603450910889
 30
0.0
 40
0.0625
 50
45.0
 51
90.0
  0
LINE
  5
A9B7
  8
0
 10
4598.969524359413299
 20
224.6206927872424046
 30
0.0
 11
4598.98892597548911
 21
224.6012911711669915
 31
0.0
  0
ARC
  5
A9B8
  8
0
 10
4598.9916568016651581
 20
224.6428252294934964
 30
0.0
 40
0.0313
 50
180.0000000000194973
 51
224.9999999999816112
  0
LINE
  5
A9B9
  8
0
 10
4599.0072318016636927
 20
224.5570969973429101
 30
0.0
 11
4599.0072318016636927
 21
224.5048603450910889
 31
0.0
  0
ARC
  5
A9BA
  8
0
 10
4598.9447318016636927
 20
224.5570969973427964
 30
0.0
 40
0.0625
 50
0.0000000000130276
 51
44.9999999999907772
  0
LINE
  5
A9BB
  8
0
 10
4595.1859041638126655
 20
226.3704719078911012
 30
0.0
 11
4595.101542382972184
 21
226.2861101270513018
 31
0.0
  0
ARC
  5
A9BC
  8
0
 10
4593.389029163811756
 20
226.2923469078911012
 30
0.0
 40
0.0781250000000012
 50
23.5781784782175698
 51
184.5788398823445959
  0
LINE
  5
A9BD
  8
0
 10
4595.0479392794095475
 20
226.3235969078911012
 30
0.0
 11
4593.4606319090462421
 21
226.3235969078911012
 31
0.0
  0
LINE
  5
A9BE
  8
0
 10
4595.0700717216614066
 20
226.3327644656399968
 30
0.0
 11
4595.0894733377372177
 21
226.3521660817152963
 31
0.0
  0
ARC
  5
A9BF
  8
0
 10
4595.0479392794095475
 20
226.3548969078910886
 30
0.0
 40
0.0313
 50
270.0
 51
314.9999999999907914
  0
LINE
  5
A9C0
  8
0
 10
4595.1336675115599064
 20
226.3704719078911012
 30
0.0
 11
4595.1859041638126655
 21
226.3704719078911012
 31
0.0
  0
ARC
  5
A9C1
  8
0
 10
4595.1336675115599064
 20
226.3079719078911012
 30
0.0
 40
0.0625
 50
90.0
 51
135.0
  0
LINE
  5
A9C2
  8
0
 10
4569.6947318016646022
 20
226.3798603450910889
 30
0.0
 11
4567.8197318016646022
 21
224.5048603450912026
 31
0.0
  0
LINE
  5
A9C3
  8
0
 10
4567.8666068016636927
 20
224.6428252294934964
 30
0.0
 11
4567.8666068016636927
 21
226.2301325998573986
 31
0.0
  0
ARC
  5
A9C4
  8
0
 10
4567.8978568016636927
 20
226.3017353450910889
 30
0.0
 40
0.0781250000000012
 50
23.5781784782175698
 51
246.4218215218205899
  0
LINE
  5
A9C5
  8
0
 10
4569.5567669172623937
 20
226.3329853450910889
 30
0.0
 11
4567.9694595468990883
 21
226.3329853450910889
 31
0.0
  0
LINE
  5
A9C6
  8
0
 10
4569.5788993595142529
 20
226.342152902840013
 30
0.0
 11
4569.5983009755891544
 21
226.3615545189153124
 31
0.0
  0
ARC
  5
A9C7
  8
0
 10
4569.5567669172623937
 20
226.36428534509119
 30
0.0
 40
0.0313
 50
270.0
 51
314.9999999999907914
  0
LINE
  5
A9C8
  8
0
 10
4569.6424951494127527
 20
226.3798603450910889
 30
0.0
 11
4569.6947318016646022
 21
226.3798603450910889
 31
0.0
  0
ARC
  5
A9C9
  8
0
 10
4569.6424951494127527
 20
226.3173603450910889
 30
0.0
 40
0.0625
 50
90.0
 51
135.0
  0
LINE
  5
A9CA
  8
0
 10
4567.857439243914996
 20
224.6206927872424046
 30
0.0
 11
4567.838037627841004
 21
224.6012911711669915
 31
0.0
  0
ARC
  5
A9CB
  8
0
 10
4567.8353068016640464
 20
224.6428252294934964
 30
0.0
 40
0.0313
 50
315.0000000000184173
 51
359.9999999999805027
  0
LINE
  5
A9CC
  8
0
 10
4567.8197318016646022
 20
224.5570969973429101
 30
0.0
 11
4567.8197318016646022
 21
224.5048603450910889
 31
0.0
  0
ARC
  5
A9CD
  8
0
 10
4567.8822318016636927
 20
224.5570969973427964
 30
0.0
 40
0.0625
 50
135.0000000000092086
 51
179.9999999999870113
  0
LINE
  5
A9CE
  8
0
 10
4623.4507775877636959
 20
166.698517475851304
 30
0.0
 11
4622.5086603248637402
 21
165.7564002130513927
 31
0.0
  0
LINE
  5
A9CF
  8
0
 10
4597.5137794347710951
 20
165.7564002130513927
 30
0.0
 11
4599.0072318016636927
 21
167.2498525799454967
 31
0.0
  0
LINE
  5
A9D0
  8
0
 10
4598.9603568016636927
 20
167.1118876955432029
 30
0.0
 11
4598.9603568016636927
 21
165.7564002130513927
 31
0.0
  0
LINE
  5
A9D1
  8
0
 10
4598.969524359413299
 20
167.1340201377942947
 30
0.0
 11
4598.98892597548911
 21
167.1534217538695941
 31
0.0
  0
ARC
  5
A9D2
  8
0
 10
4598.9916568016651581
 20
167.1118876955432029
 30
0.0
 40
0.0313
 50
135.0000000000183888
 51
179.999999999980389
  0
LINE
  5
A9D3
  8
0
 10
4599.0072318016636927
 20
167.1976159276937892
 30
0.0
 11
4599.0072318016636927
 21
167.2498525799456104
 31
0.0
  0
ARC
  5
A9D4
  8
0
 10
4598.9447318016636927
 20
167.1976159276937892
 30
0.0
 40
0.0625
 50
315.0000000000092086
 51
359.9999999999869829
  0
LINE
  5
A9D5
  8
0
 10
4569.3146917155663687
 20
165.7564002130513927
 30
0.0
 11
4568.3631860155646791
 21
166.7079059131513077
 31
0.0
  0
ENDSEC
  0
EOF
