  0
SECTION
  2
HEADER
  9
$ACADVER
  1
AC1024
  9
$ACADMAINTVER
 70
    63
  9
$DWGCODEPAGE
  3
ANSI_1252
  9
$LASTSAVEDBY
  1
ko30809
  9
$INSBASE
 10
0.0
 20
0.0
 30
0.0
  9
$EXTMIN
 10
-16.8671119764
 20
-33.4530931794
 30
0.0
  9
$EXTMAX
 10
57.8712839538
 20
70.67548872020001
 30
0.0
  9
$LIMMIN
 10
0.0
 20
0.0
  9
$LIMMAX
 10
34.0
 20
22.0
  9
$ORTHOMODE
 70
     0
  9
$REGENMODE
 70
     1
  9
$FILLMODE
 70
     1
  9
$QTEXTMODE
 70
     0
  9
$MIRRTEXT
 70
     0
  9
$LTSCALE
 40
1.87
  9
$ATTMODE
 70
     1
  9
$TEXTSIZE
 40
0.2
  9
$TRACEWID
 40
0.05
  9
$TEXTSTYLE
  7
STANDARD
  9
$CLAYER
  8
0
  9
$CELTYPE
  6
BYLAYER
  9
$CECOLOR
 62
   256
  9
$CELTSCALE
 40
1.0
  9
$DISPSILH
 70
     0
  9
$DIMSCALE
 40
1.0
  9
$DIMASZ
 40
0.1875
  9
$DIMEXO
 40
0.0625
  9
$DIMDLI
 40
1.291999999999999
  9
$DIMRND
 40
0.0
  9
$DIMDLE
 40
0.0
  9
$DIMEXE
 40
0.125
  9
$DIMTP
 40
0.01
  9
$DIMTM
 40
0.01
  9
$DIMTXT
 40
0.15625
  9
$DIMCEN
 40
0.306
  9
$DIMTSZ
 40
0.0
  9
$DIMTOL
 70
     1
  9
$DIMLIM
 70
     0
  9
$DIMTIH
 70
     1
  9
$DIMTOH
 70
     1
  9
$DIMSE1
 70
     0
  9
$DIMSE2
 70
     0
  9
$DIMTAD
 70
     0
  9
$DIMZIN
 70
     0
  9
$DIMBLK
  1

  9
$DIMASO
 70
     1
  9
$DIMSHO
 70
     1
  9
$DIMPOST
  1

  9
$DIMAPOST
  1

  9
$DIMALT
 70
     0
  9
$DIMALTD
 70
     2
  9
$DIMALTF
 40
25.4
  9
$DIMLFAC
 40
1.0
  9
$DIMTOFL
 70
     0
  9
$DIMTVP
 40
0.0
  9
$DIMTIX
 70
     0
  9
$DIMSOXD
 70
     0
  9
$DIMSAH
 70
     0
  9
$DIMBLK1
  1

  9
$DIMBLK2
  1

  9
$DIMSTYLE
  2
STANDARD
  9
$DIMCLRD
 70
     0
  9
$DIMCLRE
 70
     0
  9
$DIMCLRT
 70
     0
  9
$DIMTFAC
 40
1.0
  9
$DIMGAP
 40
0.09
  9
$DIMJUST
 70
     0
  9
$DIMSD1
 70
     0
  9
$DIMSD2
 70
     0
  9
$DIMTOLJ
 70
     1
  9
$DIMTZIN
 70
     0
  9
$DIMALTZ
 70
     0
  9
$DIMALTTZ
 70
     0
  9
$DIMUPT
 70
     0
  9
$DIMDEC
 70
     4
  9
$DIMTDEC
 70
     4
  9
$DIMALTU
 70
     2
  9
$DIMALTTD
 70
     2
  9
$DIMTXSTY
  7
STANDARD
  9
$DIMAUNIT
 70
     0
  9
$DIMADEC
 70
     0
  9
$DIMALTRND
 40
0.0
  9
$DIMAZIN
 70
     0
  9
$DIMDSEP
 70
    46
  9
$DIMATFIT
 70
     3
  9
$DIMFRAC
 70
     0
  9
$DIMLDRBLK
  1

  9
$DIMLUNIT
 70
     2
  9
$DIMLWD
 70
    -2
  9
$DIMLWE
 70
    -2
  9
$DIMTMOVE
 70
     0
  9
$DIMFXL
 40
1.0
  9
$DIMFXLON
 70
     0
  9
$DIMJOGANG
 40
0.7853981633974483
  9
$DIMTFILL
 70
     0
  9
$DIMTFILLCLR
 70
     0
  9
$DIMARCSYM
 70
     0
  9
$DIMLTYPE
  6

  9
$DIMLTEX1
  6

  9
$DIMLTEX2
  6

  9
$DIMTXTDIRECTION
 70
     0
  9
$LUNITS
 70
     2
  9
$LUPREC
 70
     4
  9
$SKETCHINC
 40
0.1
  9
$FILLETRAD
 40
0.0
  9
$AUNITS
 70
     0
  9
$AUPREC
 70
     0
  9
$MENU
  1
.
  9
$ELEVATION
 40
0.0
  9
$PELEVATION
 40
0.0
  9
$THICKNESS
 40
0.0
  9
$LIMCHECK
 70
     0
  9
$CHAMFERA
 40
0.0
  9
$CHAMFERB
 40
0.0
  9
$CHAMFERC
 40
0.0
  9
$CHAMFERD
 40
0.0
  9
$SKPOLY
 70
     0
  9
$TDCREATE
 40
2456862.430275578
  9
$TDUCREATE
 40
2456862.638608912
  9
$TDUPDATE
 40
2456862.432158113
  9
$TDUUPDATE
 40
2456862.640491447
  9
$TDINDWG
 40
0.0012432523
  9
$TDUSRTIMER
 40
0.0012432523
  9
$USRTIMER
 70
     1
  9
$ANGBASE
 50
0.0
  9
$ANGDIR
 70
     0
  9
$PDMODE
 70
     3
  9
$PDSIZE
 40
0.3125
  9
$PLINEWID
 40
0.0
  9
$SPLFRAME
 70
     0
  9
$SPLINETYPE
 70
     6
  9
$SPLINESEGS
 70
     8
  9
$HANDSEED
  5
426
  9
$SURFTAB1
 70
     6
  9
$SURFTAB2
 70
     6
  9
$SURFTYPE
 70
     6
  9
$SURFU
 70
     6
  9
$SURFV
 70
     6
  9
$UCSBASE
  2

  9
$UCSNAME
  2

  9
$UCSORG
 10
0.0
 20
0.0
 30
0.0
  9
$UCSXDIR
 10
1.0
 20
0.0
 30
0.0
  9
$UCSYDIR
 10
0.0
 20
1.0
 30
0.0
  9
$UCSORTHOREF
  2

  9
$UCSORTHOVIEW
 70
     0
  9
$UCSORGTOP
 10
0.0
 20
0.0
 30
0.0
  9
$UCSORGBOTTOM
 10
0.0
 20
0.0
 30
0.0
  9
$UCSORGLEFT
 10
0.0
 20
0.0
 30
0.0
  9
$UCSORGRIGHT
 10
0.0
 20
0.0
 30
0.0
  9
$UCSORGFRONT
 10
0.0
 20
0.0
 30
0.0
  9
$UCSORGBACK
 10
0.0
 20
0.0
 30
0.0
  9
$PUCSBASE
  2

  9
$PUCSNAME
  2

  9
$PUCSORG
 10
0.0
 20
0.0
 30
0.0
  9
$PUCSXDIR
 10
1.0
 20
0.0
 30
0.0
  9
$PUCSYDIR
 10
0.0
 20
1.0
 30
0.0
  9
$PUCSORTHOREF
  2

  9
$PUCSORTHOVIEW
 70
     0
  9
$PUCSORGTOP
 10
0.0
 20
0.0
 30
0.0
  9
$PUCSORGBOTTOM
 10
0.0
 20
0.0
 30
0.0
  9
$PUCSORGLEFT
 10
0.0
 20
0.0
 30
0.0
  9
$PUCSORGRIGHT
 10
0.0
 20
0.0
 30
0.0
  9
$PUCSORGFRONT
 10
0.0
 20
0.0
 30
0.0
  9
$PUCSORGBACK
 10
0.0
 20
0.0
 30
0.0
  9
$USERI1
 70
     0
  9
$USERI2
 70
     0
  9
$USERI3
 70
     0
  9
$USERI4
 70
     0
  9
$USERI5
 70
     0
  9
$USERR1
 40
0.0
  9
$USERR2
 40
0.0
  9
$USERR3
 40
0.0
  9
$USERR4
 40
0.0
  9
$USERR5
 40
0.0
  9
$WORLDVIEW
 70
     1
  9
$SHADEDGE
 70
     3
  9
$SHADEDIF
 70
    70
  9
$TILEMODE
 70
     1
  9
$MAXACTVP
 70
    64
  9
$PINSBASE
 10
0.0
 20
0.0
 30
0.0
  9
$PLIMCHECK
 70
     0
  9
$PEXTMIN
 10
1.000000000000000E+20
 20
1.000000000000000E+20
 30
1.000000000000000E+20
  9
$PEXTMAX
 10
-1.000000000000000E+20
 20
-1.000000000000000E+20
 30
-1.000000000000000E+20
  9
$PLIMMIN
 10
0.0
 20
0.0
  9
$PLIMMAX
 10
12.0
 20
9.0
  9
$UNITMODE
 70
     0
  9
$VISRETAIN
 70
     1
  9
$PLINEGEN
 70
     0
  9
$PSLTSCALE
 70
     1
  9
$TREEDEPTH
 70
  3020
  9
$CMLSTYLE
  2
Standard
  9
$CMLJUST
 70
     0
  9
$CMLSCALE
 40
1.0
  9
$PROXYGRAPHICS
 70
     1
  9
$MEASUREMENT
 70
     0
  9
$CELWEIGHT
370
    -1
  9
$ENDCAPS
280
     0
  9
$JOINSTYLE
280
     0
  9
$LWDISPLAY
290
     0
  9
$INSUNITS
 70
     1
  9
$HYPERLINKBASE
  1

  9
$STYLESHEET
  1

  9
$XEDIT
290
     1
  9
$CEPSNTYPE
380
     0
  9
$PSTYLEMODE
290
     1
  9
$FINGERPRINTGUID
  2
{8FDAAA7C-C3F8-48AA-A8B2-5355B6FF825E}
  9
$VERSIONGUID
  2
{D6257224-6CA7-4A51-B25B-4633EE7F7E54}
  9
$EXTNAMES
290
     1
  9
$PSVPSCALE
 40
0.0
  9
$OLESTARTUP
290
     0
  9
$SORTENTS
280
   127
  9
$INDEXCTL
280
     0
  9
$HIDETEXT
280
     1
  9
$XCLIPFRAME
280
     2
  9
$HALOGAP
280
     0
  9
$OBSCOLOR
 70
   257
  9
$OBSLTYPE
280
     0
  9
$INTERSECTIONDISPLAY
280
     0
  9
$INTERSECTIONCOLOR
 70
   257
  9
$DIMASSOC
280
     2
  9
$PROJECTNAME
  1

  9
$CAMERADISPLAY
290
     0
  9
$LENSLENGTH
 40
50.0
  9
$CAMERAHEIGHT
 40
0.0
  9
$STEPSPERSEC
 40
2.0
  9
$STEPSIZE
 40
6.0
  9
$3DDWFPREC
 40
2.0
  9
$PSOLWIDTH
 40
0.25
  9
$PSOLHEIGHT
 40
4.0
  9
$LOFTANG1
 40
1.570796326794896
  9
$LOFTANG2
 40
1.570796326794896
  9
$LOFTMAG1
 40
0.0
  9
$LOFTMAG2
 40
0.0
  9
$LOFTPARAM
 70
     7
  9
$LOFTNORMALS
280
     1
  9
$LATITUDE
 40
37.795
  9
$LONGITUDE
 40
-122.394
  9
$NORTHDIRECTION
 40
0.0
  9
$TIMEZONE
 70
 -8000
  9
$LIGHTGLYPHDISPLAY
280
     1
  9
$TILEMODELIGHTSYNCH
280
     1
  9
$CMATERIAL
347
391
  9
$SOLIDHIST
280
     1
  9
$SHOWHIST
280
     1
  9
$DWFFRAME
280
     2
  9
$DGNFRAME
280
     0
  9
$REALWORLDSCALE
290
     1
  9
$INTERFERECOLOR
 62
     1
  9
$INTERFEREOBJVS
345
3B3
  9
$INTERFEREVPVS
346
414
  9
$CSHADOW
280
     0
  9
$SHADOWPLANELOCATION
 40
0.0
  0
ENDSEC
  0
SECTION
  2
CLASSES
  0
CLASS
  1
ACDBDICTIONARYWDFLT
  2
AcDbDictionaryWithDefault
  3
ObjectDBX Classes
 90
        0
 91
        1
280
     0
281
     0
  0
CLASS
  1
MATERIAL
  2
AcDbMaterial
  3
ObjectDBX Classes
 90
     1153
 91
        3
280
     0
281
     0
  0
CLASS
  1
VISUALSTYLE
  2
AcDbVisualStyle
  3
ObjectDBX Classes
 90
     4095
 91
       26
280
     0
281
     0
  0
CLASS
  1
TABLESTYLE
  2
AcDbTableStyle
  3
ObjectDBX Classes
 90
     4095
 91
        1
280
     0
281
     0
  0
CLASS
  1
SCALE
  2
AcDbScale
  3
ObjectDBX Classes
 90
     1153
 91
       33
280
     0
281
     0
  0
CLASS
  1
MLEADERSTYLE
  2
AcDbMLeaderStyle
  3
ACDB_MLEADERSTYLE_CLASS
 90
     4095
 91
        1
280
     0
281
     0
  0
CLASS
  1
CELLSTYLEMAP
  2
AcDbCellStyleMap
  3
ObjectDBX Classes
 90
     1152
 91
        3
280
     0
281
     0
  0
CLASS
  1
DICTIONARYVAR
  2
AcDbDictionaryVar
  3
ObjectDBX Classes
 90
        0
 91
        4
280
     0
281
     0
  0
ENDSEC
  0
SECTION
  2
TABLES
  0
TABLE
  2
VPORT
  5
8
330
0
100
AcDbSymbolTable
 70
     1
  0
VPORT
  5
1F4
330
8
100
AcDbSymbolTableRecord
100
AcDbViewportTableRecord
  2
*ACTIVE
 70
     0
 10
0.0
 20
0.0
 11
1.0
 21
1.0
 12
53.4726548960607
 22
20.41129229209509
 13
0.0
 23
0.0
 14
1.0
 24
1.0
 15
0.0
 25
0.0
 16
0.0
 26
0.0
 36
1.0
 17
0.0
 27
0.0
 37
0.0
 40
134.5906649325218
 41
2.017913593256059
 42
50.0
 43
0.0
 44
0.0
 50
0.0
 51
0.0
 71
     0
 72
   100
 73
     1
 74
     1
 75
     0
 76
     0
 77
     0
 78
     0
281
     0
 65
     1
110
0.0
120
0.0
130
0.0
111
1.0
121
0.0
131
0.0
112
0.0
122
1.0
132
0.0
 79
     0
146
0.0
348
3AF
 60
     3
 61
     5
292
     1
282
     1
141
0.0
142
0.0
 63
   250
421
  3355443
1001
ACAD_NAV_VCDISPLAY
1070
     3
  0
ENDTAB
  0
TABLE
  2
LTYPE
  5
5
330
0
100
AcDbSymbolTable
 70
     6
  0
LTYPE
  5
14
330
5
100
AcDbSymbolTableRecord
100
AcDbLinetypeTableRecord
  2
BYBLOCK
 70
     0
  3

 72
    65
 73
     0
 40
0.0
  0
LTYPE
  5
15
330
5
100
AcDbSymbolTableRecord
100
AcDbLinetypeTableRecord
  2
BYLAYER
 70
     0
  3

 72
    65
 73
     0
 40
0.0
  0
LTYPE
  5
16
330
5
100
AcDbSymbolTableRecord
100
AcDbLinetypeTableRecord
  2
CONTINUOUS
 70
     0
  3
Solid line
 72
    65
 73
     0
 40
0.0
  0
LTYPE
  5
1F5
330
5
100
AcDbSymbolTableRecord
100
AcDbLinetypeTableRecord
  2
CENTER
 70
     0
  3
____ _ ____ _ ____ _ ____ _ ____ _ ____ _ ____
 72
    65
 73
     4
 40
0.6
 49
0.375
 74
     0
 49
-0.075
 74
     0
 49
0.075
 74
     0
 49
-0.075
 74
     0
  0
LTYPE
  5
1F6
330
5
100
AcDbSymbolTableRecord
100
AcDbLinetypeTableRecord
  2
HIDDEN
 70
     0
  3
- - - - - - - - - - - - - - - - - - - -
 72
    65
 73
     2
 40
0.2
 49
0.1
 74
     0
 49
-0.1
 74
     0
  0
LTYPE
  5
1F7
330
5
100
AcDbSymbolTableRecord
100
AcDbLinetypeTableRecord
  2
PHANTOM
 70
     0
  3
_____ _ _ _____ _ _ _____ _ _ _____
 72
    65
 73
     6
 40
0.8
 49
0.45
 74
     0
 49
-0.05
 74
     0
 49
0.1
 74
     0
 49
-0.05
 74
     0
 49
0.1
 74
     0
 49
-0.05
 74
     0
  0
LTYPE
  5
1F8
330
5
100
AcDbSymbolTableRecord
100
AcDbLinetypeTableRecord
  2
DOT
 70
     0
  3
. . . . . . . . . . . . . . . . . . . .
 72
    65
 73
     2
 40
0.2
 49
0.1
 74
     0
 49
-0.1
 74
     0
  0
LTYPE
  5
1F9
330
5
100
AcDbSymbolTableRecord
100
AcDbLinetypeTableRecord
  2
DASHED
 70
     0
  3
- - - - - - - - - - - - - - - - - - - -
 72
    65
 73
     2
 40
0.2
 49
0.1
 74
     0
 49
-0.1
 74
     0
  0
ENDTAB
  0
TABLE
  2
LAYER
  5
2
330
0
100
AcDbSymbolTable
 70
    58
  0
LAYER
  5
10
330
2
100
AcDbSymbolTableRecord
100
AcDbLayerTableRecord
  2
0
 70
     0
 62
     7
  6
CONTINUOUS
370
    -3
390
F
347
3A1
  0
LAYER
  5
1FA
330
2
100
AcDbSymbolTableRecord
100
AcDbLayerTableRecord
  2
DEFAULT_1
 70
     0
 62
     7
  6
CENTER
370
    -3
390
F
347
3A1
  0
LAYER
  5
1FB
330
2
100
AcDbSymbolTableRecord
100
AcDbLayerTableRecord
  2
DEFAULT_2
 70
     0
 62
     8
  6
HIDDEN
370
    -3
390
F
347
3A1
  0
LAYER
  5
1FC
330
2
100
AcDbSymbolTableRecord
100
AcDbLayerTableRecord
  2
DEFAULT_3
 70
     0
 62
     7
  6
PHANTOM
370
    -3
390
F
347
3A1
  0
LAYER
  5
1FD
330
2
100
AcDbSymbolTableRecord
100
AcDbLayerTableRecord
  2
01_ALL_DTM_PLN
 70
     0
 62
     7
  6
CONTINUOUS
370
    -3
390
F
347
3A1
  0
LAYER
  5
1FE
330
2
100
AcDbSymbolTableRecord
100
AcDbLayerTableRecord
  2
01__ASM_ALL_DTM_PLN
 70
     0
 62
     7
  6
CONTINUOUS
370
    -3
390
F
347
3A1
  0
LAYER
  5
1FF
330
2
100
AcDbSymbolTableRecord
100
AcDbLayerTableRecord
  2
01__ASM_DEF_DTM_PLN
 70
     0
 62
     7
  6
CONTINUOUS
370
    -3
390
F
347
3A1
  0
LAYER
  5
200
330
2
100
AcDbSymbolTableRecord
100
AcDbLayerTableRecord
  2
01___PRT_ALL_DTM_PLN
 70
     0
 62
     7
  6
CONTINUOUS
370
    -3
390
F
347
3A1
  0
LAYER
  5
201
330
2
100
AcDbSymbolTableRecord
100
AcDbLayerTableRecord
  2
01___PRT_DEF_DTM_PLN
 70
     0
 62
     7
  6
CONTINUOUS
370
    -3
390
F
347
3A1
  0
LAYER
  5
202
330
2
100
AcDbSymbolTableRecord
100
AcDbLayerTableRecord
  2
02_ALL_AXES
 70
     0
 62
     7
  6
CONTINUOUS
370
    -3
390
F
347
3A1
  0
LAYER
  5
203
330
2
100
AcDbSymbolTableRecord
100
AcDbLayerTableRecord
  2
02__ASM_ALL_AXES
 70
     0
 62
     7
  6
CONTINUOUS
370
    -3
390
F
347
3A1
  0
LAYER
  5
204
330
2
100
AcDbSymbolTableRecord
100
AcDbLayerTableRecord
  2
02___PRT_ALL_AXES
 70
     0
 62
     7
  6
CONTINUOUS
370
    -3
390
F
347
3A1
  0
LAYER
  5
205
330
2
100
AcDbSymbolTableRecord
100
AcDbLayerTableRecord
  2
03_ALL_CURVES
 70
     0
 62
     7
  6
CONTINUOUS
370
    -3
390
F
347
3A1
  0
LAYER
  5
206
330
2
100
AcDbSymbolTableRecord
100
AcDbLayerTableRecord
  2
03__ASM_ALL_CURVES
 70
     0
 62
     7
  6
CONTINUOUS
370
    -3
390
F
347
3A1
  0
LAYER
  5
207
330
2
100
AcDbSymbolTableRecord
100
AcDbLayerTableRecord
  2
03___PRT_ALL_CURVES
 70
     0
 62
     7
  6
CONTINUOUS
370
    -3
390
F
347
3A1
  0
LAYER
  5
208
330
2
100
AcDbSymbolTableRecord
100
AcDbLayerTableRecord
  2
04_ALL_DTM_PNT
 70
     0
 62
     7
  6
CONTINUOUS
370
    -3
390
F
347
3A1
  0
LAYER
  5
209
330
2
100
AcDbSymbolTableRecord
100
AcDbLayerTableRecord
  2
04__ASM_ALL_DTM_PNT
 70
     0
 62
     7
  6
CONTINUOUS
370
    -3
390
F
347
3A1
  0
LAYER
  5
20A
330
2
100
AcDbSymbolTableRecord
100
AcDbLayerTableRecord
  2
04___PRT_ALL_DTM_PNT
 70
     0
 62
     7
  6
CONTINUOUS
370
    -3
390
F
347
3A1
  0
LAYER
  5
20B
330
2
100
AcDbSymbolTableRecord
100
AcDbLayerTableRecord
  2
05_ALL_DTM_CSYS
 70
     0
 62
     7
  6
CONTINUOUS
370
    -3
390
F
347
3A1
  0
LAYER
  5
20C
330
2
100
AcDbSymbolTableRecord
100
AcDbLayerTableRecord
  2
05__ASM_ALL_DTM_CSYS
 70
     0
 62
     7
  6
CONTINUOUS
370
    -3
390
F
347
3A1
  0
LAYER
  5
20D
330
2
100
AcDbSymbolTableRecord
100
AcDbLayerTableRecord
  2
05__ASM_DEF_DTM_CSYS
 70
     0
 62
     7
  6
CONTINUOUS
370
    -3
390
F
347
3A1
  0
LAYER
  5
20E
330
2
100
AcDbSymbolTableRecord
100
AcDbLayerTableRecord
  2
05___PRT_ALL_DTM_CSYS
 70
     0
 62
     7
  6
CONTINUOUS
370
    -3
390
F
347
3A1
  0
LAYER
  5
20F
330
2
100
AcDbSymbolTableRecord
100
AcDbLayerTableRecord
  2
05___PRT_DEF_DTM_CSYS
 70
     0
 62
     7
  6
CONTINUOUS
370
    -3
390
F
347
3A1
  0
LAYER
  5
210
330
2
100
AcDbSymbolTableRecord
100
AcDbLayerTableRecord
  2
06_ALL_SURFS
 70
     0
 62
     7
  6
CONTINUOUS
370
    -3
390
F
347
3A1
  0
LAYER
  5
211
330
2
100
AcDbSymbolTableRecord
100
AcDbLayerTableRecord
  2
06__ASM_ALL_SURFS
 70
     0
 62
     7
  6
CONTINUOUS
370
    -3
390
F
347
3A1
  0
LAYER
  5
212
330
2
100
AcDbSymbolTableRecord
100
AcDbLayerTableRecord
  2
06___PRT_ALL_SURFS
 70
     0
 62
     7
  6
CONTINUOUS
370
    -3
390
F
347
3A1
  0
LAYER
  5
213
330
2
100
AcDbSymbolTableRecord
100
AcDbLayerTableRecord
  2
07__ASM_ALL_SKELETONS
 70
     0
 62
     7
  6
CONTINUOUS
370
    -3
390
F
347
3A1
  0
LAYER
  5
214
330
2
100
AcDbSymbolTableRecord
100
AcDbLayerTableRecord
  2
1_ALL_PLANES
 70
     0
 62
     7
  6
CONTINUOUS
370
    -3
390
F
347
3A1
  0
LAYER
  5
215
330
2
100
AcDbSymbolTableRecord
100
AcDbLayerTableRecord
  2
2_ALL_CSYS
 70
     0
 62
     7
  6
CONTINUOUS
370
    -3
390
F
347
3A1
  0
LAYER
  5
216
330
2
100
AcDbSymbolTableRecord
100
AcDbLayerTableRecord
  2
3_ALL_AXES
 70
     0
 62
     7
  6
CONTINUOUS
370
    -3
390
F
347
3A1
  0
LAYER
  5
217
330
2
100
AcDbSymbolTableRecord
100
AcDbLayerTableRecord
  2
4_ALL_POINTS
 70
     0
 62
     7
  6
CONTINUOUS
370
    -3
390
F
347
3A1
  0
LAYER
  5
218
330
2
100
AcDbSymbolTableRecord
100
AcDbLayerTableRecord
  2
7_ALL_FEATURES
 70
     0
 62
     7
  6
CONTINUOUS
370
    -3
390
F
347
3A1
  0
LAYER
  5
219
330
2
100
AcDbSymbolTableRecord
100
AcDbLayerTableRecord
  2
AXIS
 70
     0
 62
     7
  6
CONTINUOUS
370
    -3
390
F
347
3A1
  0
LAYER
  5
21A
330
2
100
AcDbSymbolTableRecord
100
AcDbLayerTableRecord
  2
COG_PLANES
 70
     0
 62
     7
  6
CONTINUOUS
370
    -3
390
F
347
3A1
  0
LAYER
  5
21B
330
2
100
AcDbSymbolTableRecord
100
AcDbLayerTableRecord
  2
DATUMS
 70
     0
 62
     7
  6
CONTINUOUS
370
    -3
390
F
347
3A1
  0
LAYER
  5
21C
330
2
100
AcDbSymbolTableRecord
100
AcDbLayerTableRecord
  2
DATUM_AXIS
 70
     0
 62
     7
  6
CONTINUOUS
370
    -3
390
F
347
3A1
  0
LAYER
  5
21D
330
2
100
AcDbSymbolTableRecord
100
AcDbLayerTableRecord
  2
DATUM_CSYS
 70
     0
 62
     7
  6
CONTINUOUS
370
    -3
390
F
347
3A1
  0
LAYER
  5
21E
330
2
100
AcDbSymbolTableRecord
100
AcDbLayerTableRecord
  2
DATUM_PLANE
 70
     0
 62
     7
  6
CONTINUOUS
370
    -3
390
F
347
3A1
  0
LAYER
  5
21F
330
2
100
AcDbSymbolTableRecord
100
AcDbLayerTableRecord
  2
DATUM_PLN
 70
     0
 62
     7
  6
CONTINUOUS
370
    -3
390
F
347
3A1
  0
LAYER
  5
220
330
2
100
AcDbSymbolTableRecord
100
AcDbLayerTableRecord
  2
DATUM_PNT
 70
     0
 62
     7
  6
CONTINUOUS
370
    -3
390
F
347
3A1
  0
LAYER
  5
221
330
2
100
AcDbSymbolTableRecord
100
AcDbLayerTableRecord
  2
DATUM_POINT
 70
     0
 62
     7
  6
CONTINUOUS
370
    -3
390
F
347
3A1
  0
LAYER
  5
222
330
2
100
AcDbSymbolTableRecord
100
AcDbLayerTableRecord
  2
DTM_PLNS
 70
     0
 62
     7
  6
CONTINUOUS
370
    -3
390
F
347
3A1
  0
LAYER
  5
223
330
2
100
AcDbSymbolTableRecord
100
AcDbLayerTableRecord
  2
IMPORT
 70
     0
 62
     7
  6
CONTINUOUS
370
    -3
390
F
347
3A1
  0
LAYER
  5
224
330
2
100
AcDbSymbolTableRecord
100
AcDbLayerTableRecord
  2
INTFCLR_2
 70
     0
 62
     7
  6
CONTINUOUS
370
    -3
390
F
347
3A1
  0
LAYER
  5
225
330
2
100
AcDbSymbolTableRecord
100
AcDbLayerTableRecord
  2
INTF_2
 70
     0
 62
     7
  6
CONTINUOUS
370
    -3
390
F
347
3A1
  0
LAYER
  5
226
330
2
100
AcDbSymbolTableRecord
100
AcDbLayerTableRecord
  2
INTF_RED
 70
     0
 62
     7
  6
CONTINUOUS
370
    -3
390
F
347
3A1
  0
LAYER
  5
227
330
2
100
AcDbSymbolTableRecord
100
AcDbLayerTableRecord
  2
INTF_YELLOW
 70
     0
 62
     7
  6
CONTINUOUS
370
    -3
390
F
347
3A1
  0
LAYER
  5
228
330
2
100
AcDbSymbolTableRecord
100
AcDbLayerTableRecord
  2
JUNK
 70
     0
 62
     7
  6
CONTINUOUS
370
    -3
390
F
347
3A1
  0
LAYER
  5
229
330
2
100
AcDbSymbolTableRecord
100
AcDbLayerTableRecord
  2
RGB(   0_   0_   0 )
 70
     0
 62
     7
  6
CONTINUOUS
370
    -3
390
F
347
3A1
  0
LAYER
  5
22A
330
2
100
AcDbSymbolTableRecord
100
AcDbLayerTableRecord
  2
SUPPRESSABLE
 70
     0
 62
     7
  6
CONTINUOUS
370
    -3
390
F
347
3A1
  0
LAYER
  5
22B
330
2
100
AcDbSymbolTableRecord
100
AcDbLayerTableRecord
  2
XSEC_DATUMS
 70
     0
 62
     7
  6
CONTINUOUS
370
    -3
390
F
347
3A1
  0
LAYER
  5
22C
330
2
100
AcDbSymbolTableRecord
100
AcDbLayerTableRecord
  2
_CURVE
 70
     0
 62
     7
  6
CONTINUOUS
370
    -3
390
F
347
3A1
  0
LAYER
  5
22D
330
2
100
AcDbSymbolTableRecord
100
AcDbLayerTableRecord
  2
_SURFACE
 70
     0
 62
     7
  6
CONTINUOUS
370
    -3
390
F
347
3A1
  0
LAYER
  5
22E
330
2
100
AcDbSymbolTableRecord
100
AcDbLayerTableRecord
  2
__REF_CURVE
 70
     0
 62
     7
  6
CONTINUOUS
370
    -3
390
F
347
3A1
  0
LAYER
  5
22F
330
2
100
AcDbSymbolTableRecord
100
AcDbLayerTableRecord
  2
__REF_SURFACE
 70
     0
 62
     7
  6
CONTINUOUS
370
    -3
390
F
347
3A1
  0
LAYER
  5
230
330
2
100
AcDbSymbolTableRecord
100
AcDbLayerTableRecord
  2
___COSMETIC_SKETCH
 70
     0
 62
     7
  6
CONTINUOUS
370
    -3
390
F
347
3A1
  0
LAYER
  5
231
330
2
100
AcDbSymbolTableRecord
100
AcDbLayerTableRecord
  2
___COSMETIC_THREAD
 70
     0
 62
     7
  6
CONTINUOUS
370
    -3
390
F
347
3A1
  0
LAYER
  5
232
330
2
100
AcDbSymbolTableRecord
100
AcDbLayerTableRecord
  2
___NOTE
 70
     0
 62
     7
  6
CONTINUOUS
370
    -3
390
F
347
3A1
  0
ENDTAB
  0
TABLE
  2
STYLE
  5
3
330
0
100
AcDbSymbolTable
 70
     2
  0
STYLE
  5
11
330
3
100
AcDbSymbolTableRecord
100
AcDbTextStyleTableRecord
  2
STANDARD
 70
     0
 40
0.0
 41
0.8
 50
0.0
 71
     0
 42
0.2
  3
txt
  4

  0
STYLE
  5
233
330
3
100
AcDbSymbolTableRecord
100
AcDbTextStyleTableRecord
  2
TEXTSTYLE_1
 70
     0
 40
0.0
 41
0.8
 50
0.0
 71
     0
 42
0.2
  3
gdt
  4

  0
ENDTAB
  0
TABLE
  2
VIEW
  5
6
330
0
100
AcDbSymbolTable
 70
     0
  0
ENDTAB
  0
TABLE
  2
UCS
  5
7
330
0
100
AcDbSymbolTable
 70
     0
  0
ENDTAB
  0
TABLE
  2
APPID
  5
9
330
0
100
AcDbSymbolTable
 70
     3
  0
APPID
  5
234
330
9
100
AcDbSymbolTableRecord
100
AcDbRegAppTableRecord
  2
ACAD
 70
     0
  0
APPID
  5
40D
330
9
100
AcDbSymbolTableRecord
100
AcDbRegAppTableRecord
  2
ACAD_MLEADERVER
 70
     0
  0
APPID
  5
423
330
9
100
AcDbSymbolTableRecord
100
AcDbRegAppTableRecord
  2
ACAD_NAV_VCDISPLAY
 70
     0
  0
ENDTAB
  0
TABLE
  2
DIMSTYLE
  5
A
330
0
100
AcDbSymbolTable
 70
     1
100
AcDbDimStyleTable
 71
     0
  0
DIMSTYLE
105
237
330
A
100
AcDbSymbolTableRecord
100
AcDbDimStyleTableRecord
  2
STANDARD
 70
     0
 41
0.1875
 44
0.125
 47
0.01
 48
0.01
 71
     1
 78
     4
140
0.15625
271
     3
272
     3
284
     4
340
11
  0
ENDTAB
  0
TABLE
  2
BLOCK_RECORD
  5
1
330
0
100
AcDbSymbolTable
 70
     0
  0
BLOCK_RECORD
  5
235
330
1
100
AcDbSymbolTableRecord
100
AcDbBlockTableRecord
  2
*Model_Space
340
38C
 70
     0
280
     1
281
     0
  0
BLOCK_RECORD
  5
236
330
1
100
AcDbSymbolTableRecord
100
AcDbBlockTableRecord
  2
*Paper_Space
340
38D
 70
     0
280
     1
281
     0
  0
ENDTAB
  0
ENDSEC
  0
SECTION
  2
BLOCKS
  0
BLOCK
  5
20
330
235
100
AcDbEntity
  8
0
100
AcDbBlockBegin
  2
*Model_Space
 70
     0
 10
0.0
 20
0.0
 30
0.0
  3
*Model_Space
  1

  0
ENDBLK
  5
21
330
235
100
AcDbEntity
  8
0
100
AcDbBlockEnd
  0
BLOCK
  5
1C
330
236
100
AcDbEntity
 67
     1
  8
0
100
AcDbBlockBegin
  2
*Paper_Space
 70
     0
 10
0.0
 20
0.0
 30
0.0
  3
*Paper_Space
  1

  0
ENDBLK
  5
1D
330
236
100
AcDbEntity
 67
     1
  8
0
100
AcDbBlockEnd
  0
ENDSEC
  0
SECTION
  2
ENTITIES
  0
LINE
  5
239
330
235
100
AcDbEntity
  8
0
  6
Continuous
 62
     7
100
AcDbLine
 10
-16.7921119764
 20
67.25648872020001
 30
0.0
 11
-16.7921119764
 21
67.7674887202
 31
0.0
  0
LINE
  5
23A
330
235
100
AcDbEntity
  8
0
  6
Continuous
 62
     7
100
AcDbLine
 10
-16.7921119764
 20
67.83148872019999
 30
0.0
 11
-16.7921119764
 21
69.0574887202
 31
0.0
  0
LINE
  5
23B
330
235
100
AcDbEntity
  8
0
  6
Continuous
 62
     7
100
AcDbLine
 10
-16.7421119764
 20
67.24964464750001
 30
0.0
 11
-16.7421119764
 21
68.91033279289999
 31
0.0
  0
LINE
  5
23C
330
235
100
AcDbEntity
  8
0
  6
Continuous
 62
     7
100
AcDbLine
 10
-16.6621119764
 20
69.0715523499
 30
0.0
 11
-16.6621119764
 21
69.0684250905
 31
0.0
  0
LINE
  5
23D
330
235
100
AcDbEntity
  8
0
  6
Continuous
 62
     7
100
AcDbLine
 10
-16.6621119764
 20
68.9825523499
 30
0.0
 11
-16.6621119764
 21
68.9794250905
 31
0.0
  0
LINE
  5
23E
330
235
100
AcDbEntity
  8
0
  6
Continuous
 62
     7
100
AcDbLine
 10
-16.6221119764
 20
69.0715523499
 30
0.0
 11
-16.6221119764
 21
69.0684250905
 31
0.0
  0
LINE
  5
23F
330
235
100
AcDbEntity
  8
0
  6
Continuous
 62
     7
100
AcDbLine
 10
-16.6221119764
 20
68.9825523499
 30
0.0
 11
-16.6221119764
 21
68.9794250905
 31
0.0
  0
LINE
  5
240
330
235
100
AcDbEntity
  8
0
  6
Continuous
 62
     7
100
AcDbLine
 10
-16.5821119764
 20
69.0715523499
 30
0.0
 11
-16.5821119764
 21
69.0684250905
 31
0.0
  0
LINE
  5
241
330
235
100
AcDbEntity
  8
0
  6
Continuous
 62
     7
100
AcDbLine
 10
-16.5821119764
 20
68.9825523499
 30
0.0
 11
-16.5821119764
 21
68.9794250905
 31
0.0
  0
LINE
  5
242
330
235
100
AcDbEntity
  8
0
  6
Continuous
 62
     7
100
AcDbLine
 10
-16.5421119764
 20
69.0715523499
 30
0.0
 11
-16.5421119764
 21
69.0674887202
 31
0.0
  0
LINE
  5
243
330
235
100
AcDbEntity
  8
0
  6
Continuous
 62
     7
100
AcDbLine
 10
-16.5421119764
 20
68.9834887202
 30
0.0
 11
-16.5421119764
 21
68.9794250905
 31
0.0
  0
LINE
  5
244
330
235
100
AcDbEntity
  8
0
  6
Continuous
 62
     7
100
AcDbLine
 10
-16.1991119764
 20
68.96120138259999
 30
0.0
 11
-16.1991119764
 21
68.9204887202
 31
0.0
  0
LINE
  5
245
330
235
100
AcDbEntity
  8
0
  6
Continuous
 62
     7
100
AcDbLine
 10
-16.0351119764
 20
68.96120138259999
 30
0.0
 11
-16.0351119764
 21
68.9204887202
 31
0.0
  0
LINE
  5
246
330
235
100
AcDbEntity
  8
0
  6
Continuous
 62
     7
100
AcDbLine
 10
-15.6671119764
 20
68.95248872020001
 30
0.0
 11
-15.6671119764
 21
69.0574887202
 31
0.0
  0
LINE
  5
247
330
235
100
AcDbEntity
  8
0
  6
Continuous
 62
     7
100
AcDbLine
 10
-15.6171119764
 20
69.09848872020001
 30
0.0
 11
-15.6171119764
 21
68.9204887202
 31
0.0
  0
LINE
  5
248
330
235
100
AcDbEntity
  8
0
  6
Continuous
 62
     7
100
AcDbLine
 10
-15.6171119764
 20
67.2334887202
 30
0.0
 11
-15.6171119764
 21
67.2154887202
 31
0.0
  0
LINE
  5
24A
330
235
100
AcDbEntity
  8
0
  6
Continuous
 62
     7
100
AcDbLine
 10
-16.0231119764
 20
68.96120138259999
 30
0.0
 11
-15.9333256636
 21
69.0644887202
 31
0.0
  0
LINE
  5
24B
330
235
100
AcDbEntity
  8
0
  6
Continuous
 62
     7
100
AcDbLine
 10
42.56667433639999
 20
69.0644887202
 30
0.0
 11
42.4768880236
 21
68.96120138259999
 31
0.0
  0
LINE
  5
24C
330
235
100
AcDbEntity
  8
0
  6
Continuous
 62
     7
100
AcDbLine
 10
-16.6187982679
 20
68.93180242869999
 30
0.0
 11
-16.6301119764
 21
68.9204887202
 31
0.0
  0
LINE
  5
281
330
235
100
AcDbEntity
  8
0
  6
Continuous
 62
     7
100
AcDbLine
 10
23.3588880236
 20
67.2494887202
 30
0.0
 11
23.3588880236
 21
67.2374887202
 31
0.0
  0
LINE
  5
283
330
235
100
AcDbEntity
  8
0
  6
Continuous
 62
     7
100
AcDbLine
 10
24.9588880236
 20
67.2494887202
 30
0.0
 11
24.9588880236
 21
67.2374887202
 31
0.0
  0
LINE
  5
286
330
235
100
AcDbEntity
  8
0
  6
Continuous
 62
     7
100
AcDbLine
 10
-16.2111119764
 20
68.96120138259999
 30
0.0
 11
-16.3008982891
 21
69.0644887202
 31
0.0
  0
LINE
  5
28A
330
235
100
AcDbEntity
  8
0
  6
Continuous
 62
     7
100
AcDbLine
 10
38.2838880236
 20
66.00848872020001
 30
0.0
 11
38.2838880236
 21
67.2494887202
 31
0.0
  0
LINE
  5
28B
330
235
100
AcDbEntity
  8
0
  6
Continuous
 62
     7
100
AcDbLine
 10
38.2838880236
 20
69.0959887202
 30
0.0
 11
38.2838880236
 21
70.55048872020001
 31
0.0
  0
LINE
  5
28E
330
235
100
AcDbEntity
  8
0
  6
Continuous
 62
     7
100
AcDbLine
 10
39.0338880236
 20
70.55048872020001
 30
0.0
 11
39.0338880236
 21
69.0959887202
 31
0.0
  0
LINE
  5
28F
330
235
100
AcDbEntity
  8
0
  6
Continuous
 62
     7
100
AcDbLine
 10
39.0338880236
 20
67.2494887202
 30
0.0
 11
39.0338880236
 21
66.00848872020001
 31
0.0
  0
LINE
  5
292
330
235
100
AcDbEntity
  8
0
  6
Continuous
 62
     7
100
AcDbLine
 10
41.0078880236
 20
69.09848872020001
 30
0.0
 11
41.0078880236
 21
69.0959887202
 31
0.0
  0
LINE
  5
2A9
330
235
100
AcDbEntity
  8
0
  6
Continuous
 62
     7
100
AcDbLine
 10
41.83288802359999
 20
68.9204887202
 30
0.0
 11
41.83288802359999
 21
69.3834887202
 31
0.0
  0
LINE
  5
2AA
330
235
100
AcDbEntity
  8
0
  6
Continuous
 62
     7
100
AcDbLine
 10
41.8828880236
 20
69.09848872020001
 30
0.0
 11
41.8828880236
 21
68.9204887202
 31
0.0
  0
LINE
  5
2AB
330
235
100
AcDbEntity
  8
0
  6
Continuous
 62
     7
100
AcDbLine
 10
41.8828880236
 20
67.2334887202
 30
0.0
 11
41.8828880236
 21
67.2154887202
 31
0.0
  0
LINE
  5
2AD
330
235
100
AcDbEntity
  8
0
  6
Continuous
 62
     7
100
AcDbLine
 10
41.8828880236
 20
69.10408353840001
 30
0.0
 11
41.8828880236
 21
69.3834887202
 31
0.0
  0
LINE
  5
2AE
330
235
100
AcDbEntity
  8
0
  6
Continuous
 62
     7
100
AcDbLine
 10
41.9328880236
 20
68.95248872020001
 30
0.0
 11
41.9328880236
 21
69.0574887202
 31
0.0
  0
LINE
  5
2AF
330
235
100
AcDbEntity
  8
0
  6
Continuous
 62
     7
100
AcDbLine
 10
42.3008880236
 20
68.96120138259999
 30
0.0
 11
42.3008880236
 21
68.9204887202
 31
0.0
  0
LINE
  5
2B0
330
235
100
AcDbEntity
  8
0
  6
Continuous
 62
     7
100
AcDbLine
 10
42.4648880236
 20
68.96120138259999
 30
0.0
 11
42.4648880236
 21
68.9204887202
 31
0.0
  0
LINE
  5
2B1
330
235
100
AcDbEntity
  8
0
  6
Continuous
 62
     7
100
AcDbLine
 10
42.8078880236
 20
69.0715523499
 30
0.0
 11
42.8078880236
 21
69.0674887202
 31
0.0
  0
LINE
  5
2B2
330
235
100
AcDbEntity
  8
0
  6
Continuous
 62
     7
100
AcDbLine
 10
42.8078880236
 20
68.9834887202
 30
0.0
 11
42.8078880236
 21
68.9794250905
 31
0.0
  0
LINE
  5
2B3
330
235
100
AcDbEntity
  8
0
  6
Continuous
 62
     7
100
AcDbLine
 10
42.8478880236
 20
69.0715523499
 30
0.0
 11
42.8478880236
 21
69.0684250905
 31
0.0
  0
LINE
  5
2B4
330
235
100
AcDbEntity
  8
0
  6
Continuous
 62
     7
100
AcDbLine
 10
42.8478880236
 20
68.9825523499
 30
0.0
 11
42.8478880236
 21
68.9794250905
 31
0.0
  0
LINE
  5
2B5
330
235
100
AcDbEntity
  8
0
  6
Continuous
 62
     7
100
AcDbLine
 10
42.8878880236
 20
69.0715523499
 30
0.0
 11
42.8878880236
 21
69.0684250905
 31
0.0
  0
LINE
  5
2B6
330
235
100
AcDbEntity
  8
0
  6
Continuous
 62
     7
100
AcDbLine
 10
42.8878880236
 20
68.9825523499
 30
0.0
 11
42.8878880236
 21
68.9794250905
 31
0.0
  0
LINE
  5
2B7
330
235
100
AcDbEntity
  8
0
  6
Continuous
 62
     7
100
AcDbLine
 10
42.9278880236
 20
69.0715523499
 30
0.0
 11
42.9278880236
 21
69.0684250905
 31
0.0
  0
LINE
  5
2B8
330
235
100
AcDbEntity
  8
0
  6
Continuous
 62
     7
100
AcDbLine
 10
42.9278880236
 20
68.9825523499
 30
0.0
 11
42.9278880236
 21
68.9794250905
 31
0.0
  0
LINE
  5
2B9
330
235
100
AcDbEntity
  8
0
  6
Continuous
 62
     7
100
AcDbLine
 10
43.00788802359999
 20
68.8944887202
 30
0.0
 11
43.00788802359999
 21
67.25648872020001
 31
0.0
  0
LINE
  5
2BA
330
235
100
AcDbEntity
  8
0
  6
Continuous
 62
     7
100
AcDbLine
 10
43.05788802359999
 20
67.25648872020001
 30
0.0
 11
43.05788802359999
 21
67.7674887202
 31
0.0
  0
LINE
  5
2BB
330
235
100
AcDbEntity
  8
0
  6
Continuous
 62
     7
100
AcDbLine
 10
43.05788802359999
 20
67.83148872019999
 30
0.0
 11
43.05788802359999
 21
69.0574887202
 31
0.0
  0
LINE
  5
2CF
330
235
100
AcDbEntity
  8
0
  6
Continuous
 62
     7
100
AcDbLine
 10
42.9316834931
 20
68.9765324743
 30
0.0
 11
42.9658536877
 21
68.9859292778
 31
0.0
  0
LINE
  5
2D0
330
235
100
AcDbEntity
  8
0
  6
Continuous
 62
     7
100
AcDbLine
 10
42.89168349309999
 20
68.9765324743
 30
0.0
 11
42.92409255419999
 21
68.98544496609999
 31
0.0
  0
LINE
  5
2D1
330
235
100
AcDbEntity
  8
0
  6
Continuous
 62
     7
100
AcDbLine
 10
42.8516834931
 20
68.9765324743
 30
0.0
 11
42.8840925542
 21
68.98544496609999
 31
0.0
  0
LINE
  5
2D2
330
235
100
AcDbEntity
  8
0
  6
Continuous
 62
     7
100
AcDbLine
 10
42.81168349309999
 20
68.9765324743
 30
0.0
 11
42.8440925542
 21
68.98544496609999
 31
0.0
  0
LINE
  5
2D3
330
235
100
AcDbEntity
  8
0
  6
Continuous
 62
     7
100
AcDbLine
 10
-16.5783165069
 20
69.0655324743
 30
0.0
 11
-16.5459074458
 21
69.07444496610001
 31
0.0
  0
LINE
  5
2D4
330
235
100
AcDbEntity
  8
0
  6
Continuous
 62
     7
100
AcDbLine
 10
-16.6183165069
 20
69.0655324743
 30
0.0
 11
-16.5859074458
 21
69.07444496610001
 31
0.0
  0
LINE
  5
2D5
330
235
100
AcDbEntity
  8
0
  6
Continuous
 62
     7
100
AcDbLine
 10
-16.6583165069
 20
69.0655324743
 30
0.0
 11
-16.6259074458
 21
69.07444496610001
 31
0.0
  0
LINE
  5
2D6
330
235
100
AcDbEntity
  8
0
  6
Continuous
 62
     7
100
AcDbLine
 10
-16.7000776404
 20
69.0650481626
 30
0.0
 11
-16.6659074458
 21
69.07444496610001
 31
0.0
  0
LINE
  5
2EC
330
235
100
AcDbEntity
  8
0
  6
Continuous
 62
     7
100
AcDbLine
 10
38.9088880236
 20
65.8834887202
 30
0.0
 11
38.4088880236
 21
65.8834887202
 31
0.0
  0
LINE
  5
2ED
330
235
100
AcDbEntity
  8
0
  6
Continuous
 62
     7
100
AcDbLine
 10
-15.6331119764
 20
67.19948872020001
 30
0.0
 11
-16.8421119764
 21
67.19948872020001
 31
0.0
  0
LINE
  5
2EE
330
235
100
AcDbEntity
  8
0
  6
Continuous
 62
     7
100
AcDbLine
 10
41.8988880236
 20
67.19948872020001
 30
0.0
 11
43.1078880236
 21
67.19948872020001
 31
0.0
  0
LINE
  5
2EF
330
235
100
AcDbEntity
  8
0
  6
Continuous
 62
     7
100
AcDbLine
 10
24.9588880236
 20
67.2374887202
 30
0.0
 11
23.3588880236
 21
67.2374887202
 31
0.0
  0
LINE
  5
2F0
330
235
100
AcDbEntity
  8
0
  6
Continuous
 62
     7
100
AcDbLine
 10
43.1078880236
 20
67.2494887202
 30
0.0
 11
43.06488802359999
 21
67.2494887202
 31
0.0
  0
LINE
  5
2F1
330
235
100
AcDbEntity
  8
0
  6
Continuous
 62
     7
100
AcDbLine
 10
-16.8421119764
 20
67.2494887202
 30
0.0
 11
-16.7991119764
 21
67.2494887202
 31
0.0
  0
LINE
  5
2F2
330
235
100
AcDbEntity
  8
0
  6
Continuous
 62
     7
100
AcDbLine
 10
-16.7351119764
 20
67.2494887202
 30
0.0
 11
43.0008880236
 21
67.2494887202
 31
0.0
  0
LINE
  5
2F3
330
235
100
AcDbEntity
  8
0
  6
Continuous
 62
     7
100
AcDbLine
 10
-16.7421119764
 20
67.2994887202
 30
0.0
 11
43.00788802359999
 21
67.2994887202
 31
0.0
  0
LINE
  5
2F4
330
235
100
AcDbEntity
  8
0
  6
Continuous
 62
     7
100
AcDbLine
 10
43.00788802359999
 20
67.30348872020001
 30
0.0
 11
-16.7421119764
 21
67.30348872020001
 31
0.0
  0
LINE
  5
2F5
330
235
100
AcDbEntity
  8
0
  6
Continuous
 62
     7
100
AcDbLine
 10
-16.7991119764
 20
67.77448872020001
 30
0.0
 11
-16.8171119764
 21
67.77448872020001
 31
0.0
  0
LINE
  5
2F6
330
235
100
AcDbEntity
  8
0
  6
Continuous
 62
     7
100
AcDbLine
 10
43.06488802359999
 20
67.77448872020001
 30
0.0
 11
43.08288802359999
 21
67.77448872020001
 31
0.0
  0
LINE
  5
2F7
330
235
100
AcDbEntity
  8
0
  6
Continuous
 62
     7
100
AcDbLine
 10
43.08288802359999
 20
67.82448872020001
 30
0.0
 11
43.06488802359999
 21
67.82448872020001
 31
0.0
  0
LINE
  5
2F8
330
235
100
AcDbEntity
  8
0
  6
Continuous
 62
     7
100
AcDbLine
 10
-16.8171119764
 20
67.82448872020001
 30
0.0
 11
-16.7991119764
 21
67.82448872020001
 31
0.0
  0
LINE
  5
2F9
330
235
100
AcDbEntity
  8
0
  6
Continuous
 62
     7
100
AcDbLine
 10
43.0017220767
 20
68.9104887202
 30
0.0
 11
-16.7359460294
 21
68.9104887202
 31
0.0
  0
LINE
  5
2FA
330
235
100
AcDbEntity
  8
0
  6
Continuous
 62
     7
100
AcDbLine
 10
-16.7287357812
 20
68.9204887202
 30
0.0
 11
42.9945118285
 21
68.9204887202
 31
0.0
  0
LINE
  5
2FB
330
235
100
AcDbEntity
  8
0
  6
Continuous
 62
     7
100
AcDbLine
 10
-15.6331119764
 20
68.9364887202
 30
0.0
 11
-16.0351119764
 21
68.9364887202
 31
0.0
  0
LINE
  5
2FC
330
235
100
AcDbEntity
  8
0
  6
Continuous
 62
     7
100
AcDbLine
 10
-16.1991119764
 20
68.9364887202
 30
0.0
 11
-16.6921119764
 21
68.9364887202
 31
0.0
  0
LINE
  5
2FD
330
235
100
AcDbEntity
  8
0
  6
Continuous
 62
     7
100
AcDbLine
 10
41.88988802359999
 20
68.9364887202
 30
0.0
 11
42.3008880236
 21
68.9364887202
 31
0.0
  0
LINE
  5
2FE
330
235
100
AcDbEntity
  8
0
  6
Continuous
 62
     7
100
AcDbLine
 10
42.4648880236
 20
68.9364887202
 30
0.0
 11
42.95788802359999
 21
68.9364887202
 31
0.0
  0
LINE
  5
2FF
330
235
100
AcDbEntity
  8
0
  6
Continuous
 62
     7
100
AcDbLine
 10
-16.0231119764
 20
68.96120138259999
 30
0.0
 11
-16.2111119764
 21
68.96120138259999
 31
0.0
  0
LINE
  5
300
330
235
100
AcDbEntity
  8
0
  6
Continuous
 62
     7
100
AcDbLine
 10
42.2888880236
 20
68.96120138259999
 30
0.0
 11
42.4768880236
 21
68.96120138259999
 31
0.0
  0
LINE
  5
301
330
235
100
AcDbEntity
  8
0
  6
Continuous
 62
     7
100
AcDbLine
 10
42.80488802359999
 20
68.9864887202
 30
0.0
 11
42.7828880236
 21
68.9864887202
 31
0.0
  0
LINE
  5
302
330
235
100
AcDbEntity
  8
0
  6
Continuous
 62
     7
100
AcDbLine
 10
-16.5391119764
 20
68.9864887202
 30
0.0
 11
-16.5171119764
 21
68.9864887202
 31
0.0
  0
LINE
  5
303
330
235
100
AcDbEntity
  8
0
  6
Continuous
 62
     7
100
AcDbLine
 10
41.8828880236
 20
69.03948872019999
 30
0.0
 11
41.83288802359999
 21
69.03948872019999
 31
0.0
  0
LINE
  5
304
330
235
100
AcDbEntity
  8
0
  6
Continuous
 62
     7
100
AcDbLine
 10
-15.6741119764
 20
69.0644887202
 30
0.0
 11
-16.5391119764
 21
69.0644887202
 31
0.0
  0
LINE
  5
305
330
235
100
AcDbEntity
  8
0
  6
Continuous
 62
     7
100
AcDbLine
 10
-16.7991119764
 20
69.0644887202
 30
0.0
 11
-16.8421119764
 21
69.0644887202
 31
0.0
  0
LINE
  5
306
330
235
100
AcDbEntity
  8
0
  6
Continuous
 62
     7
100
AcDbLine
 10
41.93988802359999
 20
69.0644887202
 30
0.0
 11
42.80488802359999
 21
69.0644887202
 31
0.0
  0
LINE
  5
307
330
235
100
AcDbEntity
  8
0
  6
Continuous
 62
     7
100
AcDbLine
 10
43.06488802359999
 20
69.0644887202
 30
0.0
 11
43.1078880236
 21
69.0644887202
 31
0.0
  0
LINE
  5
308
330
235
100
AcDbEntity
  8
0
  6
Continuous
 62
     7
100
AcDbLine
 10
41.83288802359999
 20
69.0959887202
 30
0.0
 11
-15.6171119764
 21
69.0959887202
 31
0.0
  0
LINE
  5
309
330
235
100
AcDbEntity
  8
0
  6
Continuous
 62
     7
100
AcDbLine
 10
43.1078880236
 20
69.1144887202
 30
0.0
 11
41.8988880236
 21
69.1144887202
 31
0.0
  0
LINE
  5
30A
330
235
100
AcDbEntity
  8
0
  6
Continuous
 62
     7
100
AcDbLine
 10
41.83288802359999
 20
69.1144887202
 30
0.0
 11
41.0238880236
 21
69.1144887202
 31
0.0
  0
LINE
  5
30B
330
235
100
AcDbEntity
  8
0
  6
Continuous
 62
     7
100
AcDbLine
 10
-16.8421119764
 20
69.1144887202
 30
0.0
 11
-15.6331119764
 21
69.1144887202
 31
0.0
  0
LINE
  5
30C
330
235
100
AcDbEntity
  8
0
  6
Continuous
 62
     7
100
AcDbLine
 10
41.86688802359999
 20
69.39948872020001
 30
0.0
 11
41.8488880236
 21
69.39948872020001
 31
0.0
  0
LINE
  5
30D
330
235
100
AcDbEntity
  8
0
  6
Continuous
 62
     7
100
AcDbLine
 10
38.4088880236
 20
70.67548872020001
 30
0.0
 11
38.9088880236
 21
70.67548872020001
 31
0.0
  0
LINE
  5
310
330
235
100
AcDbEntity
  8
0
  6
Continuous
 62
     7
100
AcDbLine
 10
-16.6659074458
 20
68.9765324743
 30
0.0
 11
-16.7000776404
 21
68.9859292778
 31
0.0
  0
LINE
  5
311
330
235
100
AcDbEntity
  8
0
  6
Continuous
 62
     7
100
AcDbLine
 10
-16.6259074458
 20
68.9765324743
 30
0.0
 11
-16.6583165069
 21
68.98544496609999
 31
0.0
  0
LINE
  5
312
330
235
100
AcDbEntity
  8
0
  6
Continuous
 62
     7
100
AcDbLine
 10
-16.5859074458
 20
68.9765324743
 30
0.0
 11
-16.6183165069
 21
68.98544496609999
 31
0.0
  0
LINE
  5
313
330
235
100
AcDbEntity
  8
0
  6
Continuous
 62
     7
100
AcDbLine
 10
-16.5459074458
 20
68.9765324743
 30
0.0
 11
-16.5783165069
 21
68.98544496609999
 31
0.0
  0
LINE
  5
314
330
235
100
AcDbEntity
  8
0
  6
Continuous
 62
     7
100
AcDbLine
 10
42.8440925542
 20
69.0655324743
 30
0.0
 11
42.81168349309999
 21
69.07444496610001
 31
0.0
  0
LINE
  5
315
330
235
100
AcDbEntity
  8
0
  6
Continuous
 62
     7
100
AcDbLine
 10
42.8840925542
 20
69.0655324743
 30
0.0
 11
42.8516834931
 21
69.07444496610001
 31
0.0
  0
LINE
  5
316
330
235
100
AcDbEntity
  8
0
  6
Continuous
 62
     7
100
AcDbLine
 10
42.92409255419999
 20
69.0655324743
 30
0.0
 11
42.89168349309999
 21
69.07444496610001
 31
0.0
  0
LINE
  5
317
330
235
100
AcDbEntity
  8
0
  6
Continuous
 62
     7
100
AcDbLine
 10
42.9658536877
 20
69.0650481626
 30
0.0
 11
42.9316834931
 21
69.07444496610001
 31
0.0
  0
LINE
  5
318
330
235
100
AcDbEntity
  8
0
  6
Continuous
 62
     7
100
AcDbLine
 10
42.1991017109
 20
69.0644887202
 30
0.0
 11
42.2888880236
 21
68.96120138259999
 31
0.0
  0
ARC
  5
31B
330
235
100
AcDbEntity
  8
0
  6
Continuous
 62
     7
100
AcDbCircle
 10
-16.6921119764
 20
68.8864887202
 30
0.0
 40
0.05
100
AcDbArc
 50
90.0
 51
180.0
  0
ARC
  5
31C
330
235
100
AcDbEntity
  8
0
  6
Continuous
 62
     7
100
AcDbCircle
 10
-16.7031119764
 20
69.0254887202
 30
0.0
 40
0.039
100
AcDbArc
 50
91.25869966469998
 51
268.7413003353
  0
ARC
  5
31D
330
235
100
AcDbEntity
  8
0
  6
Continuous
 62
     7
100
AcDbCircle
 10
-16.8421119764
 20
67.2244887202
 30
0.0
 40
0.025
100
AcDbArc
 50
90.0
 51
269.9999999994
  0
ARC
  5
31E
330
235
100
AcDbEntity
  8
0
  6
Continuous
 62
     7
100
AcDbCircle
 10
-16.8171119764
 20
67.7994887202
 30
0.0
 40
0.025
100
AcDbArc
 50
90.0
 51
270.0
  0
ARC
  5
31F
330
235
100
AcDbEntity
  8
0
  6
Continuous
 62
     7
100
AcDbCircle
 10
-16.8421119764
 20
69.08948872020001
 30
0.0
 40
0.025
100
AcDbArc
 50
90.0
 51
270.0
  0
ARC
  5
320
330
235
100
AcDbEntity
  8
0
  6
Continuous
 62
     7
100
AcDbCircle
 10
-16.5171119764
 20
68.96148872020001
 30
0.0
 40
0.025
100
AcDbArc
 50
270.0
 51
90.0
  0
ARC
  5
321
330
235
100
AcDbEntity
  8
0
  6
Continuous
 62
     7
100
AcDbCircle
 10
-15.6331119764
 20
67.2334887202
 30
0.0
 40
0.016
100
AcDbArc
 50
0.0
 51
90.0
  0
ARC
  5
322
330
235
100
AcDbEntity
  8
0
  6
Continuous
 62
     7
100
AcDbCircle
 10
-15.6331119764
 20
67.2154887202
 30
0.0
 40
0.016
100
AcDbArc
 50
270.0000000008
 51
360.0
  0
ARC
  5
323
330
235
100
AcDbEntity
  8
0
  6
Continuous
 62
     7
100
AcDbCircle
 10
-15.6331119764
 20
68.9204887202
 30
0.0
 40
0.016
100
AcDbArc
 50
0.0
 51
90.0
  0
ARC
  5
324
330
235
100
AcDbEntity
  8
0
  6
Continuous
 62
     7
100
AcDbCircle
 10
-15.6511119764
 20
68.95248872020001
 30
0.0
 40
0.016
100
AcDbArc
 50
180.0
 51
270.0
  0
ARC
  5
325
330
235
100
AcDbEntity
  8
0
  6
Continuous
 62
     7
100
AcDbCircle
 10
-16.7043201441
 20
68.9705019915
 30
0.0
 40
0.016
100
AcDbArc
 50
74.6237487512
 51
88.74130033530001
  0
ARC
  5
326
330
235
100
AcDbEntity
  8
0
  6
Continuous
 62
     7
100
AcDbCircle
 10
-16.7043201441
 20
69.0804754489
 30
0.0
 40
0.016
100
AcDbArc
 50
271.2586996647
 51
285.3762512488
  0
ARC
  5
327
330
235
100
AcDbEntity
  8
0
  6
Continuous
 62
     7
100
AcDbCircle
 10
-15.6331119764
 20
69.09848872020001
 30
0.0
 40
0.016
100
AcDbArc
 50
0.0
 51
90.0
  0
ARC
  5
328
330
235
100
AcDbEntity
  8
0
  6
Continuous
 62
     7
100
AcDbCircle
 10
-15.6331119764
 20
68.95248872020001
 30
0.0
 40
0.016
100
AcDbArc
 50
270.0
 51
360.0
  0
ARC
  5
329
330
235
100
AcDbEntity
  8
0
  6
Continuous
 62
     7
100
AcDbCircle
 10
-16.7351119764
 20
67.25648872020001
 30
0.0
 40
0.007
100
AcDbArc
 50
180.0
 51
270.0
  0
ARC
  5
32A
330
235
100
AcDbEntity
  8
0
  6
Continuous
 62
     7
100
AcDbCircle
 10
-16.7991119764
 20
67.83148872019999
 30
0.0
 40
0.007
100
AcDbArc
 50
270.0
 51
360.0
  0
ARC
  5
32B
330
235
100
AcDbEntity
  8
0
  6
Continuous
 62
     7
100
AcDbCircle
 10
-16.7991119764
 20
67.7674887202
 30
0.0
 40
0.007
100
AcDbArc
 50
0.0
 51
90.0
  0
ARC
  5
32C
330
235
100
AcDbEntity
  8
0
  6
Continuous
 62
     7
100
AcDbCircle
 10
-16.7991119764
 20
67.25648872020001
 30
0.0
 40
0.007
100
AcDbArc
 50
270.0
 51
360.0
  0
ARC
  5
32D
330
235
100
AcDbEntity
  8
0
  6
Continuous
 62
     7
100
AcDbCircle
 10
-16.7991119764
 20
69.0574887202
 30
0.0
 40
0.007
100
AcDbArc
 50
0.0
 51
90.0
  0
ARC
  5
32E
330
235
100
AcDbEntity
  8
0
  6
Continuous
 62
     7
100
AcDbCircle
 10
-15.6741119764
 20
69.0574887202
 30
0.0
 40
0.007
100
AcDbArc
 50
0.0
 51
90.0
  0
ARC
  5
32F
330
235
100
AcDbEntity
  8
0
  6
Continuous
 62
     7
100
AcDbCircle
 10
-16.6651119764
 20
69.0715523499
 30
0.0
 40
0.003
100
AcDbArc
 50
0.0
 51
105.3762512487
  0
ARC
  5
330
330
235
100
AcDbEntity
  8
0
  6
Continuous
 62
     7
100
AcDbCircle
 10
-16.6251119764
 20
69.0715523499
 30
0.0
 40
0.003
100
AcDbArc
 50
0.0
 51
105.3762512488
  0
ARC
  5
331
330
235
100
AcDbEntity
  8
0
  6
Continuous
 62
     7
100
AcDbCircle
 10
-16.5851119764
 20
69.0715523499
 30
0.0
 40
0.003
100
AcDbArc
 50
0.0
 51
105.3762512488
  0
ARC
  5
332
330
235
100
AcDbEntity
  8
0
  6
Continuous
 62
     7
100
AcDbCircle
 10
-16.5451119764
 20
69.0715523499
 30
0.0
 40
0.003
100
AcDbArc
 50
0.0
 51
105.3762512488
  0
ARC
  5
333
330
235
100
AcDbEntity
  8
0
  6
Continuous
 62
     7
100
AcDbCircle
 10
-16.6651119764
 20
68.9794250905
 30
0.0
 40
0.003
100
AcDbArc
 50
254.6237487512
 51
360.0
  0
ARC
  5
334
330
235
100
AcDbEntity
  8
0
  6
Continuous
 62
     7
100
AcDbCircle
 10
-16.6251119764
 20
68.9794250905
 30
0.0
 40
0.003
100
AcDbArc
 50
254.6237487512
 51
360.0
  0
ARC
  5
335
330
235
100
AcDbEntity
  8
0
  6
Continuous
 62
     7
100
AcDbCircle
 10
-16.5851119764
 20
68.9794250905
 30
0.0
 40
0.003
100
AcDbArc
 50
254.6237487512
 51
360.0
  0
ARC
  5
336
330
235
100
AcDbEntity
  8
0
  6
Continuous
 62
     7
100
AcDbCircle
 10
-16.5451119764
 20
68.9794250905
 30
0.0
 40
0.003
100
AcDbArc
 50
254.6237487511
 51
360.0
  0
ARC
  5
337
330
235
100
AcDbEntity
  8
0
  6
Continuous
 62
     7
100
AcDbCircle
 10
-16.6591119764
 20
69.0684250905
 30
0.0
 40
0.003
100
AcDbArc
 50
180.0
 51
285.3762512489
  0
ARC
  5
338
330
235
100
AcDbEntity
  8
0
  6
Continuous
 62
     7
100
AcDbCircle
 10
-16.6191119764
 20
69.0684250905
 30
0.0
 40
0.003
100
AcDbArc
 50
180.0
 51
285.3762512488
  0
ARC
  5
339
330
235
100
AcDbEntity
  8
0
  6
Continuous
 62
     7
100
AcDbCircle
 10
-16.5791119764
 20
69.0684250905
 30
0.0
 40
0.003
100
AcDbArc
 50
180.0
 51
285.3762512488
  0
ARC
  5
33A
330
235
100
AcDbEntity
  8
0
  6
Continuous
 62
     7
100
AcDbCircle
 10
-16.5391119764
 20
69.0674887202
 30
0.0
 40
0.003
100
AcDbArc
 50
180.0
 51
270.0000000001
  0
ARC
  5
33B
330
235
100
AcDbEntity
  8
0
  6
Continuous
 62
     7
100
AcDbCircle
 10
-16.6591119764
 20
68.9825523499
 30
0.0
 40
0.003
100
AcDbArc
 50
74.6237487511
 51
180.0
  0
ARC
  5
33C
330
235
100
AcDbEntity
  8
0
  6
Continuous
 62
     7
100
AcDbCircle
 10
-16.6191119764
 20
68.9825523499
 30
0.0
 40
0.003
100
AcDbArc
 50
74.6237487512
 51
180.0
  0
ARC
  5
33D
330
235
100
AcDbEntity
  8
0
  6
Continuous
 62
     7
100
AcDbCircle
 10
-16.5791119764
 20
68.9825523499
 30
0.0
 40
0.003
100
AcDbArc
 50
74.6237487512
 51
180.0
  0
ARC
  5
33E
330
235
100
AcDbEntity
  8
0
  6
Continuous
 62
     7
100
AcDbCircle
 10
-16.5391119764
 20
68.9834887202
 30
0.0
 40
0.003
100
AcDbArc
 50
89.9999999999
 51
180.0
  0
ARC
  5
35B
330
235
100
AcDbEntity
  8
0
  6
Continuous
 62
     7
100
AcDbCircle
 10
38.9088880236
 20
66.00848872020001
 30
0.0
 40
0.125
100
AcDbArc
 50
270.0
 51
360.0
  0
ARC
  5
35C
330
235
100
AcDbEntity
  8
0
  6
Continuous
 62
     7
100
AcDbCircle
 10
38.4088880236
 20
66.00848872020001
 30
0.0
 40
0.125
100
AcDbArc
 50
180.0
 51
270.0
  0
ARC
  5
35D
330
235
100
AcDbEntity
  8
0
  6
Continuous
 62
     7
100
AcDbCircle
 10
38.4088880236
 20
70.55048872020001
 30
0.0
 40
0.125
100
AcDbArc
 50
90.0
 51
180.0
  0
ARC
  5
35E
330
235
100
AcDbEntity
  8
0
  6
Continuous
 62
     7
100
AcDbCircle
 10
38.9088880236
 20
70.55048872020001
 30
0.0
 40
0.125
100
AcDbArc
 50
0.0
 51
90.0
  0
ARC
  5
35F
330
235
100
AcDbEntity
  8
0
  6
Continuous
 62
     7
100
AcDbCircle
 10
43.1078880236
 20
67.2244887202
 30
0.0
 40
0.025
100
AcDbArc
 50
270.0000000006
 51
90.0
  0
ARC
  5
360
330
235
100
AcDbEntity
  8
0
  6
Continuous
 62
     7
100
AcDbCircle
 10
43.08288802359999
 20
67.7994887202
 30
0.0
 40
0.025
100
AcDbArc
 50
270.0
 51
90.0
  0
ARC
  5
361
330
235
100
AcDbEntity
  8
0
  6
Continuous
 62
     7
100
AcDbCircle
 10
41.8988880236
 20
67.2334887202
 30
0.0
 40
0.016
100
AcDbArc
 50
90.0
 51
180.0
  0
ARC
  5
362
330
235
100
AcDbEntity
  8
0
  6
Continuous
 62
     7
100
AcDbCircle
 10
41.8988880236
 20
67.2154887202
 30
0.0
 40
0.016
100
AcDbArc
 50
180.0
 51
269.9999999992
  0
ARC
  5
363
330
235
100
AcDbEntity
  8
0
  6
Continuous
 62
     7
100
AcDbCircle
 10
43.0008880236
 20
67.25648872020001
 30
0.0
 40
0.007
100
AcDbArc
 50
270.0
 51
360.0
  0
ARC
  5
364
330
235
100
AcDbEntity
  8
0
  6
Continuous
 62
     7
100
AcDbCircle
 10
43.06488802359999
 20
67.83148872019999
 30
0.0
 40
0.007
100
AcDbArc
 50
180.0
 51
270.0
  0
ARC
  5
365
330
235
100
AcDbEntity
  8
0
  6
Continuous
 62
     7
100
AcDbCircle
 10
43.06488802359999
 20
67.7674887202
 30
0.0
 40
0.007
100
AcDbArc
 50
90.0
 51
180.0
  0
ARC
  5
366
330
235
100
AcDbEntity
  8
0
  6
Continuous
 62
     7
100
AcDbCircle
 10
43.06488802359999
 20
67.25648872020001
 30
0.0
 40
0.007
100
AcDbArc
 50
180.0
 51
270.0
  0
ARC
  5
367
330
235
100
AcDbEntity
  8
0
  6
Continuous
 62
     7
100
AcDbCircle
 10
42.95788802359999
 20
68.8864887202
 30
0.0
 40
0.05
100
AcDbArc
 50
0.0
 51
90.0
  0
ARC
  5
368
330
235
100
AcDbEntity
  8
0
  6
Continuous
 62
     7
100
AcDbCircle
 10
42.96888802359999
 20
69.0254887202
 30
0.0
 40
0.039
100
AcDbArc
 50
271.2586996647
 51
88.74130033530001
  0
ARC
  5
369
330
235
100
AcDbEntity
  8
0
  6
Continuous
 62
     7
100
AcDbCircle
 10
43.1078880236
 20
69.08948872020001
 30
0.0
 40
0.025
100
AcDbArc
 50
270.0
 51
90.0
  0
ARC
  5
36A
330
235
100
AcDbEntity
  8
0
  6
Continuous
 62
     7
100
AcDbCircle
 10
42.7828880236
 20
68.96148872020001
 30
0.0
 40
0.025
100
AcDbArc
 50
90.0
 51
270.0
  0
ARC
  5
36B
330
235
100
AcDbEntity
  8
0
  6
Continuous
 62
     7
100
AcDbCircle
 10
41.86688802359999
 20
69.3834887202
 30
0.0
 40
0.016
100
AcDbArc
 50
0.0
 51
90.0
  0
ARC
  5
36C
330
235
100
AcDbEntity
  8
0
  6
Continuous
 62
     7
100
AcDbCircle
 10
41.8488880236
 20
69.3834887202
 30
0.0
 40
0.016
100
AcDbArc
 50
90.0
 51
180.0
  0
ARC
  5
36D
330
235
100
AcDbEntity
  8
0
  6
Continuous
 62
     7
100
AcDbCircle
 10
41.9168880236
 20
68.95248872020001
 30
0.0
 40
0.016
100
AcDbArc
 50
270.0
 51
360.0
  0
ARC
  5
36E
330
235
100
AcDbEntity
  8
0
  6
Continuous
 62
     7
100
AcDbCircle
 10
42.9700961914
 20
68.9705019915
 30
0.0
 40
0.016
100
AcDbArc
 50
91.25869966469998
 51
105.3762512488
  0
ARC
  5
36F
330
235
100
AcDbEntity
  8
0
  6
Continuous
 62
     7
100
AcDbCircle
 10
42.9700961914
 20
69.0804754489
 30
0.0
 40
0.016
100
AcDbArc
 50
254.6237487512
 51
268.7413003353
  0
ARC
  5
370
330
235
100
AcDbEntity
  8
0
  6
Continuous
 62
     7
100
AcDbCircle
 10
41.8988880236
 20
69.09848872020001
 30
0.0
 40
0.016
100
AcDbArc
 50
90.0
 51
180.0
  0
ARC
  5
371
330
235
100
AcDbEntity
  8
0
  6
Continuous
 62
     7
100
AcDbCircle
 10
41.8988880236
 20
68.95248872020001
 30
0.0
 40
0.016
100
AcDbArc
 50
180.0
 51
270.0
  0
ARC
  5
372
330
235
100
AcDbEntity
  8
0
  6
Continuous
 62
     7
100
AcDbCircle
 10
41.0238880236
 20
69.09848872020001
 30
0.0
 40
0.016
100
AcDbArc
 50
90.0
 51
180.0
  0
ARC
  5
373
330
235
100
AcDbEntity
  8
0
  6
Continuous
 62
     7
100
AcDbCircle
 10
43.06488802359999
 20
69.0574887202
 30
0.0
 40
0.007
100
AcDbArc
 50
90.0
 51
180.0
  0
ARC
  5
374
330
235
100
AcDbEntity
  8
0
  6
Continuous
 62
     7
100
AcDbCircle
 10
41.93988802359999
 20
69.0574887202
 30
0.0
 40
0.007
100
AcDbArc
 50
90.0
 51
180.0
  0
ARC
  5
375
330
235
100
AcDbEntity
  8
0
  6
Continuous
 62
     7
100
AcDbCircle
 10
41.88988802359999
 20
68.94348872020001
 30
0.0
 40
0.007
100
AcDbArc
 50
180.0
 51
270.0
  0
ARC
  5
376
330
235
100
AcDbEntity
  8
0
  6
Continuous
 62
     7
100
AcDbCircle
 10
42.93088802359999
 20
69.0715523499
 30
0.0
 40
0.003
100
AcDbArc
 50
74.6237487512
 51
180.0
  0
ARC
  5
377
330
235
100
AcDbEntity
  8
0
  6
Continuous
 62
     7
100
AcDbCircle
 10
42.8908880236
 20
69.0715523499
 30
0.0
 40
0.003
100
AcDbArc
 50
74.6237487513
 51
180.0
  0
ARC
  5
378
330
235
100
AcDbEntity
  8
0
  6
Continuous
 62
     7
100
AcDbCircle
 10
42.85088802359999
 20
69.0715523499
 30
0.0
 40
0.003
100
AcDbArc
 50
74.6237487513
 51
180.0
  0
ARC
  5
379
330
235
100
AcDbEntity
  8
0
  6
Continuous
 62
     7
100
AcDbCircle
 10
42.8108880236
 20
69.0715523499
 30
0.0
 40
0.003
100
AcDbArc
 50
74.6237487512
 51
180.0
  0
ARC
  5
37A
330
235
100
AcDbEntity
  8
0
  6
Continuous
 62
     7
100
AcDbCircle
 10
42.93088802359999
 20
68.9794250905
 30
0.0
 40
0.003
100
AcDbArc
 50
180.0
 51
285.3762512489
  0
ARC
  5
37B
330
235
100
AcDbEntity
  8
0
  6
Continuous
 62
     7
100
AcDbCircle
 10
42.8908880236
 20
68.9794250905
 30
0.0
 40
0.003
100
AcDbArc
 50
180.0
 51
285.3762512488
  0
ARC
  5
37C
330
235
100
AcDbEntity
  8
0
  6
Continuous
 62
     7
100
AcDbCircle
 10
42.85088802359999
 20
68.9794250905
 30
0.0
 40
0.003
100
AcDbArc
 50
180.0
 51
285.3762512488
  0
ARC
  5
37D
330
235
100
AcDbEntity
  8
0
  6
Continuous
 62
     7
100
AcDbCircle
 10
42.8108880236
 20
68.9794250905
 30
0.0
 40
0.003
100
AcDbArc
 50
180.0
 51
285.3762512489
  0
ARC
  5
37E
330
235
100
AcDbEntity
  8
0
  6
Continuous
 62
     7
100
AcDbCircle
 10
42.9248880236
 20
69.0684250905
 30
0.0
 40
0.003
100
AcDbArc
 50
254.6237487511
 51
360.0
  0
ARC
  5
37F
330
235
100
AcDbEntity
  8
0
  6
Continuous
 62
     7
100
AcDbCircle
 10
42.88488802359999
 20
69.0684250905
 30
0.0
 40
0.003
100
AcDbArc
 50
254.6237487511
 51
360.0
  0
ARC
  5
380
330
235
100
AcDbEntity
  8
0
  6
Continuous
 62
     7
100
AcDbCircle
 10
42.8448880236
 20
69.0684250905
 30
0.0
 40
0.003
100
AcDbArc
 50
254.6237487512
 51
360.0
  0
ARC
  5
381
330
235
100
AcDbEntity
  8
0
  6
Continuous
 62
     7
100
AcDbCircle
 10
42.80488802359999
 20
69.0674887202
 30
0.0
 40
0.003
100
AcDbArc
 50
270.0
 51
360.0
  0
ARC
  5
382
330
235
100
AcDbEntity
  8
0
  6
Continuous
 62
     7
100
AcDbCircle
 10
42.9248880236
 20
68.9825523499
 30
0.0
 40
0.003
100
AcDbArc
 50
0.0
 51
105.3762512489
  0
ARC
  5
383
330
235
100
AcDbEntity
  8
0
  6
Continuous
 62
     7
100
AcDbCircle
 10
42.88488802359999
 20
68.9825523499
 30
0.0
 40
0.003
100
AcDbArc
 50
0.0
 51
105.3762512489
  0
ARC
  5
384
330
235
100
AcDbEntity
  8
0
  6
Continuous
 62
     7
100
AcDbCircle
 10
42.8448880236
 20
68.9825523499
 30
0.0
 40
0.003
100
AcDbArc
 50
0.0
 51
105.3762512488
  0
ARC
  5
385
330
235
100
AcDbEntity
  8
0
  6
Continuous
 62
     7
100
AcDbCircle
 10
42.80488802359999
 20
68.9834887202
 30
0.0
 40
0.003
100
AcDbArc
 50
0.0
 51
90.0
  0
ENDSEC
  0
SECTION
  2
OBJECTS
  0
DICTIONARY
  5
C
330
0
100
AcDbDictionary
281
     1
  3
ACAD_CIP_PREVIOUS_PRODUCT_INFO
350
41F
  3
ACAD_COLOR
350
3BD
  3
ACAD_GROUP
350
D
  3
ACAD_LAYOUT
350
1A
  3
ACAD_MATERIAL
350
390
  3
ACAD_MLEADERSTYLE
350
3E2
  3
ACAD_MLINESTYLE
350
17
  3
ACAD_PLOTSETTINGS
350
19
  3
ACAD_PLOTSTYLENAME
350
E
  3
ACAD_SCALELIST
350
3C0
  3
ACAD_TABLESTYLE
350
3BE
  3
ACAD_VISUALSTYLE
350
3A9
  3
ACDB_RECOMPOSE_DATA
350
425
  3
AcDbVariableDictionary
350
40E
  0
XRECORD
  5
41F
102
{ACAD_REACTORS
330
C
102
}
330
C
100
AcDbXrecord
280
     1
300
ACD
300
2012
300
85730ACD_2012_0F
  0
DICTIONARY
  5
3BD
102
{ACAD_REACTORS
330
C
102
}
330
C
100
AcDbDictionary
281
     1
  0
DICTIONARY
  5
D
102
{ACAD_REACTORS
330
C
102
}
330
C
100
AcDbDictionary
281
     1
  0
DICTIONARY
  5
1A
102
{ACAD_REACTORS
330
C
102
}
330
C
100
AcDbDictionary
281
     1
  3
Layout1
350
38D
  3
Model
350
38C
  0
DICTIONARY
  5
390
102
{ACAD_REACTORS
330
C
102
}
330
C
100
AcDbDictionary
281
     1
  3
ByBlock
350
399
  3
ByLayer
350
391
  3
Global
350
3A1
  0
DICTIONARY
  5
3E2
102
{ACAD_REACTORS
330
C
102
}
330
C
100
AcDbDictionary
281
     1
  3
Standard
350
3E3
  0
DICTIONARY
  5
17
102
{ACAD_REACTORS
330
C
102
}
330
C
100
AcDbDictionary
281
     1
  3
Standard
350
18
  0
DICTIONARY
  5
19
102
{ACAD_REACTORS
330
C
102
}
330
C
100
AcDbDictionary
281
     1
  0
ACDBDICTIONARYWDFLT
  5
E
102
{ACAD_REACTORS
330
C
102
}
330
C
100
AcDbDictionary
281
     1
  3
Normal
350
F
100
AcDbDictionaryWithDefault
340
F
  0
DICTIONARY
  5
3C0
102
{ACAD_REACTORS
330
C
102
}
330
C
100
AcDbDictionary
281
     1
  3
A0
350
3C1
  3
A1
350
3C2
  3
A2
350
3C3
  3
A3
350
3C4
  3
A4
350
3C5
  3
A5
350
3C6
  3
A6
350
3C7
  3
A7
350
3C8
  3
A8
350
3C9
  3
A9
350
3CA
  3
B0
350
3CB
  3
B1
350
3CC
  3
B2
350
3CD
  3
B3
350
3CE
  3
B4
350
3CF
  3
B5
350
3D0
  3
B6
350
3D1
  3
B7
350
3D2
  3
B8
350
3D3
  3
B9
350
3D4
  3
C0
350
3D5
  3
C1
350
3D6
  3
C2
350
3D7
  3
C3
350
3D8
  3
C4
350
3D9
  3
C5
350
3DA
  3
C6
350
3DB
  3
C7
350
3DC
  3
C8
350
3DD
  3
C9
350
3DE
  3
D0
350
3DF
  3
D1
350
3E0
  3
D2
350
3E1
  0
DICTIONARY
  5
3BE
102
{ACAD_REACTORS
330
C
102
}
330
C
100
AcDbDictionary
281
     1
  3
Standard
350
3BF
  0
DICTIONARY
  5
3A9
102
{ACAD_REACTORS
330
C
102
}
330
C
100
AcDbDictionary
281
     1
  3
2dWireframe
350
3AF
  3
3D Hidden
350
3B1
  3
3dWireframe
350
3B0
  3
Basic
350
3AE
  3
Brighten
350
3B5
  3
ColorChange
350
3B9
  3
Conceptual
350
3B2
  3
Dim
350
3B4
  3
EdgeColorOff
350
3BC
  3
Facepattern
350
3B8
  3
Flat
350
3AA
  3
FlatWithEdges
350
3AB
  3
Gouraud
350
3AC
  3
GouraudWithEdges
350
3AD
  3
Hidden
350
415
  3
JitterOff
350
3BA
  3
Linepattern
350
3B7
  3
OverhangOff
350
3BB
  3
Realistic
350
3B3
  3
Shaded
350
41A
  3
Shaded with edges
350
419
  3
Shades of Gray
350
416
  3
Sketchy
350
417
  3
Thicken
350
3B6
  3
Wireframe
350
414
  3
X-Ray
350
418
  0
XRECORD
  5
425
102
{ACAD_REACTORS
330
C
102
}
330
C
100
AcDbXrecord
280
     1
 90
        1
330
3BF
  0
DICTIONARY
  5
40E
102
{ACAD_REACTORS
330
C
102
}
330
C
100
AcDbDictionary
281
     1
  3
CANNOSCALE
350
411
  3
CMLEADERSTYLE
350
410
  3
CTABLESTYLE
350
40F
  0
LAYOUT
  5
38D
102
{ACAD_REACTORS
330
1A
102
}
330
1A
100
AcDbPlotSettings
  1

  2
none_device
  4
ANSI_D_(34.00_x_22.00_Inches)
  6

 40
0.0
 41
0.0
 42
0.0
 43
0.0
 44
863.6000000000001
 45
558.8
 46
0.0
 47
0.0
 48
0.0
 49
0.0
140
0.0
141
0.0
142
1.0
143
1.0
 70
     0
 72
     0
 73
     0
 74
     0
  7

 75
     0
147
1.0
 76
     0
 77
     2
 78
   300
148
0.0
149
0.0
100
AcDbLayout
  1
Layout1
 70
     1
 71
     1
 10
0.0
 20
0.0
 11
12.0
 21
9.0
 12
0.0
 22
0.0
 32
0.0
 14
1.000000000000000E+20
 24
1.000000000000000E+20
 34
1.000000000000000E+20
 15
-1.000000000000000E+20
 25
-1.000000000000000E+20
 35
-1.000000000000000E+20
146
0.0
 13
0.0
 23
0.0
 33
0.0
 16
1.0
 26
0.0
 36
0.0
 17
0.0
 27
1.0
 37
0.0
 76
     0
330
236
  0
LAYOUT
  5
38C
102
{ACAD_REACTORS
330
1A
102
}
330
1A
100
AcDbPlotSettings
  1

  2
none_device
  4
ANSI_D_(34.00_x_22.00_Inches)
  6

 40
0.0
 41
0.0
 42
0.0
 43
0.0
 44
863.6000000000001
 45
558.8
 46
0.0
 47
0.0
 48
0.0
 49
0.0
140
0.0
141
0.0
142
1.0
143
1.0
 70
  1024
 72
     0
 73
     0
 74
     0
  7

 75
     0
147
1.0
 76
     0
 77
     2
 78
   300
148
0.0
149
0.0
100
AcDbLayout
  1
Model
 70
     0
 71
     0
 10
0.0
 20
0.0
 11
34.0
 21
22.0
 12
0.0
 22
0.0
 32
0.0
 14
0.0
 24
0.0
 34
0.0
 15
0.0
 25
0.0
 35
0.0
146
0.0
 13
0.0
 23
0.0
 33
0.0
 16
1.0
 26
0.0
 36
0.0
 17
0.0
 27
1.0
 37
0.0
 76
     0
330
235
331
1F4
  0
MATERIAL
  5
399
102
{ACAD_XDICTIONARY
360
39A
102
}
102
{ACAD_REACTORS
330
390
102
}
330
390
100
AcDbMaterial
  1
ByBlock
 72
     0
 43
0.0208333333333333
 43
0.0
 43
0.0
 43
0.0
 43
0.0
 43
0.0208333333333333
 43
0.0
 43
0.0
 43
0.0
 43
0.0
 43
1.0
 43
0.0
 43
0.0
 43
0.0
 43
0.0
 43
1.0
 77
     0
 47
0.0208333333333333
 47
0.0
 47
0.0
 47
0.0
 47
0.0
 47
0.0208333333333333
 47
0.0
 47
0.0
 47
0.0
 47
0.0
 47
1.0
 47
0.0
 47
0.0
 47
0.0
 47
0.0
 47
1.0
171
     0
 49
0.0208333333333333
 49
0.0
 49
0.0
 49
0.0
 49
0.0
 49
0.0208333333333333
 49
0.0
 49
0.0
 49
0.0
 49
0.0
 49
1.0
 49
0.0
 49
0.0
 49
0.0
 49
0.0
 49
1.0
175
     0
142
0.0208333333333333
142
0.0
142
0.0
142
0.0
142
0.0
142
0.0208333333333333
142
0.0
142
0.0
142
0.0
142
0.0
142
1.0
142
0.0
142
0.0
142
0.0
142
0.0
142
1.0
179
     0
144
0.0208333333333333
144
0.0
144
0.0
144
0.0
144
0.0
144
0.0208333333333333
144
0.0
144
0.0
144
0.0
144
0.0
144
1.0
144
0.0
144
0.0
144
0.0
144
0.0
144
1.0
147
0.0208333333333333
147
0.0
147
0.0
147
0.0
147
0.0
147
0.0208333333333333
147
0.0
147
0.0
147
0.0
147
0.0
147
1.0
147
0.0
147
0.0
147
0.0
147
0.0
147
1.0
  0
MATERIAL
  5
391
102
{ACAD_XDICTIONARY
360
392
102
}
102
{ACAD_REACTORS
330
390
102
}
330
390
100
AcDbMaterial
  1
ByLayer
 72
     0
 43
0.0208333333333333
 43
0.0
 43
0.0
 43
0.0
 43
0.0
 43
0.0208333333333333
 43
0.0
 43
0.0
 43
0.0
 43
0.0
 43
1.0
 43
0.0
 43
0.0
 43
0.0
 43
0.0
 43
1.0
 77
     0
 47
0.0208333333333333
 47
0.0
 47
0.0
 47
0.0
 47
0.0
 47
0.0208333333333333
 47
0.0
 47
0.0
 47
0.0
 47
0.0
 47
1.0
 47
0.0
 47
0.0
 47
0.0
 47
0.0
 47
1.0
171
     0
 49
0.0208333333333333
 49
0.0
 49
0.0
 49
0.0
 49
0.0
 49
0.0208333333333333
 49
0.0
 49
0.0
 49
0.0
 49
0.0
 49
1.0
 49
0.0
 49
0.0
 49
0.0
 49
0.0
 49
1.0
175
     0
142
0.0208333333333333
142
0.0
142
0.0
142
0.0
142
0.0
142
0.0208333333333333
142
0.0
142
0.0
142
0.0
142
0.0
142
1.0
142
0.0
142
0.0
142
0.0
142
0.0
142
1.0
179
     0
144
0.0208333333333333
144
0.0
144
0.0
144
0.0
144
0.0
144
0.0208333333333333
144
0.0
144
0.0
144
0.0
144
0.0
144
1.0
144
0.0
144
0.0
144
0.0
144
0.0
144
1.0
147
0.0208333333333333
147
0.0
147
0.0
147
0.0
147
0.0
147
0.0208333333333333
147
0.0
147
0.0
147
0.0
147
0.0
147
1.0
147
0.0
147
0.0
147
0.0
147
0.0
147
1.0
  0
MATERIAL
  5
3A1
102
{ACAD_XDICTIONARY
360
3A2
102
}
102
{ACAD_REACTORS
330
390
102
}
330
390
100
AcDbMaterial
  1
Global
 72
     0
 43
0.0208333333333333
 43
0.0
 43
0.0
 43
0.0
 43
0.0
 43
0.0208333333333333
 43
0.0
 43
0.0
 43
0.0
 43
0.0
 43
1.0
 43
0.0
 43
0.0
 43
0.0
 43
0.0
 43
1.0
 77
     0
 47
0.0208333333333333
 47
0.0
 47
0.0
 47
0.0
 47
0.0
 47
0.0208333333333333
 47
0.0
 47
0.0
 47
0.0
 47
0.0
 47
1.0
 47
0.0
 47
0.0
 47
0.0
 47
0.0
 47
1.0
171
     0
 49
0.0208333333333333
 49
0.0
 49
0.0
 49
0.0
 49
0.0
 49
0.0208333333333333
 49
0.0
 49
0.0
 49
0.0
 49
0.0
 49
1.0
 49
0.0
 49
0.0
 49
0.0
 49
0.0
 49
1.0
175
     0
142
0.0208333333333333
142
0.0
142
0.0
142
0.0
142
0.0
142
0.0208333333333333
142
0.0
142
0.0
142
0.0
142
0.0
142
1.0
142
0.0
142
0.0
142
0.0
142
0.0
142
1.0
179
     0
144
0.0208333333333333
144
0.0
144
0.0
144
0.0
144
0.0
144
0.0208333333333333
144
0.0
144
0.0
144
0.0
144
0.0
144
1.0
144
0.0
144
0.0
144
0.0
144
0.0
144
1.0
147
0.0208333333333333
147
0.0
147
0.0
147
0.0
147
0.0
147
0.0208333333333333
147
0.0
147
0.0
147
0.0
147
0.0
147
1.0
147
0.0
147
0.0
147
0.0
147
0.0
147
1.0
  0
MLEADERSTYLE
  5
3E3
102
{ACAD_REACTORS
330
3E2
102
}
330
3E2
100
AcDbMLeaderStyle
179
     2
170
     2
171
     1
172
     0
 90
        2
 40
0.0
 41
0.0
173
     1
 91
-1056964608
340
14
 92
       -2
290
     1
 42
0.09
291
     1
 43
0.36
  3
Standard
 44
0.18
300

342
11
174
     1
178
     6
175
     1
176
     0
 93
-1056964608
 45
0.18
292
     0
297
     0
 46
0.18
 94
-1056964608
 47
1.0
 49
1.0
140
1.0
293
     1
141
0.0
294
     1
177
     0
142
1.0
295
     0
296
     0
143
0.125
271
     0
272
     9
273
     9
  0
MLINESTYLE
  5
18
102
{ACAD_REACTORS
330
17
102
}
330
17
100
AcDbMlineStyle
  2
STANDARD
 70
     0
  3

 62
   256
 51
90.0
 52
90.0
 71
     2
 49
0.5
 62
   256
  6
BYLAYER
 49
-0.5
 62
   256
  6
BYLAYER
  0
ACDBPLACEHOLDER
  5
F
102
{ACAD_REACTORS
330
E
102
}
330
E
  0
SCALE
  5
3C1
102
{ACAD_REACTORS
330
3C0
102
}
330
3C0
100
AcDbScale
 70
     0
300
1:1
140
1.0
141
1.0
290
     1
  0
SCALE
  5
3C2
102
{ACAD_REACTORS
330
3C0
102
}
330
3C0
100
AcDbScale
 70
     0
300
1:2
140
1.0
141
2.0
290
     0
  0
SCALE
  5
3C3
102
{ACAD_REACTORS
330
3C0
102
}
330
3C0
100
AcDbScale
 70
     0
300
1:4
140
1.0
141
4.0
290
     0
  0
SCALE
  5
3C4
102
{ACAD_REACTORS
330
3C0
102
}
330
3C0
100
AcDbScale
 70
     0
300
1:5
140
1.0
141
5.0
290
     0
  0
SCALE
  5
3C5
102
{ACAD_REACTORS
330
3C0
102
}
330
3C0
100
AcDbScale
 70
     0
300
1:8
140
1.0
141
8.0
290
     0
  0
SCALE
  5
3C6
102
{ACAD_REACTORS
330
3C0
102
}
330
3C0
100
AcDbScale
 70
     0
300
1:10
140
1.0
141
10.0
290
     0
  0
SCALE
  5
3C7
102
{ACAD_REACTORS
330
3C0
102
}
330
3C0
100
AcDbScale
 70
     0
300
1:16
140
1.0
141
16.0
290
     0
  0
SCALE
  5
3C8
102
{ACAD_REACTORS
330
3C0
102
}
330
3C0
100
AcDbScale
 70
     0
300
1:20
140
1.0
141
20.0
290
     0
  0
SCALE
  5
3C9
102
{ACAD_REACTORS
330
3C0
102
}
330
3C0
100
AcDbScale
 70
     0
300
1:30
140
1.0
141
30.0
290
     0
  0
SCALE
  5
3CA
102
{ACAD_REACTORS
330
3C0
102
}
330
3C0
100
AcDbScale
 70
     0
300
1:40
140
1.0
141
40.0
290
     0
  0
SCALE
  5
3CB
102
{ACAD_REACTORS
330
3C0
102
}
330
3C0
100
AcDbScale
 70
     0
300
1:50
140
1.0
141
50.0
290
     0
  0
SCALE
  5
3CC
102
{ACAD_REACTORS
330
3C0
102
}
330
3C0
100
AcDbScale
 70
     0
300
1:100
140
1.0
141
100.0
290
     0
  0
SCALE
  5
3CD
102
{ACAD_REACTORS
330
3C0
102
}
330
3C0
100
AcDbScale
 70
     0
300
2:1
140
2.0
141
1.0
290
     0
  0
SCALE
  5
3CE
102
{ACAD_REACTORS
330
3C0
102
}
330
3C0
100
AcDbScale
 70
     0
300
4:1
140
4.0
141
1.0
290
     0
  0
SCALE
  5
3CF
102
{ACAD_REACTORS
330
3C0
102
}
330
3C0
100
AcDbScale
 70
     0
300
8:1
140
8.0
141
1.0
290
     0
  0
SCALE
  5
3D0
102
{ACAD_REACTORS
330
3C0
102
}
330
3C0
100
AcDbScale
 70
     0
300
10:1
140
10.0
141
1.0
290
     0
  0
SCALE
  5
3D1
102
{ACAD_REACTORS
330
3C0
102
}
330
3C0
100
AcDbScale
 70
     0
300
100:1
140
100.0
141
1.0
290
     0
  0
SCALE
  5
3D2
102
{ACAD_REACTORS
330
3C0
102
}
330
3C0
100
AcDbScale
 70
     0
300
1/128" = 1'-0"
140
0.0078125
141
12.0
290
     0
  0
SCALE
  5
3D3
102
{ACAD_REACTORS
330
3C0
102
}
330
3C0
100
AcDbScale
 70
     0
300
1/64" = 1'-0"
140
0.015625
141
12.0
290
     0
  0
SCALE
  5
3D4
102
{ACAD_REACTORS
330
3C0
102
}
330
3C0
100
AcDbScale
 70
     0
300
1/32" = 1'-0"
140
0.03125
141
12.0
290
     0
  0
SCALE
  5
3D5
102
{ACAD_REACTORS
330
3C0
102
}
330
3C0
100
AcDbScale
 70
     0
300
1/16" = 1'-0"
140
0.0625
141
12.0
290
     0
  0
SCALE
  5
3D6
102
{ACAD_REACTORS
330
3C0
102
}
330
3C0
100
AcDbScale
 70
     0
300
3/32" = 1'-0"
140
0.09375
141
12.0
290
     0
  0
SCALE
  5
3D7
102
{ACAD_REACTORS
330
3C0
102
}
330
3C0
100
AcDbScale
 70
     0
300
1/8" = 1'-0"
140
0.125
141
12.0
290
     0
  0
SCALE
  5
3D8
102
{ACAD_REACTORS
330
3C0
102
}
330
3C0
100
AcDbScale
 70
     0
300
3/16" = 1'-0"
140
0.1875
141
12.0
290
     0
  0
SCALE
  5
3D9
102
{ACAD_REACTORS
330
3C0
102
}
330
3C0
100
AcDbScale
 70
     0
300
1/4" = 1'-0"
140
0.25
141
12.0
290
     0
  0
SCALE
  5
3DA
102
{ACAD_REACTORS
330
3C0
102
}
330
3C0
100
AcDbScale
 70
     0
300
3/8" = 1'-0"
140
0.375
141
12.0
290
     0
  0
SCALE
  5
3DB
102
{ACAD_REACTORS
330
3C0
102
}
330
3C0
100
AcDbScale
 70
     0
300
1/2" = 1'-0"
140
0.5
141
12.0
290
     0
  0
SCALE
  5
3DC
102
{ACAD_REACTORS
330
3C0
102
}
330
3C0
100
AcDbScale
 70
     0
300
3/4" = 1'-0"
140
0.75
141
12.0
290
     0
  0
SCALE
  5
3DD
102
{ACAD_REACTORS
330
3C0
102
}
330
3C0
100
AcDbScale
 70
     0
300
1" = 1'-0"
140
1.0
141
12.0
290
     0
  0
SCALE
  5
3DE
102
{ACAD_REACTORS
330
3C0
102
}
330
3C0
100
AcDbScale
 70
     0
300
1-1/2" = 1'-0"
140
1.5
141
12.0
290
     0
  0
SCALE
  5
3DF
102
{ACAD_REACTORS
330
3C0
102
}
330
3C0
100
AcDbScale
 70
     0
300
3" = 1'-0"
140
3.0
141
12.0
290
     0
  0
SCALE
  5
3E0
102
{ACAD_REACTORS
330
3C0
102
}
330
3C0
100
AcDbScale
 70
     0
300
6" = 1'-0"
140
6.0
141
12.0
290
     0
  0
SCALE
  5
3E1
102
{ACAD_REACTORS
330
3C0
102
}
330
3C0
100
AcDbScale
 70
     0
300
1'-0" = 1'-0"
140
12.0
141
12.0
290
     0
  0
TABLESTYLE
  5
3BF
102
{ACAD_XDICTIONARY
360
3E4
102
}
102
{ACAD_REACTORS
330
3BE
102
}
330
3BE
100
AcDbTableStyle
280
     0
  3
Standard
 70
     0
 71
     0
 40
0.06
 41
0.06
280
     0
281
     0
  7
STANDARD
140
0.18
170
     2
 62
     0
 63
     7
283
     0
 90
      512
 91
        0
  1

274
    -2
284
     1
 64
     0
275
    -2
285
     1
 65
     0
276
    -2
286
     1
 66
     0
277
    -2
287
     1
 67
     0
278
    -2
288
     1
 68
     0
279
    -2
289
     1
 69
     0
  7
STANDARD
140
0.25
170
     5
 62
     0
 63
     7
283
     0
 90
      512
 91
        0
  1

274
    -2
284
     1
 64
     0
275
    -2
285
     1
 65
     0
276
    -2
286
     1
 66
     0
277
    -2
287
     1
 67
     0
278
    -2
288
     1
 68
     0
279
    -2
289
     1
 69
     0
  7
STANDARD
140
0.18
170
     5
 62
     0
 63
     7
283
     0
 90
      512
 91
        0
  1

274
    -2
284
     1
 64
     0
275
    -2
285
     1
 65
     0
276
    -2
286
     1
 66
     0
277
    -2
287
     1
 67
     0
278
    -2
288
     1
 68
     0
279
    -2
289
     1
 69
     0
  0
VISUALSTYLE
  5
3AF
102
{ACAD_REACTORS
330
3A9
102
}
330
3A9
100
AcDbVisualStyle
  2
2dWireframe
 70
     4
177
     2
291
     0
 71
     0
176
     1
 72
     2
176
     1
 73
     0
176
     1
 90
        0
176
     1
 40
0.6
176
     1
 41
30.0
176
     1
 63
     7
421
 16777215
176
     1
 74
     1
176
     1
 91
        4
176
     1
 64
     7
176
     1
 65
   257
176
     1
 75
     1
176
     1
175
     1
176
     1
 42
1.0
176
     1
 92
        0
176
     1
 66
   257
176
     1
 43
1.0
176
     1
 76
     1
176
     1
 77
     6
176
     1
 78
     2
176
     1
 67
     7
176
     1
 79
     5
176
     1
170
     0
176
     1
171
     0
176
     1
290
     0
176
     1
 93
        1
176
     1
 44
0.0
176
     1
173
     0
176
     1
  0
VISUALSTYLE
  5
3B1
102
{ACAD_REACTORS
330
3A9
102
}
330
3A9
100
AcDbVisualStyle
  2
3D Hidden
 70
     6
177
     2
291
     0
 71
     1
176
     1
 72
     2
176
     1
 73
     2
176
     1
 90
        0
176
     1
 40
0.6
176
     1
 41
30.0
176
     1
 63
     7
421
 16777215
176
     1
 74
     2
176
     1
 91
        2
176
     1
 64
     7
176
     1
 65
   257
176
     1
 75
     2
176
     1
175
     1
176
     1
 42
179.0
176
     1
 92
        0
176
     1
 66
   257
176
     1
 43
1.0
176
     1
 76
     1
176
     1
 77
     6
176
     1
 78
     2
176
     1
 67
     7
176
     1
 79
     3
176
     1
170
     0
176
     1
171
     0
176
     1
290
     0
176
     1
 93
        1
176
     1
 44
0.0
176
     1
173
     0
176
     1
  0
VISUALSTYLE
  5
3B0
102
{ACAD_REACTORS
330
3A9
102
}
330
3A9
100
AcDbVisualStyle
  2
3dWireframe
 70
     5
177
     2
291
     0
 71
     0
176
     1
 72
     2
176
     1
 73
     0
176
     1
 90
        0
176
     1
 40
0.6
176
     1
 41
30.0
176
     1
 63
     7
421
 16777215
176
     1
 74
     1
176
     1
 91
        4
176
     1
 64
     7
176
     1
 65
   257
176
     1
 75
     1
176
     1
175
     1
176
     1
 42
1.0
176
     1
 92
        0
176
     1
 66
   257
176
     1
 43
1.0
176
     1
 76
     1
176
     1
 77
     6
176
     1
 78
     2
176
     1
 67
     7
176
     1
 79
     5
176
     1
170
     0
176
     1
171
     0
176
     1
290
     0
176
     1
 93
        1
176
     1
 44
0.0
176
     1
173
     0
176
     1
  0
VISUALSTYLE
  5
3AE
102
{ACAD_REACTORS
330
3A9
102
}
330
3A9
100
AcDbVisualStyle
  2
Basic
 70
     7
177
     2
291
     1
 71
     1
176
     1
 72
     0
176
     1
 73
     1
176
     1
 90
        0
176
     1
 40
0.6
176
     1
 41
30.0
176
     1
 63
     7
421
 16777215
176
     1
 74
     0
176
     1
 91
        4
176
     1
 64
     7
176
     1
 65
   257
176
     1
 75
     1
176
     1
175
     1
176
     1
 42
1.0
176
     1
 92
        8
176
     1
 66
     7
176
     1
 43
1.0
176
     1
 76
     1
176
     1
 77
     6
176
     1
 78
     2
176
     1
 67
     7
176
     1
 79
     5
176
     1
170
     0
176
     1
171
     0
176
     1
290
     0
176
     1
 93
        1
176
     1
 44
0.0
176
     1
173
     0
176
     1
  0
VISUALSTYLE
  5
3B5
102
{ACAD_REACTORS
330
3A9
102
}
330
3A9
100
AcDbVisualStyle
  2
Brighten
 70
    12
177
     2
291
     1
 71
     2
176
     1
 72
     2
176
     1
 73
     0
176
     1
 90
        0
176
     1
 40
0.6
176
     1
 41
30.0
176
     1
 63
     7
421
 16777215
176
     1
 74
     1
176
     1
 91
        4
176
     1
 64
     7
176
     1
 65
   257
176
     1
 75
     1
176
     1
175
     1
176
     1
 42
1.0
176
     1
 92
        8
176
     1
 66
     7
176
     1
 43
1.0
176
     1
 76
     1
176
     1
 77
     6
176
     1
 78
     2
176
     1
 67
     7
176
     1
 79
     5
176
     1
170
     0
176
     1
171
     0
176
     1
290
     0
176
     1
 93
        1
176
     1
 44
50.0
176
     1
173
     0
176
     1
  0
VISUALSTYLE
  5
3B9
102
{ACAD_REACTORS
330
3A9
102
}
330
3A9
100
AcDbVisualStyle
  2
ColorChange
 70
    16
177
     2
291
     1
 71
     2
176
     1
 72
     2
176
     1
 73
     3
176
     1
 90
        0
176
     1
 40
0.6
176
     1
 41
30.0
176
     1
 63
     8
421
  8421504
176
     1
 74
     1
176
     1
 91
        4
176
     1
 64
     7
176
     1
 65
   257
176
     1
 75
     1
176
     1
175
     1
176
     1
 42
1.0
176
     1
 92
        8
176
     1
 66
     8
424
  8421504
176
     1
 43
1.0
176
     1
 76
     1
176
     1
 77
     6
176
     1
 78
     2
176
     1
 67
     7
176
     1
 79
     5
176
     1
170
     0
176
     1
171
     0
176
     1
290
     0
176
     1
 93
        1
176
     1
 44
0.0
176
     1
173
     0
176
     1
  0
VISUALSTYLE
  5
3B2
102
{ACAD_REACTORS
330
3A9
102
}
330
3A9
100
AcDbVisualStyle
  2
Conceptual
 70
     9
177
     2
291
     0
 71
     3
176
     1
 72
     2
176
     1
 73
     0
176
     1
 90
        0
176
     1
 40
0.6
176
     1
 41
30.0
176
     1
 63
     7
421
 16777215
176
     1
 74
     2
176
     1
 91
        2
176
     1
 64
     7
176
     1
 65
   257
176
     1
 75
     1
176
     1
175
     1
176
     1
 42
179.0
176
     1
 92
        8
176
     1
 66
     7
176
     1
 43
1.0
176
     1
 76
     1
176
     1
 77
     6
176
     1
 78
     2
176
     1
 67
     7
176
     1
 79
     3
176
     1
170
     0
176
     1
171
     0
176
     1
290
     0
176
     1
 93
        1
176
     1
 44
0.0
176
     1
173
     0
176
     1
  0
VISUALSTYLE
  5
3B4
102
{ACAD_REACTORS
330
3A9
102
}
330
3A9
100
AcDbVisualStyle
  2
Dim
 70
    11
177
     2
291
     1
 71
     2
176
     1
 72
     2
176
     1
 73
     0
176
     1
 90
        0
176
     1
 40
0.6
176
     1
 41
30.0
176
     1
 63
     7
421
 16777215
176
     1
 74
     1
176
     1
 91
        4
176
     1
 64
     7
176
     1
 65
   257
176
     1
 75
     1
176
     1
175
     1
176
     1
 42
1.0
176
     1
 92
        8
176
     1
 66
     7
176
     1
 43
1.0
176
     1
 76
     1
176
     1
 77
     6
176
     1
 78
     2
176
     1
 67
     7
176
     1
 79
     5
176
     1
170
     0
176
     1
171
     0
176
     1
290
     0
176
     1
 93
        1
176
     1
 44
-50.0
176
     1
173
     0
176
     1
  0
VISUALSTYLE
  5
3BC
102
{ACAD_REACTORS
330
3A9
102
}
330
3A9
100
AcDbVisualStyle
  2
EdgeColorOff
 70
    22
177
     2
291
     1
 71
     2
176
     0
 72
     2
176
     0
 73
     0
176
     0
 90
        0
176
     0
 40
0.6
176
     0
 41
30.0
176
     0
 63
     7
421
 16777215
176
     0
 74
     1
176
     0
 91
        4
176
     0
 64
     7
176
     0
 65
   257
176
     0
 75
     1
176
     0
175
     1
176
     0
 42
1.0
176
     0
 92
        8
176
     2
 66
     7
176
     0
 43
1.0
176
     0
 76
     1
176
     0
 77
     6
176
     0
 78
     2
176
     0
 67
     7
176
     0
 79
     5
176
     0
170
     0
176
     0
171
     0
176
     0
290
     0
176
     0
 93
        1
176
     0
 44
0.0
176
     0
173
     0
176
     0
  0
VISUALSTYLE
  5
3B8
102
{ACAD_REACTORS
330
3A9
102
}
330
3A9
100
AcDbVisualStyle
  2
Facepattern
 70
    15
177
     2
291
     1
 71
     2
176
     1
 72
     2
176
     1
 73
     0
176
     1
 90
        0
176
     1
 40
0.6
176
     1
 41
30.0
176
     1
 63
     7
421
 16777215
176
     1
 74
     1
176
     1
 91
        4
176
     1
 64
     7
176
     1
 65
   257
176
     1
 75
     1
176
     1
175
     1
176
     1
 42
1.0
176
     1
 92
        8
176
     1
 66
     7
176
     1
 43
1.0
176
     1
 76
     1
176
     1
 77
     6
176
     1
 78
     2
176
     1
 67
     7
176
     1
 79
     5
176
     1
170
     0
176
     1
171
     0
176
     1
290
     0
176
     1
 93
        1
176
     1
 44
0.0
176
     1
173
     0
176
     1
  0
VISUALSTYLE
  5
3AA
102
{ACAD_REACTORS
330
3A9
102
}
330
3A9
100
AcDbVisualStyle
  2
Flat
 70
     0
177
     2
291
     1
 71
     2
176
     1
 72
     1
176
     1
 73
     1
176
     1
 90
        2
176
     1
 40
0.6
176
     1
 41
30.0
176
     1
 63
     7
421
 16777215
176
     1
 74
     0
176
     1
 91
        4
176
     1
 64
     7
176
     1
 65
   257
176
     1
 75
     1
176
     1
175
     1
176
     1
 42
1.0
176
     1
 92
        8
176
     1
 66
     7
176
     1
 43
1.0
176
     1
 76
     1
176
     1
 77
     6
176
     1
 78
     2
176
     1
 67
     7
176
     1
 79
     5
176
     1
170
     0
176
     1
171
     0
176
     1
290
     0
176
     1
 93
       13
176
     1
 44
0.0
176
     1
173
     0
176
     1
  0
VISUALSTYLE
  5
3AB
102
{ACAD_REACTORS
330
3A9
102
}
330
3A9
100
AcDbVisualStyle
  2
FlatWithEdges
 70
     1
177
     2
291
     1
 71
     2
176
     1
 72
     1
176
     1
 73
     1
176
     1
 90
        2
176
     1
 40
0.6
176
     1
 41
30.0
176
     1
 63
     7
421
 16777215
176
     1
 74
     1
176
     1
 91
        4
176
     1
 64
     7
176
     1
 65
   257
176
     1
 75
     1
176
     1
175
     1
176
     1
 42
1.0
176
     1
 92
        0
176
     1
 66
   257
176
     1
 43
1.0
176
     1
 76
     1
176
     1
 77
     6
176
     1
 78
     2
176
     1
 67
     7
176
     1
 79
     5
176
     1
170
     0
176
     1
171
     0
176
     1
290
     0
176
     1
 93
       13
176
     1
 44
0.0
176
     1
173
     0
176
     1
  0
VISUALSTYLE
  5
3AC
102
{ACAD_REACTORS
330
3A9
102
}
330
3A9
100
AcDbVisualStyle
  2
Gouraud
 70
     2
177
     2
291
     1
 71
     2
176
     1
 72
     2
176
     1
 73
     1
176
     1
 90
        2
176
     1
 40
0.6
176
     1
 41
30.0
176
     1
 63
     7
421
 16777215
176
     1
 74
     0
176
     1
 91
        4
176
     1
 64
     7
176
     1
 65
   257
176
     1
 75
     1
176
     1
175
     1
176
     1
 42
1.0
176
     1
 92
        0
176
     1
 66
     7
176
     1
 43
1.0
176
     1
 76
     1
176
     1
 77
     6
176
     1
 78
     2
176
     1
 67
     7
176
     1
 79
     5
176
     1
170
     0
176
     1
171
     0
176
     1
290
     0
176
     1
 93
       13
176
     1
 44
0.0
176
     1
173
     0
176
     1
  0
VISUALSTYLE
  5
3AD
102
{ACAD_REACTORS
330
3A9
102
}
330
3A9
100
AcDbVisualStyle
  2
GouraudWithEdges
 70
     3
177
     2
291
     1
 71
     2
176
     1
 72
     2
176
     1
 73
     1
176
     1
 90
        2
176
     1
 40
0.6
176
     1
 41
30.0
176
     1
 63
     7
421
 16777215
176
     1
 74
     1
176
     1
 91
        4
176
     1
 64
     7
176
     1
 65
   257
176
     1
 75
     1
176
     1
175
     1
176
     1
 42
1.0
176
     1
 92
        0
176
     1
 66
   257
176
     1
 43
1.0
176
     1
 76
     1
176
     1
 77
     6
176
     1
 78
     2
176
     1
 67
     7
176
     1
 79
     5
176
     1
170
     0
176
     1
171
     0
176
     1
290
     0
176
     1
 93
       13
176
     1
 44
0.0
176
     1
173
     0
176
     1
  0
VISUALSTYLE
  5
415
102
{ACAD_REACTORS
330
3A9
102
}
330
3A9
100
AcDbVisualStyle
  2
Hidden
 70
     6
177
     2
291
     0
 71
     1
176
     1
 72
     2
176
     1
 73
     2
176
     1
 90
        0
176
     1
 40
0.6
176
     1
 41
30.0
176
     1
 63
     7
421
 16777215
176
     1
 74
     2
176
     1
 91
        2
176
     1
 64
     7
176
     1
 65
   257
176
     1
 75
     2
176
     1
175
     1
176
     1
 42
40.0
176
     1
 92
        0
176
     1
 66
   257
176
     1
 43
1.0
176
     1
 76
     1
176
     1
 77
     6
176
     1
 78
     2
176
     1
 67
     7
176
     1
 79
     3
176
     1
170
     0
176
     1
171
     0
176
     1
290
     0
176
     1
 93
        1
176
     1
 44
0.0
176
     1
173
     0
176
     1
  0
VISUALSTYLE
  5
3BA
102
{ACAD_REACTORS
330
3A9
102
}
330
3A9
100
AcDbVisualStyle
  2
JitterOff
 70
    20
177
     2
291
     1
 71
     2
176
     0
 72
     2
176
     0
 73
     0
176
     0
 90
        0
176
     0
 40
0.6
176
     0
 41
30.0
176
     0
 63
     7
421
 16777215
176
     0
 74
     1
176
     0
 91
        4
176
     0
 64
     7
176
     0
 65
   257
176
     0
 75
     1
176
     0
175
     1
176
     0
 42
1.0
176
     0
 92
       10
176
     2
 66
     7
176
     0
 43
1.0
176
     0
 76
     1
176
     0
 77
     6
176
     0
 78
     2
176
     0
 67
     7
176
     0
 79
     5
176
     0
170
     0
176
     0
171
     0
176
     0
290
     0
176
     0
 93
        1
176
     0
 44
0.0
176
     0
173
     0
176
     0
  0
VISUALSTYLE
  5
3B7
102
{ACAD_REACTORS
330
3A9
102
}
330
3A9
100
AcDbVisualStyle
  2
Linepattern
 70
    14
177
     2
291
     1
 71
     2
176
     1
 72
     2
176
     1
 73
     0
176
     1
 90
        0
176
     1
 40
0.6
176
     1
 41
30.0
176
     1
 63
     7
421
 16777215
176
     1
 74
     1
176
     1
 91
        4
176
     1
 64
     7
176
     1
 65
   257
176
     1
 75
     7
176
     1
175
     7
176
     1
 42
1.0
176
     1
 92
        8
176
     1
 66
     7
176
     1
 43
1.0
176
     1
 76
     1
176
     1
 77
     6
176
     1
 78
     2
176
     1
 67
     7
176
     1
 79
     5
176
     1
170
     0
176
     1
171
     0
176
     1
290
     0
176
     1
 93
        1
176
     1
 44
0.0
176
     1
173
     0
176
     1
  0
VISUALSTYLE
  5
3BB
102
{ACAD_REACTORS
330
3A9
102
}
330
3A9
100
AcDbVisualStyle
  2
OverhangOff
 70
    21
177
     2
291
     1
 71
     2
176
     0
 72
     2
176
     0
 73
     0
176
     0
 90
        0
176
     0
 40
0.6
176
     0
 41
30.0
176
     0
 63
     7
421
 16777215
176
     0
 74
     1
176
     0
 91
        4
176
     0
 64
     7
176
     0
 65
   257
176
     0
 75
     1
176
     0
175
     1
176
     0
 42
1.0
176
     0
 92
        9
176
     2
 66
     7
176
     0
 43
1.0
176
     0
 76
     1
176
     0
 77
     6
176
     0
 78
     2
176
     0
 67
     7
176
     0
 79
     5
176
     0
170
     0
176
     0
171
     0
176
     0
290
     0
176
     0
 93
        1
176
     0
 44
0.0
176
     0
173
     0
176
     0
  0
VISUALSTYLE
  5
3B3
102
{ACAD_REACTORS
330
3A9
102
}
330
3A9
100
AcDbVisualStyle
  2
Realistic
 70
     8
177
     2
291
     0
 71
     2
176
     1
 72
     2
176
     1
 73
     0
176
     1
 90
        0
176
     1
 40
0.6
176
     1
 41
30.0
176
     1
 63
     7
421
 16777215
176
     1
 74
     1
176
     1
 91
        0
176
     1
 64
     7
176
     1
 65
   257
176
     1
 75
     1
176
     1
175
     1
176
     1
 42
1.0
176
     1
 92
        8
176
     1
 66
     8
424
  7895160
176
     1
 43
1.0
176
     1
 76
     1
176
     1
 77
     6
176
     1
 78
     2
176
     1
 67
     7
176
     1
 79
     5
176
     1
170
     0
176
     1
171
     0
176
     1
290
     0
176
     1
 93
       13
176
     1
 44
0.0
176
     1
173
     0
176
     1
  0
VISUALSTYLE
  5
41A
102
{ACAD_REACTORS
330
3A9
102
}
330
3A9
100
AcDbVisualStyle
  2
Shaded
 70
    27
177
     2
291
     0
 71
     2
176
     1
 72
     2
176
     1
 73
     1
176
     1
 90
        2
176
     1
 40
0.6
176
     1
 41
30.0
176
     1
 63
     7
421
 16777215
176
     1
 74
     0
176
     1
 91
        4
176
     1
 64
     7
176
     1
 65
   257
176
     1
 75
     1
176
     1
175
     1
176
     1
 42
1.0
176
     1
 92
        8
176
     1
 66
   257
176
     1
 43
1.0
176
     1
 76
     1
176
     1
 77
     6
176
     1
 78
     2
176
     1
 67
     8
425
  7895160
176
     1
 79
     3
176
     1
170
     0
176
     1
171
     0
176
     1
290
     0
176
     1
 93
        5
176
     1
 44
0.0
176
     1
173
     0
176
     1
  0
VISUALSTYLE
  5
419
102
{ACAD_REACTORS
330
3A9
102
}
330
3A9
100
AcDbVisualStyle
  2
Shaded with edges
 70
    26
177
     2
291
     0
 71
     2
176
     1
 72
     2
176
     1
 73
     1
176
     1
 90
        2
176
     1
 40
0.6
176
     1
 41
30.0
176
     1
 63
     7
421
 16777215
176
     1
 74
     1
176
     1
 91
       10
176
     1
 64
     7
176
     1
 65
   257
176
     1
 75
     2
176
     1
175
     1
176
     1
 42
1.0
176
     1
 92
        8
176
     1
 66
   257
176
     1
 43
1.0
176
     1
 76
     1
176
     1
 77
     6
176
     1
 78
     2
176
     1
 67
     7
176
     1
 79
     3
176
     1
170
     0
176
     1
171
     0
176
     1
290
     0
176
     1
 93
        5
176
     1
 44
0.0
176
     1
173
     0
176
     1
  0
VISUALSTYLE
  5
416
102
{ACAD_REACTORS
330
3A9
102
}
330
3A9
100
AcDbVisualStyle
  2
Shades of Gray
 70
    23
177
     2
291
     0
 71
     2
176
     1
 72
     2
176
     1
 73
     3
176
     1
 90
        0
176
     1
 40
0.6
176
     1
 41
30.0
176
     1
 63
     7
421
 16777215
176
     1
 74
     2
176
     1
 91
        2
176
     1
 64
     7
176
     1
 65
     7
176
     1
 75
     1
176
     1
175
     1
176
     1
 42
40.0
176
     1
 92
        8
176
     1
 66
     7
176
     1
 43
1.0
176
     1
 76
     1
176
     1
 77
     6
176
     1
 78
     2
176
     1
 67
     7
176
     1
 79
     3
176
     1
170
     0
176
     1
171
     0
176
     1
290
     0
176
     1
 93
        1
176
     1
 44
0.0
176
     1
173
     0
176
     1
  0
VISUALSTYLE
  5
417
102
{ACAD_REACTORS
330
3A9
102
}
330
3A9
100
AcDbVisualStyle
  2
Sketchy
 70
    24
177
     2
291
     0
 71
     1
176
     1
 72
     2
176
     1
 73
     2
176
     1
 90
        0
176
     1
 40
0.6
176
     1
 41
30.0
176
     1
 63
     7
421
 16777215
176
     1
 74
     2
176
     1
 91
        2
176
     1
 64
     7
176
     1
 65
     7
176
     1
 75
     1
176
     1
175
     1
176
     1
 42
40.0
176
     1
 92
       11
176
     1
 66
     7
176
     1
 43
1.0
176
     1
 76
     1
176
     1
 77
     6
176
     1
 78
     2
176
     1
 67
     7
176
     1
 79
     6
176
     1
170
     0
176
     1
171
     0
176
     1
290
     0
176
     1
 93
        1
176
     1
 44
0.0
176
     1
173
     0
176
     1
  0
VISUALSTYLE
  5
3B6
102
{ACAD_REACTORS
330
3A9
102
}
330
3A9
100
AcDbVisualStyle
  2
Thicken
 70
    13
177
     2
291
     1
 71
     2
176
     1
 72
     2
176
     1
 73
     0
176
     1
 90
        0
176
     1
 40
0.6
176
     1
 41
30.0
176
     1
 63
     7
421
 16777215
176
     1
 74
     1
176
     1
 91
        4
176
     1
 64
     7
176
     1
 65
   257
176
     1
 75
     1
176
     1
175
     1
176
     1
 42
1.0
176
     1
 92
       12
176
     1
 66
     7
176
     1
 43
1.0
176
     1
 76
     1
176
     1
 77
     6
176
     1
 78
     2
176
     1
 67
     7
176
     1
 79
     5
176
     1
170
     0
176
     1
171
     0
176
     1
290
     0
176
     1
 93
        1
176
     1
 44
0.0
176
     1
173
     0
176
     1
  0
VISUALSTYLE
  5
414
102
{ACAD_REACTORS
330
3A9
102
}
330
3A9
100
AcDbVisualStyle
  2
Wireframe
 70
     5
177
     2
291
     0
 71
     0
176
     1
 72
     2
176
     1
 73
     0
176
     1
 90
        0
176
     1
 40
0.6
176
     1
 41
30.0
176
     1
 63
     7
421
 16777215
176
     1
 74
     1
176
     1
 91
        4
176
     1
 64
     7
176
     1
 65
   257
176
     1
 75
     1
176
     1
175
     1
176
     1
 42
1.0
176
     1
 92
        0
176
     1
 66
   257
176
     1
 43
1.0
176
     1
 76
     1
176
     1
 77
     6
176
     1
 78
     2
176
     1
 67
     7
176
     1
 79
     3
176
     1
170
     0
176
     1
171
     0
176
     1
290
     0
176
     1
 93
        1
176
     1
 44
0.0
176
     1
173
     0
176
     1
  0
VISUALSTYLE
  5
418
102
{ACAD_REACTORS
330
3A9
102
}
330
3A9
100
AcDbVisualStyle
  2
X-Ray
 70
    25
177
     2
291
     0
 71
     2
176
     1
 72
     2
176
     1
 73
     1
176
     1
 90
        1
176
     1
 40
0.5
176
     1
 41
30.0
176
     1
 63
     7
421
 16777215
176
     1
 74
     1
176
     1
 91
        0
176
     1
 64
     7
176
     1
 65
   257
176
     1
 75
     1
176
     1
175
     1
176
     1
 42
1.0
176
     1
 92
        8
176
     1
 66
     7
176
     1
 43
1.0
176
     1
 76
     1
176
     1
 77
     6
176
     1
 78
     2
176
     1
 67
     7
176
     1
 79
     3
176
     1
170
     0
176
     1
171
     0
176
     1
290
     0
176
     1
 93
       13
176
     1
 44
0.0
176
     1
173
     0
176
     1
  0
DICTIONARYVAR
  5
411
102
{ACAD_REACTORS
330
40E
102
}
330
40E
100
DictionaryVariables
280
     0
  1
1:1
  0
DICTIONARYVAR
  5
410
102
{ACAD_REACTORS
330
40E
102
}
330
40E
100
DictionaryVariables
280
     0
  1
STANDARD
  0
DICTIONARYVAR
  5
40F
102
{ACAD_REACTORS
330
40E
102
}
330
40E
100
DictionaryVariables
280
     0
  1
STANDARD
  0
DICTIONARY
  5
39A
330
399
100
AcDbDictionary
280
     1
281
     1
  3
BUMPTILE
360
39C
  3
DIFFUSETILE
360
39B
  3
OPACITYTILE
360
39F
  3
REFLECTIONTILE
360
39E
  3
REFRACTIONTILE
360
3A0
  3
SPECULARTILE
360
39D
  0
DICTIONARY
  5
392
330
391
100
AcDbDictionary
280
     1
281
     1
  3
BUMPTILE
360
394
  3
DIFFUSETILE
360
393
  3
OPACITYTILE
360
397
  3
REFLECTIONTILE
360
396
  3
REFRACTIONTILE
360
398
  3
SPECULARTILE
360
395
  0
DICTIONARY
  5
3A2
330
3A1
100
AcDbDictionary
280
     1
281
     1
  3
BUMPTILE
360
3A4
  3
DIFFUSETILE
360
3A3
  3
OPACITYTILE
360
3A7
  3
REFLECTIONTILE
360
3A6
  3
REFRACTIONTILE
360
3A8
  3
SPECULARTILE
360
3A5
  0
DICTIONARY
  5
3E4
330
3BF
100
AcDbDictionary
280
     1
281
     1
  3
ACAD_ROUNDTRIP_2008_TABLESTYLE_CELLSTYLEMAP
360
424
  0
XRECORD
  5
39C
102
{ACAD_REACTORS
330
39A
102
}
330
39A
100
AcDbXrecord
280
     1
270
     1
271
     1
  0
XRECORD
  5
39B
102
{ACAD_REACTORS
330
39A
102
}
330
39A
100
AcDbXrecord
280
     1
270
     1
271
     1
  0
XRECORD
  5
39F
102
{ACAD_REACTORS
330
39A
102
}
330
39A
100
AcDbXrecord
280
     1
270
     1
271
     1
  0
XRECORD
  5
39E
102
{ACAD_REACTORS
330
39A
102
}
330
39A
100
AcDbXrecord
280
     1
270
     1
271
     1
  0
XRECORD
  5
3A0
102
{ACAD_REACTORS
330
39A
102
}
330
39A
100
AcDbXrecord
280
     1
270
     1
271
     1
  0
XRECORD
  5
39D
102
{ACAD_REACTORS
330
39A
102
}
330
39A
100
AcDbXrecord
280
     1
270
     1
271
     1
  0
XRECORD
  5
394
102
{ACAD_REACTORS
330
392
102
}
330
392
100
AcDbXrecord
280
     1
270
     1
271
     1
  0
XRECORD
  5
393
102
{ACAD_REACTORS
330
392
102
}
330
392
100
AcDbXrecord
280
     1
270
     1
271
     1
  0
XRECORD
  5
397
102
{ACAD_REACTORS
330
392
102
}
330
392
100
AcDbXrecord
280
     1
270
     1
271
     1
  0
XRECORD
  5
396
102
{ACAD_REACTORS
330
392
102
}
330
392
100
AcDbXrecord
280
     1
270
     1
271
     1
  0
XRECORD
  5
398
102
{ACAD_REACTORS
330
392
102
}
330
392
100
AcDbXrecord
280
     1
270
     1
271
     1
  0
XRECORD
  5
395
102
{ACAD_REACTORS
330
392
102
}
330
392
100
AcDbXrecord
280
     1
270
     1
271
     1
  0
XRECORD
  5
3A4
102
{ACAD_REACTORS
330
3A2
102
}
330
3A2
100
AcDbXrecord
280
     1
270
     1
271
     1
  0
XRECORD
  5
3A3
102
{ACAD_REACTORS
330
3A2
102
}
330
3A2
100
AcDbXrecord
280
     1
270
     1
271
     1
  0
XRECORD
  5
3A7
102
{ACAD_REACTORS
330
3A2
102
}
330
3A2
100
AcDbXrecord
280
     1
270
     1
271
     1
  0
XRECORD
  5
3A6
102
{ACAD_REACTORS
330
3A2
102
}
330
3A2
100
AcDbXrecord
280
     1
270
     1
271
     1
  0
XRECORD
  5
3A8
102
{ACAD_REACTORS
330
3A2
102
}
330
3A2
100
AcDbXrecord
280
     1
270
     1
271
     1
  0
XRECORD
  5
3A5
102
{ACAD_REACTORS
330
3A2
102
}
330
3A2
100
AcDbXrecord
280
     1
270
     1
271
     1
  0
CELLSTYLEMAP
  5
424
102
{ACAD_REACTORS
330
3E4
102
}
330
3E4
100
AcDbCellStyleMap
 90
        3
300
CELLSTYLE
  1
TABLEFORMAT_BEGIN
 90
        5
170
     1
 91
        0
 92
    32768
 62
   257
 93
        1
300
CONTENTFORMAT
  1
CONTENTFORMAT_BEGIN
 90
        0
 91
        0
 92
      512
 93
        0
300

 40
0.0
140
1.0
 94
        5
 62
     0
340
11
144
0.25
309
CONTENTFORMAT_END
171
     0
 94
        0
309
TABLEFORMAT_END
  1
CELLSTYLE_BEGIN
 90
        1
 91
        1
300
_TITLE
309
CELLSTYLE_END
300
CELLSTYLE
  1
TABLEFORMAT_BEGIN
 90
        5
170
     1
 91
        0
 92
        0
 62
   257
 93
        1
300
CONTENTFORMAT
  1
CONTENTFORMAT_BEGIN
 90
        0
 91
        0
 92
      512
 93
        0
300

 40
0.0
140
1.0
 94
        5
 62
     0
340
11
144
0.18
309
CONTENTFORMAT_END
171
     0
 94
        0
309
TABLEFORMAT_END
  1
CELLSTYLE_BEGIN
 90
        2
 91
        1
300
_HEADER
309
CELLSTYLE_END
300
CELLSTYLE
  1
TABLEFORMAT_BEGIN
 90
        5
170
     1
 91
        0
 92
        0
 62
   257
 93
        1
300
CONTENTFORMAT
  1
CONTENTFORMAT_BEGIN
 90
        0
 91
        0
 92
      512
 93
        0
300

 40
0.0
140
1.0
 94
        2
 62
     0
340
11
144
0.18
309
CONTENTFORMAT_END
171
     0
 94
        0
309
TABLEFORMAT_END
  1
CELLSTYLE_BEGIN
 90
        3
 91
        2
300
_DATA
309
CELLSTYLE_END
  0
ENDSEC
  0
EOF
