  0
SECTION
  2
HEADER
  9
$ACADVER
  1
AC1009
  9
$INSBASE
 10
92.835077803528151
 20
-45.848804677307612
 30
0.0
  9
$EXTMIN
 10
90.578827803527389
 20
-45.86294773702479
 30
0.0
  9
$EXTMAX
 10
96.246825915427365
 20
26.37319532269235
 30
0.0
  9
$LIMMIN
 10
0.0
 20
0.0
  9
$LIMMAX
 10
11.692913385800001
 20
8.2677165353999982
  9
$ORTHOMODE
 70
     0
  9
$REGENMODE
 70
     1
  9
$FILLMODE
 70
     1
  9
$QTEXTMODE
 70
     0
  9
$MIRRTEXT
 70
     0
  9
$DRAGMODE
 70
     2
  9
$LTSCALE
 40
0.6431102362
  9
$OSMODE
 70
  3071
  9
$ATTMODE
 70
     1
  9
$TEXTSIZE
 40
0.2
  9
$TRACEWID
 40
0.05
  9
$TEXTSTYLE
  7
STANDARD
  9
$CLAYER
  8
0
  9
$CELTYPE
  6
BYLAYER
  9
$CECOLOR
 62
   256
  9
$DIMSCALE
 40
1.0
  9
$DIMASZ
 40
0.1875
  9
$DIMEXO
 40
0.0625
  9
$DIMDLI
 40
0.4443307087
  9
$DIMRND
 40
0.0
  9
$DIMDLE
 40
0.0
  9
$DIMEXE
 40
0.125
  9
$DIMTP
 40
0.01
  9
$DIMTM
 40
0.01
  9
$DIMTXT
 40
1.0
  9
$DIMCEN
 40
0.1052362205
  9
$DIMTSZ
 40
0.0
  9
$DIMTOL
 70
     1
  9
$DIMLIM
 70
     0
  9
$DIMTIH
 70
     1
  9
$DIMTOH
 70
     1
  9
$DIMSE1
 70
     0
  9
$DIMSE2
 70
     0
  9
$DIMTAD
 70
     0
  9
$DIMZIN
 70
     0
  9
$DIMBLK
  1

  9
$DIMASO
 70
     1
  9
$DIMSHO
 70
     1
  9
$DIMPOST
  1
\X
  9
$DIMAPOST
  1

  9
$DIMALT
 70
     1
  9
$DIMALTD
 70
     2
  9
$DIMALTF
 40
25.399999999999999
  9
$DIMLFAC
 40
1.0
  9
$DIMTOFL
 70
     0
  9
$DIMTVP
 40
0.0
  9
$DIMTIX
 70
     0
  9
$DIMSOXD
 70
     0
  9
$DIMSAH
 70
     0
  9
$DIMBLK1
  1

  9
$DIMBLK2
  1

  9
$DIMSTYLE
  2
STANDARD
  9
$DIMCLRD
 70
     0
  9
$DIMCLRE
 70
     0
  9
$DIMCLRT
 70
     0
  9
$DIMTFAC
 40
1.0
  9
$DIMGAP
 40
0.09
  9
$LUNITS
 70
     2
  9
$LUPREC
 70
     4
  9
$SKETCHINC
 40
0.1
  9
$FILLETRAD
 40
0.0
  9
$AUNITS
 70
     0
  9
$AUPREC
 70
     0
  9
$MENU
  1
.
  9
$ELEVATION
 40
0.0
  9
$PELEVATION
 40
0.0
  9
$THICKNESS
 40
0.0
  9
$LIMCHECK
 70
     0
  9
$BLIPMODE
 70
     0
  9
$CHAMFERA
 40
0.0
  9
$CHAMFERB
 40
0.0
  9
$SKPOLY
 70
     0
  9
$TDCREATE
 40
2457893.414510868
  9
$TDUPDATE
 40
2458013.5339119332
  9
$TDINDWG
 40
0.8203720023
  9
$TDUSRTIMER
 40
0.8203720023
  9
$USRTIMER
 70
     1
  9
$ANGBASE
 50
0.0
  9
$ANGDIR
 70
     0
  9
$PDMODE
 70
     0
  9
$PDSIZE
 40
0.3125
  9
$PLINEWID
 40
0.0
  9
$COORDS
 70
     1
  9
$SPLFRAME
 70
     0
  9
$SPLINETYPE
 70
     6
  9
$SPLINESEGS
 70
     8
  9
$ATTDIA
 70
     1
  9
$ATTREQ
 70
     1
  9
$HANDLING
 70
     1
  9
$HANDSEED
  5
1A92
  9
$SURFTAB1
 70
     6
  9
$SURFTAB2
 70
     6
  9
$SURFTYPE
 70
     6
  9
$SURFU
 70
     6
  9
$SURFV
 70
     6
  9
$UCSNAME
  2

  9
$UCSORG
 10
0.0
 20
0.0
 30
0.0
  9
$UCSXDIR
 10
1.0
 20
0.0
 30
0.0
  9
$UCSYDIR
 10
0.0
 20
1.0
 30
0.0
  9
$PUCSNAME
  2

  9
$PUCSORG
 10
0.0
 20
0.0
 30
0.0
  9
$PUCSXDIR
 10
1.0
 20
0.0
 30
0.0
  9
$PUCSYDIR
 10
0.0
 20
1.0
 30
0.0
  9
$USERI1
 70
     0
  9
$USERI2
 70
     0
  9
$USERI3
 70
     0
  9
$USERI4
 70
     0
  9
$USERI5
 70
     0
  9
$USERR1
 40
0.0
  9
$USERR2
 40
0.0
  9
$USERR3
 40
0.0
  9
$USERR4
 40
0.0
  9
$USERR5
 40
0.0
  9
$WORLDVIEW
 70
     1
  9
$SHADEDGE
 70
     3
  9
$SHADEDIF
 70
    70
  9
$TILEMODE
 70
     1
  9
$MAXACTVP
 70
    48
  9
$PLIMCHECK
 70
     0
  9
$PEXTMIN
 10
1.0000000000000000E+020
 20
1.0000000000000000E+020
 30
1.0000000000000000E+020
  9
$PEXTMAX
 10
-1.0000000000000000E+020
 20
-1.0000000000000000E+020
 30
-1.0000000000000000E+020
  9
$PLIMMIN
 10
0.0
 20
0.0
  9
$PLIMMAX
 10
12.0
 20
9.0
  9
$UNITMODE
 70
     0
  9
$VISRETAIN
 70
     1
  9
$PLINEGEN
 70
     0
  9
$PSLTSCALE
 70
     1
  0
ENDSEC
  0
SECTION
  2
TABLES
  0
TABLE
  2
VPORT
 70
     1
  0
VPORT
  2
*ACTIVE
 70
     0
 10
0.0
 20
0.0
 11
1.0
 21
1.0
 12
-0.0011523003795304
 22
-0.0070713616706612
 13
0.0
 23
0.0
 14
1.0
 24
1.0
 15
0.0
 25
0.0
 16
-0.0000000000000426
 26
0.0
 36
208.74732030870749
 17
93.412826859477363
 27
-9.7378046773076576
 37
0.0
 40
72.768497572848574
 41
2.3109756097560972
 42
50.0
 43
0.0
 44
0.0
 50
0.0
 51
0.0
 71
     0
 72
   100
 73
     1
 74
     1
 75
     0
 76
     0
 77
     0
 78
     0
  0
ENDTAB
  0
TABLE
  2
LTYPE
 70
     2
  0
LTYPE
  2
CONTINUOUS
 70
     0
  3
Solid line
 72
    65
 73
     0
 40
0.0
  0
LTYPE
  2
PHANTOM2
 70
     0
  3
___ _ _ ___ _ _ ___ _ _ ___ _ _
 72
    65
 73
     6
 40
1.25
 49
0.625
 49
-0.125
 49
0.125
 49
-0.125
 49
0.125
 49
-0.125
  0
ENDTAB
  0
TABLE
  2
LAYER
 70
     2
  0
LAYER
  2
0
 70
     0
 62
     7
  6
CONTINUOUS
  0
LAYER
  2
DEFPOINTS
 70
     0
 62
     7
  6
CONTINUOUS
  0
ENDTAB
  0
TABLE
  2
STYLE
 70
     1
  0
STYLE
  2
STANDARD
 70
     0
 40
0.0
 41
0.8
 50
0.0
 71
     0
 42
0.2
  3
txt
  4

  0
ENDTAB
  0
TABLE
  2
VIEW
 70
     0
  0
ENDTAB
  0
TABLE
  2
UCS
 70
     0
  0
ENDTAB
  0
TABLE
  2
APPID
 70
     7
  0
APPID
  2
ACAD
 70
     0
  0
APPID
  2
ACAD_MLEADERVER
 70
     0
  0
APPID
  2
ACAD_NAV_VCDISPLAY
 70
     0
  0
APPID
  2
ACAD_EXEMPT_FROM_CAD_STANDARDS
 70
     0
  0
APPID
  2
ACAD_DSTYLE_DIMJAG
 70
     0
  0
APPID
  2
ACAD_DSTYLE_DIMTALN
 70
     0
  0
APPID
  2
ACDBATTR
 70
     0
  0
ENDTAB
  0
TABLE
  2
DIMSTYLE
 70
     2
  0
DIMSTYLE
  2
STANDARD
 70
     0
  3

  4

  5

  6

  7

 40
1.0
 41
0.1875
 42
0.0625
 43
0.38
 44
0.125
 45
0.0
 46
0.0
 47
0.01
 48
0.01
140
0.15625
141
0.09
142
0.0
143
25.399999999999999
144
1.0
145
0.0
146
1.0
147
0.09
 71
     1
 72
     0
 73
     1
 74
     1
 75
     0
 76
     0
 77
     0
 78
     4
170
     0
171
     2
172
     0
173
     0
174
     0
175
     0
176
     0
177
     0
178
     0
  0
ENDTAB
  0
ENDSEC
  0
SECTION
  2
BLOCKS
  0
BLOCK
  8
0
  2
$MODEL_SPACE
 70
     0
 10
0.0
 20
0.0
 30
0.0
  3
$MODEL_SPACE
  1

  0
ENDBLK
  5
21
  8
0
  0
BLOCK
 67
     1
  8
0
  2
$PAPER_SPACE
 70
     0
 10
0.0
 20
0.0
 30
0.0
  3
$PAPER_SPACE
  1

  0
ENDBLK
  5
1D
 67
     1
  8
0
  0
ENDSEC
  0
SECTION
  2
ENTITIES
  0
LINE
  5
1809
  8
0
 10
91.700327803527415
 20
26.37319532269235
 30
0.0
 11
92.700327803527415
 21
26.37319532269235
 31
0.0
  0
LINE
  5
180A
  8
0
 10
92.700327803527415
 20
26.37319532269235
 30
0.0
 11
92.700327803527415
 21
24.479564376492348
 31
0.0
  0
LINE
  5
180B
  8
0
 10
92.700327803527415
 20
24.479564376492348
 30
0.0
 11
92.685327803527414
 21
24.45956437649237
 31
0.0
  0
LINE
  5
180C
  8
0
 10
92.685327803527414
 20
24.45956437649237
 30
0.0
 11
91.715327803527387
 21
24.45956437649237
 31
0.0
  0
LINE
  5
180D
  8
0
 10
91.715327803527387
 20
24.45956437649237
 30
0.0
 11
91.700327803527415
 21
24.474564376492349
 31
0.0
  0
LINE
  5
180E
  8
0
 10
91.700327803527415
 20
24.474564376492349
 30
0.0
 11
91.700327803527415
 21
26.37319532269235
 31
0.0
  0
LINE
  5
180F
  8
0
 10
91.700327803527415
 20
25.473195322692352
 30
0.0
 11
92.700327803527415
 21
25.473195322692352
 31
0.0
  0
LINE
  5
1810
  8
0
 10
91.700327803527415
 20
25.339564376492358
 30
0.0
 11
92.948827803527394
 21
25.339564376492358
 31
0.0
  0
LINE
  5
1811
  8
0
 10
92.387827803527415
 20
25.473195322692352
 30
0.0
 11
92.387827803527415
 21
25.339564376492358
 31
0.0
  0
LINE
  5
1812
  8
0
 10
92.012827803527415
 20
25.473195322692352
 30
0.0
 11
92.012827803527415
 21
25.339564376492358
 31
0.0
  0
LINE
  5
1813
  8
0
 10
92.700327803527415
 20
24.479564376492348
 30
0.0
 11
92.948827803527379
 21
24.479564376492348
 31
0.0
  0
LINE
  5
1814
  8
0
 10
92.685327803527414
 20
24.45956437649237
 30
0.0
 11
92.686841040866284
 21
22.516195322692379
 31
0.0
  0
LINE
  5
1815
  8
0
 10
92.686827803527379
 20
22.53319532269235
 30
0.0
 11
92.441327803527415
 21
22.533004159945381
 31
0.0
  0
LINE
  5
1816
  8
0
 10
91.715327803527387
 20
24.45956437649237
 30
0.0
 11
91.713814566188475
 21
22.516195322692379
 31
0.0
  0
LINE
  5
1817
  8
0
 10
91.71382780352738
 20
22.53319532269235
 30
0.0
 11
91.958827803527385
 21
22.53319532269235
 31
0.0
  0
LINE
  5
1818
  8
0
 10
91.959327803527387
 20
24.45956437649237
 30
0.0
 11
91.959327803527387
 21
-2.17293562350764
 31
0.0
  0
LINE
  5
1819
  8
0
 10
91.959327803527387
 20
-16.962935623507651
 30
0.0
 11
91.959327803527387
 21
-43.59543562350764
 31
0.0
  0
LINE
  5
181A
  8
0
 10
92.441327803527415
 20
-43.59543562350764
 30
0.0
 11
92.441327803527415
 21
-16.960359980407642
 31
0.0
  0
LINE
  5
181B
  8
0
 10
92.441327803527415
 20
-16.172935623507641
 30
0.0
 11
92.441327803527415
 21
-2.9603599804076448
 31
0.0
  0
LINE
  5
181C
  8
0
 10
92.441327803527415
 20
-2.17293562350764
 30
0.0
 11
92.441327803527415
 21
24.45956437649237
 31
0.0
  0
LINE
  5
181D
  8
0
 10
92.486827803527405
 20
24.45956437649237
 30
0.0
 11
92.486827803527405
 21
22.516195322692379
 31
0.0
  0
LINE
  5
181E
  8
0
 10
91.913827803527397
 20
22.516195322692379
 30
0.0
 11
91.913827803527397
 21
24.45956437649237
 31
0.0
  0
LINE
  5
181F
  8
0
 10
91.959327803527387
 20
22.516195322692361
 30
0.0
 11
91.700327803527415
 21
22.516195322692361
 31
0.0
  0
LINE
  5
1820
  8
0
 10
91.700327803527415
 20
22.516195322692361
 30
0.0
 11
91.700327803527415
 21
-1.612935623507624
 31
0.0
  0
LINE
  5
1821
  8
0
 10
91.700327803527415
 20
-17.522935623507621
 30
0.0
 11
91.700327803527415
 21
-41.608804677307639
 31
0.0
  0
LINE
  5
1822
  8
0
 10
91.700327803527415
 20
-41.608804677307639
 30
0.0
 11
91.959327803527387
 21
-41.608804677307639
 31
0.0
  0
LINE
  5
1823
  8
0
 10
92.441327803527415
 20
22.516195322692361
 30
0.0
 11
92.700327803527415
 21
22.516195322692361
 31
0.0
  0
LINE
  5
1824
  8
0
 10
92.700327803527415
 20
22.516195322692361
 30
0.0
 11
92.700327803527387
 21
-2.1683945885095559
 31
0.0
  0
LINE
  5
1825
  8
0
 10
92.700327803527387
 20
-2.9674766585057308
 30
0.0
 11
92.700327803527387
 21
-16.16839458850956
 31
0.0
  0
LINE
  5
1826
  8
0
 10
92.700327803527387
 20
-16.967476658505731
 30
0.0
 11
92.700327803527415
 21
-41.608804677307639
 31
0.0
  0
LINE
  5
1827
  8
0
 10
92.700327803527415
 20
-41.608804677307639
 30
0.0
 11
92.441327803527415
 21
-41.608804677307639
 31
0.0
  0
LINE
  5
1828
  8
0
 10
91.71382780352738
 20
-41.608804677307639
 30
0.0
 11
91.71382780352738
 21
-43.59543562350764
 31
0.0
  0
LINE
  5
1829
  8
0
 10
91.715327803527387
 20
-43.59543562350764
 30
0.0
 11
91.700327803527415
 21
-43.610435623507641
 31
0.0
  0
LINE
  5
182A
  8
0
 10
91.700327803527415
 20
-43.610435623507641
 30
0.0
 11
91.700327803527415
 21
-45.453192182311632
 31
0.0
  0
ARC
  5
182B
  8
0
 10
91.727827803527362
 20
-45.828804677307623
 30
0.0
 40
0.0200000000000387
 50
270.0000000000814
 51
359.99999999993889
  0
LINE
  5
182C
  8
0
 10
91.727827803527376
 20
-45.848804677307648
 30
0.0
 11
91.712827803527404
 21
-45.848804677307669
 31
0.0
  0
ARC
  5
182D
  8
0
 10
91.712827803527347
 20
-45.828804677307687
 30
0.0
 40
0.0199999999999676
 50
179.99999999983709
 51
270.0000000000814
  0
LINE
  5
182E
  8
0
 10
91.692827803527393
 20
-45.828804677307637
 30
0.0
 11
91.692827803528417
 21
-45.468804677307652
 31
0.0
  0
ARC
  5
182F
  8
0
 10
91.712827803528484
 20
-45.468804677307702
 30
0.0
 40
0.0200000000000671
 50
90.000000003134744
 51
179.99999999985749
  0
LINE
  5
1830
  8
0
 10
91.712827803527404
 20
-45.448804677307642
 30
0.0
 11
92.687827803527398
 21
-45.448804677254287
 31
0.0
  0
ARC
  5
1831
  8
0
 10
92.687827803528506
 20
-45.468804677253189
 30
0.0
 40
0.0199999999989018
 50
359.99999984401541
 51
90.000000003134744
  0
LINE
  5
1832
  8
0
 10
92.707827803527408
 20
-45.468804677307652
 30
0.0
 11
92.707827802805966
 21
-45.733804677307639
 31
0.0
  0
ARC
  5
1833
  8
0
 10
92.727827802751506
 20
-45.733804677362087
 30
0.0
 40
0.0199999999455543
 50
179.99999984401779
 51
270.00000222274463
  0
LINE
  5
1834
  8
0
 10
92.727827803527404
 20
-45.753804677307649
 30
0.0
 11
92.76782780352741
 21
-45.75380467575588
 31
0.0
  0
ARC
  5
1835
  8
0
 10
92.767827802751498
 20
-45.733804674979993
 30
0.0
 40
0.0200000007758874
 50
270.00000222272428
 51
359.99999333176652
  0
LINE
  5
1836
  8
0
 10
92.787827803527406
 20
-45.533804677307643
 30
0.0
 11
92.787827803527406
 21
-45.558804677307648
 31
0.0
  0
LINE
  5
1837
  8
0
 10
92.787827803527406
 20
-45.588804677307643
 30
0.0
 11
92.787827803527406
 21
-45.613804677307641
 31
0.0
  0
LINE
  5
1838
  8
0
 10
92.787827803527406
 20
-45.643804677307642
 30
0.0
 11
92.787827803527406
 21
-45.668804677307641
 31
0.0
  0
LINE
  5
1839
  8
0
 10
92.787827803527406
 20
-45.698804677307642
 30
0.0
 11
92.787827803527406
 21
-45.733804677307639
 31
0.0
  0
ARC
  5
183A
  8
0
 10
92.787827803527406
 20
-45.628804677307642
 30
0.0
 40
0.015
 50
90.0
 51
270.0
  0
ARC
  5
183B
  8
0
 10
92.787827803527406
 20
-45.683804677307641
 30
0.0
 40
0.015
 50
90.0
 51
270.0
  0
ARC
  5
183C
  8
0
 10
92.787827803527406
 20
-45.573804677307642
 30
0.0
 40
0.015
 50
90.0
 51
270.0
  0
ARC
  5
183D
  8
0
 10
92.787827803527406
 20
-45.518804677307642
 30
0.0
 40
0.015
 50
90.0
 51
270.0
  0
LINE
  5
183E
  8
0
 10
91.747827803527414
 20
-45.828804677307623
 30
0.0
 11
91.747827803527414
 21
-45.733804677307639
 31
0.0
  0
ARC
  5
183F
  8
0
 10
91.76782780352741
 20
-45.733804677307653
 30
0.0
 40
0.0200000000000102
 50
90.000000000040714
 51
180.0000000000199
  0
LINE
  5
1840
  8
0
 10
91.76782780352741
 20
-45.713804677307643
 30
0.0
 11
91.827827803527413
 21
-45.7138046773076
 31
0.0
  0
ARC
  5
1841
  8
0
 10
91.827827803527413
 20
-45.733804677307567
 30
0.0
 40
0.0199999999999747
 50
359.99999999979639
 51
90.000000000020364
  0
LINE
  5
1842
  8
0
 10
91.847827803527395
 20
-45.733804677307639
 30
0.0
 11
91.847827803527167
 21
-45.798804677307643
 31
0.0
  0
ARC
  5
1843
  8
0
 10
91.87032780352726
 20
-45.796295187492419
 30
0.0
 40
0.0226395127848978
 50
186.3640615529209
 51
353.63593844707901
  0
LINE
  5
1844
  8
0
 10
91.89282780352741
 20
-45.798804677307643
 30
0.0
 11
91.892827803527013
 21
-45.688804677307637
 31
0.0
  0
ARC
  5
1845
  8
0
 10
91.872827803526945
 20
-45.688804677307708
 30
0.0
 40
0.0200000000000671
 50
0.0000000001962275
 51
89.999999998697248
  0
LINE
  5
1846
  8
0
 10
91.8728278035274
 20
-45.668804677307641
 30
0.0
 11
91.76782780352741
 21
-45.66880467730526
 31
0.0
  0
ARC
  5
1847
  8
0
 10
91.767827803527865
 20
-45.64880467730481
 30
0.0
 40
0.0200000000004437
 50
180.00000000810149
 51
269.99999999867691
  0
LINE
  5
1848
  8
0
 10
91.747827803527414
 20
-45.648804677307638
 30
0.0
 11
91.747827803509708
 21
-45.523804677307638
 31
0.0
  0
ARC
  5
1849
  8
0
 10
91.767827803506904
 20
-45.52380467730481
 30
0.0
 40
0.0199999999971823
 50
89.999999941294575
 51
180.00000000812511
  0
LINE
  5
184A
  8
0
 10
91.76782780352741
 20
-45.503804677307627
 30
0.0
 11
92.062327803527381
 21
-45.503804677609381
 31
0.0
  0
ARC
  5
184B
  8
0
 10
92.062327803506875
 20
-45.523804677629869
 30
0.0
 40
0.0200000000204881
 50
0.0000009231241907
 51
89.999999941294575
  0
LINE
  5
184C
  8
0
 10
92.082327803527392
 20
-45.523804677307638
 30
0.0
 11
92.082327806105241
 21
-45.683804677307641
 31
0.0
  0
ARC
  5
184D
  8
0
 10
92.102327806427496
 20
-45.68380467698541
 30
0.0
 40
0.0200000003222414
 50
180.00000092310461
 51
269.99999169188231
  0
LINE
  5
184E
  8
0
 10
92.102327803527402
 20
-45.703804677307652
 30
0.0
 11
92.112327803527393
 21
-45.703804678757692
 31
0.0
  0
ARC
  5
184F
  8
0
 10
92.112327806427487
 20
-45.683804681657769
 30
0.0
 40
0.0199999970999161
 50
269.99999169188391
 51
0.0000124621985591
  0
LINE
  5
1850
  8
0
 10
92.132327803527374
 20
-45.683804677307641
 30
0.0
 11
92.132327768726356
 21
-45.523804677307652
 31
0.0
  0
LINE
  5
1851
  8
0
 10
93.087797167626334
 20
-45.848804677307648
 30
0.0
 11
93.116598196726358
 21
-45.848804677307648
 31
0.0
  0
LINE
  5
1852
  8
0
 10
92.672827768726364
 20
-45.808804677307648
 30
0.0
 11
92.82282776872637
 21
-45.808804677307648
 31
0.0
  0
LINE
  5
1853
  8
0
 10
92.288327768726361
 20
-45.703804677307652
 30
0.0
 11
92.298327768726352
 21
-45.703804677307652
 31
0.0
  0
LINE
  5
1854
  8
0
 10
92.152327768726366
 20
-45.503804677307642
 30
0.0
 11
92.248327768726355
 21
-45.503804677307642
 31
0.0
  0
LINE
  5
1855
  8
0
 10
92.338327768726359
 20
-45.503804677307642
 30
0.0
 11
92.632827768726344
 21
-45.503804677307642
 31
0.0
  0
LINE
  5
1856
  8
0
 10
93.087797167626334
 20
-45.848804677307648
 30
0.0
 11
92.877273687126348
 21
-45.581708977107652
 31
0.0
  0
LINE
  5
1857
  8
0
 10
92.891906157926343
 20
-45.511424169007647
 30
0.0
 11
93.132305615806985
 21
-45.816424169005238
 31
0.0
  0
LINE
  5
1858
  8
0
 10
92.268327768726394
 20
-45.523804677307652
 30
0.0
 11
92.268327768726394
 21
-45.683804677307648
 31
0.0
  0
LINE
  5
1859
  8
0
 10
92.318327768726363
 20
-45.683804677307648
 30
0.0
 11
92.318327768726363
 21
-45.523804677307652
 31
0.0
  0
LINE
  5
185A
  8
0
 10
92.652827768726382
 20
-45.523804677307652
 30
0.0
 11
92.652827768726382
 21
-45.788804677307652
 31
0.0
  0
LINE
  5
185B
  8
0
 10
92.84282776872638
 20
-45.788804677307652
 30
0.0
 11
92.84282776872638
 21
-45.595689978607652
 31
0.0
  0
ARC
  5
185C
  8
0
 10
92.288327768726361
 20
-45.683804677307648
 30
0.0
 40
0.02
 50
180.0
 51
270.0
  0
ARC
  5
185D
  8
0
 10
92.298327768726352
 20
-45.683804677307648
 30
0.0
 40
0.02
 50
270.0
 51
0.0
  0
ARC
  5
185E
  8
0
 10
92.152327768726366
 20
-45.523804677307652
 30
0.0
 40
0.02
 50
90.0
 51
180.0
  0
ARC
  5
185F
  8
0
 10
92.248327768726355
 20
-45.523804677307652
 30
0.0
 40
0.02
 50
0.0
 51
90.0
  0
ARC
  5
1860
  8
0
 10
92.338327768726359
 20
-45.523804677307652
 30
0.0
 40
0.02
 50
90.0
 51
180.0
  0
ARC
  5
1861
  8
0
 10
92.672827768726364
 20
-45.788804677307652
 30
0.0
 40
0.02
 50
180.0
 51
270.0
  0
ARC
  5
1862
  8
0
 10
92.632827768726344
 20
-45.523804677307652
 30
0.0
 40
0.02
 50
0.0
 51
90.0
  0
ARC
  5
1863
  8
0
 10
92.82282776872637
 20
-45.788804677307652
 30
0.0
 40
0.02
 50
270.0
 51
0.0
  0
ARC
  5
1864
  8
0
 10
92.862827768726376
 20
-45.595689978607652
 30
0.0
 40
0.02
 50
38.244999999999592
 51
180.0
  0
ARC
  5
1865
  8
0
 10
92.876198738826361
 20
-45.523804677307652
 30
0.0
 40
0.02
 50
38.244999999899591
 51
89.999999999899856
  0
ARC
  5
1866
  8
0
 10
93.116598196726358
 20
-45.828804677307652
 30
0.0
 40
0.02
 50
270.00000000010021
 51
38.244999999899591
  0
ARC
  5
1867
  8
0
 10
92.712827803527404
 20
-45.521804677307649
 30
0.0
 40
0.0050000000000216
 50
180.19740068685229
 51
269.99999999967429
  0
ARC
  5
1868
  8
0
 10
92.712827803527347
 20
-45.531804677307662
 30
0.0
 40
0.0050000000000168
 50
0.0000000001628444
 51
89.999999999592887
  0
LINE
  5
1869
  8
0
 10
92.717827803527399
 20
-45.53180467730764
 30
0.0
 11
92.717827803527683
 21
-45.641804677307647
 31
0.0
  0
ARC
  5
186A
  8
0
 10
92.722827803527736
 20
-45.641804677307633
 30
0.0
 40
0.0050000000000239
 50
180.0
 51
269.99999999625459
  0
LINE
  5
186B
  8
0
 10
92.722827803527395
 20
-45.646804677307649
 30
0.0
 11
92.745091126127377
 21
-45.646804677309099
 31
0.0
  0
ARC
  5
186C
  8
0
 10
92.745091126127747
 20
-45.6418046774155
 30
0.0
 40
0.0049999998935988
 50
269.99999999618041
 51
324.55000099175078
  0
LINE
  5
186D
  8
0
 10
92.749164235927395
 20
-45.644704638707637
 30
0.0
 11
92.781203210126677
 21
-45.599704638143614
 31
0.0
  0
ARC
  5
186E
  8
0
 10
92.777130100507364
 20
-45.596804676979858
 30
0.0
 40
0.0049999996722305
 50
324.55000099166642
 51
89.999992894935176
  0
LINE
  5
186F
  8
0
 10
92.777130101127383
 20
-45.591804677307643
 30
0.0
 11
92.757366758727443
 21
-45.591804674856853
 31
0.0
  0
ARC
  5
1870
  8
0
 10
92.757366759347462
 20
-45.586804675329539
 30
0.0
 40
0.004999999527314
 50
149.4155791091417
 51
269.99999289490671
  0
LINE
  5
1871
  8
0
 10
92.753062357719486
 20
-45.584260638793189
 30
0.0
 11
92.781203210963611
 21
-45.544704638731893
 31
0.0
  0
ARC
  5
1872
  8
0
 10
92.777130101127369
 20
-45.541804677307638
 30
0.0
 40
0.0050000000000213
 50
324.55000000171373
 51
85.134444019852154
  0
LINE
  5
1873
  8
0
 10
92.777554190843617
 20
-45.536822694980032
 30
0.0
 11
92.75282780352741
 21
-45.53680467730765
 31
0.0
  0
ARC
  5
1874
  8
0
 10
92.752827803527424
 20
-45.53180467730764
 30
0.0
 40
0.0050000000000026
 50
180.0
 51
269.9999999998372
  0
LINE
  5
1875
  8
0
 10
92.7478278035274
 20
-45.53180467730764
 30
0.0
 11
92.7478278035274
 21
-45.519804677307661
 31
0.0
  0
ARC
  5
1876
  8
0
 10
92.76382780352742
 20
-45.519804677307668
 30
0.0
 40
0.0160000000000196
 50
90.000000000101778
 51
180.00000000002521
  0
LINE
  5
1877
  8
0
 10
92.763827803527377
 20
-45.503804677307642
 30
0.0
 11
93.257327803527403
 21
-45.503804677306761
 31
0.0
  0
ARC
  5
1878
  8
0
 10
93.257327803528867
 20
-45.487804677308191
 30
0.0
 40
0.0159999999985665
 50
269.99999999475801
 51
0.0000000020607959
  0
LINE
  5
1879
  8
0
 10
93.273327803527394
 20
-45.487804677307622
 30
0.0
 11
93.273327803527394
 21
-45.351804677307619
 31
0.0
  0
ARC
  5
187A
  8
0
 10
93.289327803527399
 20
-45.351804677307577
 30
0.0
 40
0.0159999999999769
 50
90.0
 51
180.00000000017789
  0
LINE
  5
187B
  8
0
 10
93.289327803527414
 20
-45.335804677307607
 30
0.0
 11
93.552327803527405
 21
-45.335804677307621
 31
0.0
  0
ARC
  5
187C
  8
0
 10
93.55232780352739
 20
-45.351804677307634
 30
0.0
 40
0.0160000000000196
 50
0.0000000000891573
 51
90.0
  0
LINE
  5
187D
  8
0
 10
93.56832780352741
 20
-45.351804677307619
 30
0.0
 11
93.568327799595352
 21
-45.777804675745898
 31
0.0
  0
ARC
  5
187E
  8
0
 10
93.552327808769945
 20
-45.777804686482177
 30
0.0
 40
0.0159999908254358
 50
269.99998122657382
 51
0.0000384465287051
  0
LINE
  5
187F
  8
0
 10
93.552327803527405
 20
-45.793804677307619
 30
0.0
 11
93.436827831877636
 21
-45.793804712819309
 31
0.0
  0
ARC
  5
1880
  8
0
 10
93.436827835809737
 20
-45.809804716751458
 30
0.0
 40
0.0160000039321422
 50
90.000014080743256
 51
179.99985875233929
  0
LINE
  5
1881
  8
0
 10
93.420827831877631
 20
-45.809804677307653
 30
0.0
 11
93.420827775177173
 21
-45.832804677307593
 31
0.0
  0
ARC
  5
1882
  8
0
 10
93.4368277357338
 20
-45.832804716751284
 30
0.0
 40
0.0159999605566614
 50
179.9998587523433
 51
270.00034429060071
  0
LINE
  5
1883
  8
0
 10
93.436827831877636
 20
-45.848804677307648
 30
0.0
 11
93.607327803523802
 21
-45.848803478414517
 31
0.0
  0
ARC
  5
1884
  8
0
 10
93.607327707379156
 20
-45.832803382214152
 30
0.0
 40
0.016000096200661
 50
270.00034429059087
 51
359.99536266223419
  0
LINE
  5
1885
  8
0
 10
93.623327803527403
 20
-45.832804677259269
 30
0.0
 11
93.623327803527403
 21
-45.214875745155958
 31
0.0
  0
LINE
  5
1886
  8
0
 10
93.614792269627415
 20
-45.21134021120762
 30
0.0
 11
93.550014095026498
 21
-45.276118385806477
 31
0.0
  0
ARC
  5
1887
  8
0
 10
93.538700386524695
 20
-45.264804677297207
 30
0.0
 40
0.0160000000092855
 50
270.00000000656428
 51
314.99999998109092
  0
LINE
  5
1888
  8
0
 10
93.538700386526529
 20
-45.280804677306477
 30
0.0
 11
93.302955220547275
 21
-45.280804677287598
 31
0.0
  0
ARC
  5
1889
  8
0
 10
93.302955220547275
 20
-45.264804677282712
 30
0.0
 40
0.0160000000048939
 50
225.0000000123963
 51
269.99999999999682
  0
LINE
  5
188A
  8
0
 10
93.291641512047292
 20
-45.276118385787598
 30
0.0
 11
93.226863337433272
 21
-45.211340211201609
 31
0.0
  0
ARC
  5
188B
  8
0
 10
93.223327803536037
 20
-45.214875745100372
 30
0.0
 40
0.0049999999887649
 50
45.000000012375573
 51
179.9999998537657
  0
LINE
  5
188C
  8
0
 10
93.218327803547268
 20
-45.21487574508761
 30
0.0
 11
93.218327803527416
 21
-45.432804677307608
 31
0.0
  0
ARC
  5
188D
  8
0
 10
93.202327803486568
 20
-45.43280467726678
 30
0.0
 40
0.0160000000408331
 50
270.00000200095059
 51
359.99999985376081
  0
LINE
  5
188E
  8
0
 10
93.202327804045339
 20
-45.448804677307614
 30
0.0
 11
92.723827803527399
 21
-45.448804693738992
 31
0.0
  0
ARC
  5
188F
  8
0
 10
92.723827804100125
 20
-45.46520469124934
 30
0.0
 40
0.0163999975103551
 50
90.00000200096359
 51
192.68033571878519
  0
LINE
  5
1890
  8
0
 10
92.686827803527379
 20
-41.608804677307639
 30
0.0
 11
92.686827803527379
 21
-43.59543562350764
 31
0.0
  0
LINE
  5
1891
  8
0
 10
92.685327803527414
 20
-43.59543562350764
 30
0.0
 11
92.700327803527415
 21
-43.610435623507641
 31
0.0
  0
LINE
  5
1892
  8
0
 10
92.700327803527415
 20
-43.610435623507641
 30
0.0
 11
92.700327803527415
 21
-45.453192182311653
 31
0.0
  0
LINE
  5
1893
  8
0
 10
92.700327803527415
 20
-44.548804677307643
 30
0.0
 11
91.700327803527415
 21
-44.548804677307643
 31
0.0
  0
LINE
  5
1894
  8
0
 10
91.700327803527415
 20
-44.475435623507643
 30
0.0
 11
92.948827903639227
 21
-44.475435623507643
 31
0.0
  0
LINE
  5
1895
  8
0
 10
92.387827803527415
 20
-44.475435623507643
 30
0.0
 11
92.387827803527415
 21
-44.548804677307643
 31
0.0
  0
LINE
  5
1896
  8
0
 10
92.012827803527415
 20
-44.475435623507643
 30
0.0
 11
92.012827803527415
 21
-44.548804677307643
 31
0.0
  0
LINE
  5
1897
  8
0
 10
91.71382780352738
 20
-43.59543562350764
 30
0.0
 11
92.686827803527379
 21
-43.59543562350764
 31
0.0
  0
LINE
  5
1898
  8
0
 10
92.486827803527405
 20
-41.608804677307639
 30
0.0
 11
92.486827803527405
 21
-43.59543562350764
 31
0.0
  0
LINE
  5
1899
  8
0
 10
91.913827803527397
 20
-43.59543562350764
 30
0.0
 11
91.913827803527397
 21
-41.608804677307639
 31
0.0
  0
LINE
  5
189A
  8
0
 10
92.700327803527415
 20
-43.615435623507643
 30
0.0
 11
92.948827803527394
 21
-43.615435623507651
 31
0.0
  0
LINE
  5
189B
  8
0
 10
92.700327803527415
 20
-45.418804677307648
 30
0.0
 11
92.948827936584635
 21
-45.418804677307648
 31
0.0
  0
LINE
  5
189C
  8
0
 10
92.948827937632345
 20
-45.448804685881271
 30
0.0
 11
92.948827803527394
 21
-41.608804677307639
 31
0.0
  0
LINE
  5
189D
  8
0
 10
92.948827803527394
 20
-41.608804677307639
 30
0.0
 11
93.887827803527415
 21
-41.608804677307639
 31
0.0
  0
LINE
  5
189E
  8
0
 10
93.887827803527415
 20
-41.608804677307639
 30
0.0
 11
93.887827803527415
 21
-45.418804677307648
 31
0.0
  0
LINE
  5
189F
  8
0
 10
93.887827803527415
 20
-45.418804677307648
 30
0.0
 11
93.687827803527426
 21
-45.418804677307627
 31
0.0
  0
LINE
  5
18A0
  8
0
 10
93.687827803527426
 20
-45.418804677307627
 30
0.0
 11
93.687827803527426
 21
-45.198804677307642
 31
0.0
  0
LINE
  5
18A1
  8
0
 10
93.148827803527411
 20
-45.448804677307621
 30
0.0
 11
93.148827803527411
 21
-45.24380467589323
 31
0.0
  0
ARC
  5
18A2
  8
0
 10
93.193827803527427
 20
-45.24380467589323
 30
0.0
 40
0.0450000000000017
 50
90.0
 51
180.0
  0
LINE
  5
18A3
  8
0
 10
93.193827803527427
 20
-45.198804675893228
 30
0.0
 11
93.748827803527405
 21
-45.198804677307642
 31
0.0
  0
LINE
  5
18A4
  8
0
 10
93.748827803527405
 20
-45.198804677307642
 30
0.0
 11
93.748827803527405
 21
-41.608804677307639
 31
0.0
  0
LINE
  5
18A5
  8
0
 10
93.887827803527415
 20
-43.545435623507643
 30
0.0
 11
93.967327803527397
 21
-43.545435623507643
 31
0.0
  0
ARC
  5
18A6
  8
0
 10
93.967327803527397
 20
-43.555435623507648
 30
0.0
 40
0.0100000000000051
 50
0.0000000000203555
 51
90.0
  0
LINE
  5
18A7
  8
0
 10
93.977327803527402
 20
-43.555435623507648
 30
0.0
 11
93.977327803528027
 21
-45.360435623507641
 31
0.0
  0
LINE
  5
18A8
  8
0
 10
93.977327803528027
 20
-45.360435623507641
 30
0.0
 11
93.887827803527415
 21
-45.360435623507641
 31
0.0
  0
LINE
  5
18A9
  8
0
 10
93.538827803527411
 20
-44.818804677307639
 30
0.0
 11
93.158827803527416
 21
-44.818804677307639
 31
0.0
  0
LINE
  5
18AA
  8
0
 10
93.498827803527405
 20
-44.618804677307637
 30
0.0
 11
93.393827803427413
 21
-44.618804677307637
 31
0.0
  0
LINE
  5
18AB
  8
0
 10
93.393827803527415
 20
-44.438804677307637
 30
0.0
 11
93.498827803627407
 21
-44.438804677307637
 31
0.0
  0
LINE
  5
18AC
  8
0
 10
93.498827803527405
 20
-42.618804677307637
 30
0.0
 11
93.393827803427413
 21
-42.618804677307637
 31
0.0
  0
LINE
  5
18AD
  8
0
 10
93.393827803527415
 20
-42.438804677307637
 30
0.0
 11
93.498827803627407
 21
-42.438804677307637
 31
0.0
  0
LINE
  5
18AE
  8
0
 10
93.158827803527416
 20
-41.988804677307641
 30
0.0
 11
93.538827803527411
 21
-41.988804677307641
 31
0.0
  0
LINE
  5
18AF
  8
0
 10
92.998827803527419
 20
-44.658804677307643
 30
0.0
 11
92.998827803527419
 21
-42.148804677307638
 31
0.0
  0
LINE
  5
18B0
  8
0
 10
93.698827803527408
 20
-42.148804677307638
 30
0.0
 11
93.698827803527408
 21
-44.658804677307643
 31
0.0
  0
ARC
  5
18B1
  8
0
 10
93.158827803527416
 20
-44.658804677307643
 30
0.0
 40
0.16
 50
180.0
 51
270.0
  0
ARC
  5
18B2
  8
0
 10
93.393827803527415
 20
-44.52880467730764
 30
0.0
 40
0.09
 50
90.0
 51
270.0
  0
ARC
  5
18B3
  8
0
 10
93.158827803527416
 20
-42.148804677307638
 30
0.0
 40
0.16
 50
90.0
 51
180.0
  0
ARC
  5
18B4
  8
0
 10
93.393827803527415
 20
-42.52880467730764
 30
0.0
 40
0.09
 50
90.0
 51
270.0
  0
ARC
  5
18B5
  8
0
 10
93.538827803527411
 20
-44.658804677307643
 30
0.0
 40
0.16
 50
270.0
 51
0.0
  0
ARC
  5
18B6
  8
0
 10
93.538827803527411
 20
-42.148804677307638
 30
0.0
 40
0.16
 50
0.0
 51
90.0
  0
ARC
  5
18B7
  8
0
 10
93.498827803527405
 20
-42.52880467730764
 30
0.0
 40
0.09
 50
270.0
 51
90.0
  0
ARC
  5
18B8
  8
0
 10
93.498827803527405
 20
-44.52880467730764
 30
0.0
 40
0.09
 50
270.0
 51
90.0
  0
LINE
  5
18B9
  8
0
 10
93.76782780352741
 20
-45.418804677307627
 30
0.0
 11
93.76782780352741
 21
-41.608804677307631
 31
0.0
  0
LINE
  5
18BA
  8
0
 10
93.858327803527416
 20
-41.608804677307631
 30
0.0
 11
93.858327803527416
 21
22.516195322692361
 31
0.0
  0
LINE
  5
18BB
  8
0
 10
92.983327803527374
 20
22.516195322692361
 30
0.0
 11
92.983327803527402
 21
-41.608804677307639
 31
0.0
  0
LINE
  5
18BC
  8
0
 10
92.948827803527394
 20
22.516195322692361
 30
0.0
 11
93.887827803527415
 21
22.516195322692361
 31
0.0
  0
LINE
  5
18BD
  8
0
 10
93.887827803527415
 20
22.516195322692361
 30
0.0
 11
93.887827803527415
 21
26.32619532269236
 31
0.0
  0
LINE
  5
18BE
  8
0
 10
93.887827803527415
 20
26.32619532269236
 30
0.0
 11
93.687827803527398
 21
26.32619532269236
 31
0.0
  0
LINE
  5
18BF
  8
0
 10
92.948827803527394
 20
26.356195322692361
 30
0.0
 11
93.148827803527411
 21
26.356195322692361
 31
0.0
  0
LINE
  5
18C0
  8
0
 10
92.948827803527394
 20
22.516195322692361
 30
0.0
 11
92.948827803527394
 21
26.356195322692361
 31
0.0
  0
LINE
  5
18C1
  8
0
 10
93.887827803527387
 20
26.224564376492381
 30
0.0
 11
93.977327803527402
 21
26.224564376492381
 31
0.0
  0
LINE
  5
18C2
  8
0
 10
93.977327803527402
 20
26.224564376492381
 30
0.0
 11
93.977327803527402
 21
24.419564376492371
 31
0.0
  0
ARC
  5
18C3
  8
0
 10
93.967327803527397
 20
24.419564376492371
 30
0.0
 40
0.0100000000000051
 50
270.0
 51
0.0000000000407111
  0
LINE
  5
18C4
  8
0
 10
93.967327803527397
 20
24.40956437649238
 30
0.0
 11
93.887827803527387
 21
24.40956437649238
 31
0.0
  0
LINE
  5
18C5
  8
0
 10
92.99882780352749
 20
23.056195322692378
 30
0.0
 11
92.99882780352749
 21
25.576195322692389
 31
0.0
  0
LINE
  5
18C6
  8
0
 10
93.698827803527365
 20
25.566195322692401
 30
0.0
 11
93.698827803527394
 21
23.056195322692378
 31
0.0
  0
LINE
  5
18C7
  8
0
 10
93.538827803527397
 20
22.896195322692378
 30
0.0
 11
93.158827803527515
 21
22.896195322692378
 31
0.0
  0
LINE
  5
18C8
  8
0
 10
93.393827803527387
 20
23.34619532269237
 30
0.0
 11
93.498827803527405
 21
23.34619532269237
 31
0.0
  0
LINE
  5
18C9
  8
0
 10
93.498827803527405
 20
23.526195322692349
 30
0.0
 11
93.393827803527387
 21
23.526195322692349
 31
0.0
  0
LINE
  5
18CA
  8
0
 10
93.158827803527515
 20
25.726195322692391
 30
0.0
 11
93.538827803527397
 21
25.726195322692391
 31
0.0
  0
ARC
  5
18CB
  8
0
 10
93.158827803527515
 20
23.056195322692378
 30
0.0
 40
0.16
 50
180.0
 51
270.0
  0
ARC
  5
18CC
  8
0
 10
93.142990139080297
 20
25.582755498102738
 30
0.0
 40
0.1443115203074581
 50
83.699305298762894
 51
182.60547416924149
  0
ARC
  5
18CD
  8
0
 10
93.393827803527387
 20
23.436195322692338
 30
0.0
 40
0.09
 50
90.0
 51
270.0
  0
ARC
  5
18CE
  8
0
 10
93.538827803527425
 20
23.056195322692339
 30
0.0
 40
0.1599999999999682
 50
269.99999999998943
 51
0.0000000000048853
  0
ARC
  5
18CF
  8
0
 10
93.53882780352744
 20
25.566195322692408
 30
0.0
 40
0.159999999999954
 50
359.99999999999233
 51
90.0
  0
ARC
  5
18D0
  8
0
 10
93.498827803527405
 20
23.436195322692338
 30
0.0
 40
0.09
 50
270.0
 51
90.0
  0
LINE
  5
18D1
  8
0
 10
93.393827803527387
 20
25.34619532269237
 30
0.0
 11
93.498827803527405
 21
25.34619532269237
 31
0.0
  0
LINE
  5
18D2
  8
0
 10
93.498827803527405
 20
25.526195322692349
 30
0.0
 11
93.393827803527387
 21
25.526195322692349
 31
0.0
  0
ARC
  5
18D3
  8
0
 10
93.393827803527387
 20
25.436195322692338
 30
0.0
 40
0.09
 50
90.0
 51
270.0
  0
ARC
  5
18D4
  8
0
 10
93.498827803527405
 20
25.436195322692338
 30
0.0
 40
0.09
 50
270.0
 51
90.0
  0
LINE
  5
18D5
  8
0
 10
93.858327803527416
 20
-1.567935623507644
 30
0.0
 11
93.877327803527379
 21
-1.567935623507636
 31
0.0
  0
LINE
  5
18D6
  8
0
 10
93.877327803527379
 20
-1.567935623507636
 30
0.0
 11
93.877327803527379
 21
-3.567935623507636
 31
0.0
  0
LINE
  5
18D7
  8
0
 10
93.877327803527379
 20
-3.567935623507636
 30
0.0
 11
93.858327803527416
 21
-3.567935623507636
 31
0.0
  0
ARC
  5
18D8
  8
0
 10
94.177361969585746
 20
-3.2629497755523849
 30
0.0
 40
0.3000341663921156
 50
89.338202069659971
 51
179.99729746633409
  0
ARC
  5
18D9
  8
0
 10
94.317329812562747
 20
-3.274216217014696
 30
0.0
 40
0.3398948396972677
 50
66.353964015349405
 51
113.6783493256778
  0
LINE
  5
18DA
  8
0
 10
94.453656596177396
 20
-2.9628586892076352
 30
0.0
 11
95.007827803527405
 21
-2.9629356235076179
 31
0.0
  0
LINE
  5
18DB
  8
0
 10
95.007827803527405
 20
-2.9629356235076179
 30
0.0
 11
95.007827803527405
 21
-16.172935623507652
 31
0.0
  0
LINE
  5
18DC
  8
0
 10
95.007827803527405
 20
-16.172935623507652
 30
0.0
 11
94.17732780352739
 21
-16.172935623507652
 31
0.0
  0
ARC
  5
18DD
  8
0
 10
94.17732780352739
 20
-15.872935623507651
 30
0.0
 40
0.2999999999999971
 50
179.9999999999996
 51
270.0
  0
ARC
  5
18DE
  8
0
 10
94.17732780352739
 20
-1.8729356235076431
 30
0.0
 40
0.2999999999999971
 50
180.0
 51
270.0
  0
LINE
  5
18DF
  8
0
 10
94.17732780352739
 20
-2.17293562350764
 30
0.0
 11
95.007827803527405
 21
-2.17293562350764
 31
0.0
  0
LINE
  5
18E0
  8
0
 10
95.007827803527405
 20
-2.17293562350764
 30
0.0
 11
95.007827803527405
 21
-1.612935623507624
 31
0.0
  0
ARC
  5
18E1
  8
0
 10
95.172354514538171
 20
-1.5974640497076391
 30
0.0
 40
0.0200267110107859
 50
87.040446066904934
 51
179.99999999999019
  0
LINE
  5
18E2
  8
0
 10
95.173388513527385
 20
-1.5774640497076431
 30
0.0
 11
96.082327803527363
 21
-1.5774640497076431
 31
0.0
  0
ARC
  5
18E3
  8
0
 10
96.082327803527363
 20
-1.5974640497077099
 30
0.0
 40
0.0200000000000724
 50
0.0000000002186186
 51
89.999999999877872
  0
LINE
  5
18E4
  8
0
 10
96.246825915427365
 20
-1.6129356235075529
 30
0.0
 11
96.246825915427365
 21
-17.522935623507621
 31
0.0
  0
ARC
  5
18E5
  8
0
 10
96.082283773037915
 20
-17.538388959281729
 30
0.0
 40
0.020044038786858
 50
267.09257937530691
 51
359.9478666915835
  0
LINE
  5
18E6
  8
0
 10
96.081267093527401
 20
-17.558407197307641
 30
0.0
 11
95.172445700927398
 21
-17.558407197307641
 31
0.0
  0
ARC
  5
18E7
  8
0
 10
95.172328390828255
 20
-17.538406954039669
 30
0.0
 40
0.0200005873023138
 50
180.00069689094261
 51
270.33606073727702
  0
LINE
  5
18E8
  8
0
 10
95.007827803527405
 20
-17.522935623507621
 30
0.0
 11
95.007827803527405
 21
-16.962935623507619
 31
0.0
  0
LINE
  5
18E9
  8
0
 10
95.007827803527405
 20
-16.962935623507619
 30
0.0
 11
94.453828153027388
 21
-16.962935623507651
 31
0.0
  0
ARC
  5
18EA
  8
0
 10
94.317327803027268
 20
-17.27389227379075
 30
0.0
 40
0.3395973850096485
 50
66.300011767174254
 51
113.69998823282759
  0
ARC
  5
18EB
  8
0
 10
94.177363402772215
 20
-17.262951225457719
 30
0.0
 40
0.3000355996504997
 50
89.338478935412496
 51
179.9970206005795
  0
LINE
  5
18EC
  8
0
 10
94.428050389420349
 20
-16.952851944910069
 30
0.0
 11
94.4173278035274
 21
-16.960359980407642
 31
0.0
  0
LINE
  5
18ED
  8
0
 10
94.4173278035274
 20
-16.960359980407642
 30
0.0
 11
94.217327803527411
 21
-16.960359980407642
 31
0.0
  0
LINE
  5
18EE
  8
0
 10
94.217327803527411
 20
-16.960359980407642
 30
0.0
 11
94.206605217339899
 21
-16.952851944666669
 31
0.0
  0
LINE
  5
18EF
  8
0
 10
95.007827803527391
 20
-1.6129356235076451
 30
0.0
 11
96.246825915427365
 21
-1.612935623507638
 31
0.0
  0
LINE
  5
18F0
  8
0
 10
96.246825915427365
 20
-17.522935623507621
 30
0.0
 11
95.007829691727409
 21
-17.522935623507621
 31
0.0
  0
LINE
  5
18F1
  8
0
 10
94.206614792446373
 20
-2.9528586492285021
 30
0.0
 11
94.217327803527411
 21
-2.9603599804076448
 31
0.0
  0
LINE
  5
18F2
  8
0
 10
94.217327803527411
 20
-2.9603599804076448
 30
0.0
 11
94.4173278035274
 21
-2.9603599804076448
 31
0.0
  0
LINE
  5
18F3
  8
0
 10
94.4173278035274
 20
-2.9603599804076448
 30
0.0
 11
94.428042139679079
 21
-2.95285772144112
 31
0.0
  0
LINE
  5
18F4
  8
0
 10
92.983327803527402
 20
-1.567935623507644
 30
0.0
 11
92.948327803527405
 21
-1.567935623507636
 31
0.0
  0
LINE
  5
18F5
  8
0
 10
92.948327803527405
 20
-1.567935623507636
 30
0.0
 11
92.948327803527405
 21
-3.567935623507636
 31
0.0
  0
LINE
  5
18F6
  8
0
 10
92.948327803527405
 20
-3.567935623507636
 30
0.0
 11
92.983327803527402
 21
-3.567935623507636
 31
0.0
  0
ARC
  5
18F7
  8
0
 10
92.648293637469024
 20
-3.2629497755523849
 30
0.0
 40
0.3000341663921156
 50
0.002702533665862
 51
90.661797930340015
  0
ARC
  5
18F8
  8
0
 10
92.508325794492038
 20
-3.274216217014696
 30
0.0
 40
0.3398948396972677
 50
66.321650674323067
 51
113.6460359846506
  0
LINE
  5
18F9
  8
0
 10
92.371999010877374
 20
-2.9628586892076352
 30
0.0
 11
91.817825915427335
 21
-2.9629356235076179
 31
0.0
  0
LINE
  5
18FA
  8
0
 10
91.817827803527379
 20
-16.172935623507652
 30
0.0
 11
92.648327803527394
 21
-16.172935623507652
 31
0.0
  0
ARC
  5
18FB
  8
0
 10
92.648327803527394
 20
-15.872935623507651
 30
0.0
 40
0.2999999999999971
 50
270.0
 51
0.0000000000004071
  0
ARC
  5
18FC
  8
0
 10
92.648327803527394
 20
-1.8729356235076431
 30
0.0
 40
0.2999999999999971
 50
270.0
 51
0.0
  0
LINE
  5
18FD
  8
0
 10
92.648327803527394
 20
-2.17293562350764
 30
0.0
 11
91.817825915427335
 21
-2.17293562350764
 31
0.0
  0
LINE
  5
18FE
  8
0
 10
91.817827803527379
 20
-16.962935623507651
 30
0.0
 11
92.371827454027397
 21
-16.962935623507651
 31
0.0
  0
ARC
  5
18FF
  8
0
 10
92.508327804027516
 20
-17.27389227379075
 30
0.0
 40
0.3395973850096485
 50
66.300011767171682
 51
113.69998823282479
  0
ARC
  5
1900
  8
0
 10
92.648292204282569
 20
-17.262951225457719
 30
0.0
 40
0.3000355996504997
 50
0.0029793994204867
 51
90.661521064586694
  0
LINE
  5
1901
  8
0
 10
92.397605217634435
 20
-16.952851944910069
 30
0.0
 11
92.408327803527385
 21
-16.960359980407642
 31
0.0
  0
LINE
  5
1902
  8
0
 10
92.408327803527385
 20
-16.960359980407642
 30
0.0
 11
92.608327803527374
 21
-16.960359980407642
 31
0.0
  0
LINE
  5
1903
  8
0
 10
92.608327803527374
 20
-16.960359980407642
 30
0.0
 11
92.619050389714886
 21
-16.952851944666669
 31
0.0
  0
LINE
  5
1904
  8
0
 10
92.619040814608397
 20
-2.9528586492285021
 30
0.0
 11
92.608327803527374
 21
-2.9603599804076448
 31
0.0
  0
LINE
  5
1905
  8
0
 10
92.608327803527374
 20
-2.9603599804076448
 30
0.0
 11
92.408327803527385
 21
-2.9603599804076448
 31
0.0
  0
LINE
  5
1906
  8
0
 10
92.408327803527385
 20
-2.9603599804076448
 30
0.0
 11
92.397613467375692
 21
-2.95285772144112
 31
0.0
  0
LINE
  5
1907
  8
0
 10
93.858327803527416
 20
-15.56793562350764
 30
0.0
 11
93.877327803527379
 21
-15.56793562350764
 31
0.0
  0
LINE
  5
1908
  8
0
 10
93.877327803527379
 20
-15.56793562350764
 30
0.0
 11
93.877327803527379
 21
-17.567935623507651
 31
0.0
  0
LINE
  5
1909
  8
0
 10
93.877327803527379
 20
-17.567935623507651
 30
0.0
 11
93.858327803527416
 21
-17.567935623507651
 31
0.0
  0
LINE
  5
190A
  8
0
 10
92.983327803527402
 20
-17.56793562350764
 30
0.0
 11
92.948327803527405
 21
-17.56793562350764
 31
0.0
  0
LINE
  5
190B
  8
0
 10
92.948327803527405
 20
-17.56793562350764
 30
0.0
 11
92.948327803527405
 21
-15.567935623507649
 31
0.0
  0
LINE
  5
190C
  8
0
 10
92.948327803527405
 20
-15.567935623507649
 30
0.0
 11
92.983327803527402
 21
-15.567935623507649
 31
0.0
  0
ARC
  5
190D
  8
0
 10
93.618327803527393
 20
-45.214875745107591
 30
0.0
 40
0.0049999999999867
 50
359.99999999963359
 51
135.00000000106539
  0
LINE
  5
190E
  8
0
 10
93.148827803527411
 20
26.356195322692361
 30
0.0
 11
93.148827803527411
 21
26.15119532269237
 31
0.0
  0
ARC
  5
190F
  8
0
 10
93.193851997075797
 20
26.15119532269237
 30
0.0
 40
0.045024193548386
 50
180.00000000000321
 51
271.87838189146532
  0
LINE
  5
1910
  8
0
 10
93.195327803527405
 20
26.10619532269239
 30
0.0
 11
93.748827803527405
 21
26.10619532269239
 31
0.0
  0
LINE
  5
1911
  8
0
 10
93.748827803527405
 20
26.10619532269239
 30
0.0
 11
93.748827803527405
 21
22.516195322692361
 31
0.0
  0
LINE
  5
1912
  8
0
 10
93.687827803527398
 20
26.32619532269236
 30
0.0
 11
93.687827803527398
 21
26.10619532269239
 31
0.0
  0
LINE
  5
1913
  8
0
 10
93.148827803527411
 20
26.24919532269239
 30
0.0
 11
93.680327803527405
 21
26.24919532269239
 31
0.0
  0
LINE
  5
1914
  8
0
 10
93.680327803527405
 20
26.24919532269239
 30
0.0
 11
93.680327803527405
 21
26.10619532269239
 31
0.0
  0
LINE
  5
1915
  8
0
 10
93.680327803527405
 20
26.244564376492391
 30
0.0
 11
93.687827803527398
 21
26.244564376492391
 31
0.0
  0
LINE
  5
1916
  8
0
 10
95.152327803527413
 20
-1.5974640497076249
 30
0.0
 11
95.152327803527385
 21
-1.612935623507624
 31
0.0
  0
LINE
  5
1917
  8
0
 10
96.102327803527444
 20
-1.5974640497077099
 30
0.0
 11
96.102327803527444
 21
-1.612935623507624
 31
0.0
  0
LINE
  5
1918
  8
0
 10
96.102327803527402
 20
-17.538407197307649
 30
0.0
 11
96.102327803527416
 21
-17.522935623507639
 31
0.0
  0
LINE
  5
1919
  8
0
 10
95.152327803540985
 20
-17.538407729649951
 30
0.0
 11
95.152327803540985
 21
-17.522935623507639
 31
0.0
  0
LINE
  5
191A
  8
0
 10
91.817825915427335
 20
-2.9629356235076179
 30
0.0
 11
91.817827803527379
 21
-16.172935623507652
 31
0.0
  0
LINE
  5
191B
  8
0
 10
91.817825915427335
 20
-2.17293562350764
 30
0.0
 11
91.817825915427335
 21
-1.612935623507624
 31
0.0
  0
ARC
  5
191C
  8
0
 10
91.653299204416584
 20
-1.5974640497076391
 30
0.0
 40
0.0200267110107859
 50
0.0000000000097707
 51
92.959553933095847
  0
LINE
  5
191D
  8
0
 10
91.652265205427355
 20
-1.5774640497076431
 30
0.0
 11
90.743325915427405
 21
-1.5774640497076431
 31
0.0
  0
ARC
  5
191E
  8
0
 10
90.743325915427405
 20
-1.5974640497077099
 30
0.0
 40
0.0200000000000724
 50
90.000000000122142
 51
179.99999999978141
  0
LINE
  5
191F
  8
0
 10
90.578827803527389
 20
-1.6129356235075529
 30
0.0
 11
90.578827803527389
 21
-17.522935623507621
 31
0.0
  0
ARC
  5
1920
  8
0
 10
90.743369945916839
 20
-17.538388959281729
 30
0.0
 40
0.020044038786858
 50
180.0521333084165
 51
272.90742062469388
  0
LINE
  5
1921
  8
0
 10
90.744386625427353
 20
-17.558407197307641
 30
0.0
 11
91.653208018027357
 21
-17.558407197307641
 31
0.0
  0
ARC
  5
1922
  8
0
 10
91.653325328126499
 20
-17.538406954039669
 30
0.0
 40
0.0200005873023138
 50
269.66393926272377
 51
359.99930310905739
  0
LINE
  5
1923
  8
0
 10
91.817825915427335
 20
-17.522935623507621
 30
0.0
 11
91.817827803527379
 21
-16.962935623507651
 31
0.0
  0
LINE
  5
1924
  8
0
 10
91.817825915427363
 20
-1.6129356235076451
 30
0.0
 11
90.578827803527389
 21
-1.612935623507638
 31
0.0
  0
LINE
  5
1925
  8
0
 10
90.578827803527389
 20
-17.522935623507621
 30
0.0
 11
91.817824027227346
 21
-17.522935623507621
 31
0.0
  0
LINE
  5
1926
  8
0
 10
91.673325915427341
 20
-1.5974640497076249
 30
0.0
 11
91.673325915427355
 21
-1.612935623507624
 31
0.0
  0
LINE
  5
1927
  8
0
 10
90.723325915427324
 20
-1.5974640497077099
 30
0.0
 11
90.723325915427324
 21
-1.612935623507624
 31
0.0
  0
LINE
  5
1928
  8
0
 10
90.723325915427353
 20
-17.538407197307649
 30
0.0
 11
90.723325915427338
 21
-17.522935623507639
 31
0.0
  0
LINE
  5
1929
  8
0
 10
91.67332591541377
 20
-17.538407729649951
 30
0.0
 11
91.67332591541377
 21
-17.522935623507639
 31
0.0
  0
LINE
  5
192A
  8
0
 10
91.959327803527387
 20
-16.17293562350762
 30
0.0
 11
91.959327803527387
 21
-2.9629356235076179
 31
0.0
  0
LINE
  5
192B
  8
0
 10
93.808327803527405
 20
-41.608804677307639
 30
0.0
 11
93.808327803527405
 21
22.516195322692361
 31
0.0
  0
LINE
  5
192C
  8
0
 10
93.033327803527385
 20
-41.608804677307639
 30
0.0
 11
93.033327803527385
 21
22.516195322692361
 31
0.0
  0
ARC
  5
192D
  8
0
 10
92.777827803527373
 20
-45.453804677307609
 30
0.0
 40
0.034999999999978
 50
89.999999999952777
 51
171.6883772731033
  0
ATTDEF
  5
193E
  8
DEFPOINTS
 10
92.831706165444857
 20
-45.862947737024783
 30
0.0
 40
0.001
  1
ALUMINUM/GLASS
  3

  2
MATERIAL
 70
     0
1001
ACDBATTR
1070
     0
1070
     1
  0
ATTDEF
  5
193F
  8
DEFPOINTS
 10
92.831706165444857
 20
-45.86128107035811
 30
0.0
 40
0.001
  1
SHOWER DOOR
  3

  2
PRODUCT
 70
     0
1001
ACDBATTR
1070
     0
1070
     1
  0
ATTDEF
  5
1940
  8
DEFPOINTS
 10
92.831706165444857
 20
-45.859614403691452
 30
0.0
 40
0.001
  1
PURIST
  3

  2
TRADENAME
 70
     0
1001
ACDBATTR
1070
     0
1070
     1
  0
ATTDEF
  5
1941
  8
DEFPOINTS
 10
92.831706165444857
 20
-45.85794773702478
 30
0.0
 40
0.001
  1
K-705705-L
  3

  2
MODELNUMBER
 70
     0
1001
ACDBATTR
1070
     0
1070
     1
  0
ENDSEC
  0
EOF
