  0
SECTION
  2
HEADER
  9
$ACADVER
  1
AC1009
  9
$INSBASE
 10
108.04908820928139
 20
4.5836734570936422
 30
0.0
  9
$EXTMIN
 10
78.174088105055674
 20
4.5723763057957321
 30
0.0
  9
$EXTMAX
 10
138.17408810505569
 20
76.805673457093633
 30
0.0
  9
$LIMMIN
 10
0.0
 20
0.0
  9
$LIMMAX
 10
11.692913385800001
 20
8.2677165353999982
  9
$ORTHOMODE
 70
     0
  9
$REGENMODE
 70
     1
  9
$FILLMODE
 70
     1
  9
$QTEXTMODE
 70
     0
  9
$MIRRTEXT
 70
     0
  9
$DRAGMODE
 70
     2
  9
$LTSCALE
 40
0.6431102362
  9
$OSMODE
 70
  3071
  9
$ATTMODE
 70
     1
  9
$TEXTSIZE
 40
0.2
  9
$TRACEWID
 40
0.05
  9
$TEXTSTYLE
  7
STANDARD
  9
$CLAYER
  8
0
  9
$CELTYPE
  6
BYLAYER
  9
$CECOLOR
 62
   256
  9
$DIMSCALE
 40
1.0
  9
$DIMASZ
 40
0.1875
  9
$DIMEXO
 40
0.0625
  9
$DIMDLI
 40
0.4443307087
  9
$DIMRND
 40
0.0
  9
$DIMDLE
 40
0.0
  9
$DIMEXE
 40
0.125
  9
$DIMTP
 40
0.01
  9
$DIMTM
 40
0.01
  9
$DIMTXT
 40
1.0
  9
$DIMCEN
 40
0.1052362205
  9
$DIMTSZ
 40
0.0
  9
$DIMTOL
 70
     1
  9
$DIMLIM
 70
     0
  9
$DIMTIH
 70
     1
  9
$DIMTOH
 70
     1
  9
$DIMSE1
 70
     0
  9
$DIMSE2
 70
     0
  9
$DIMTAD
 70
     0
  9
$DIMZIN
 70
     0
  9
$DIMBLK
  1

  9
$DIMASO
 70
     1
  9
$DIMSHO
 70
     1
  9
$DIMPOST
  1
\X
  9
$DIMAPOST
  1

  9
$DIMALT
 70
     1
  9
$DIMALTD
 70
     2
  9
$DIMALTF
 40
25.399999999999999
  9
$DIMLFAC
 40
1.0
  9
$DIMTOFL
 70
     0
  9
$DIMTVP
 40
0.0
  9
$DIMTIX
 70
     0
  9
$DIMSOXD
 70
     0
  9
$DIMSAH
 70
     0
  9
$DIMBLK1
  1

  9
$DIMBLK2
  1

  9
$DIMSTYLE
  2
STANDARD
  9
$DIMCLRD
 70
     0
  9
$DIMCLRE
 70
     0
  9
$DIMCLRT
 70
     0
  9
$DIMTFAC
 40
1.0
  9
$DIMGAP
 40
0.09
  9
$LUNITS
 70
     2
  9
$LUPREC
 70
     4
  9
$SKETCHINC
 40
0.1
  9
$FILLETRAD
 40
0.0
  9
$AUNITS
 70
     0
  9
$AUPREC
 70
     0
  9
$MENU
  1
.
  9
$ELEVATION
 40
0.0
  9
$PELEVATION
 40
0.0
  9
$THICKNESS
 40
0.0
  9
$LIMCHECK
 70
     0
  9
$BLIPMODE
 70
     0
  9
$CHAMFERA
 40
0.0
  9
$CHAMFERB
 40
0.0
  9
$SKPOLY
 70
     0
  9
$TDCREATE
 40
2457893.414510868
  9
$TDUPDATE
 40
2458013.533707269
  9
$TDINDWG
 40
0.8308402662
  9
$TDUSRTIMER
 40
0.8308402662
  9
$USRTIMER
 70
     1
  9
$ANGBASE
 50
0.0
  9
$ANGDIR
 70
     0
  9
$PDMODE
 70
     0
  9
$PDSIZE
 40
0.3125
  9
$PLINEWID
 40
0.0
  9
$COORDS
 70
     1
  9
$SPLFRAME
 70
     0
  9
$SPLINETYPE
 70
     6
  9
$SPLINESEGS
 70
     8
  9
$ATTDIA
 70
     1
  9
$ATTREQ
 70
     1
  9
$HANDLING
 70
     1
  9
$HANDSEED
  5
19CA
  9
$SURFTAB1
 70
     6
  9
$SURFTAB2
 70
     6
  9
$SURFTYPE
 70
     6
  9
$SURFU
 70
     6
  9
$SURFV
 70
     6
  9
$UCSNAME
  2

  9
$UCSORG
 10
0.0
 20
0.0
 30
0.0
  9
$UCSXDIR
 10
1.0
 20
0.0
 30
0.0
  9
$UCSYDIR
 10
0.0
 20
1.0
 30
0.0
  9
$PUCSNAME
  2

  9
$PUCSORG
 10
0.0
 20
0.0
 30
0.0
  9
$PUCSXDIR
 10
1.0
 20
0.0
 30
0.0
  9
$PUCSYDIR
 10
0.0
 20
1.0
 30
0.0
  9
$USERI1
 70
     0
  9
$USERI2
 70
     0
  9
$USERI3
 70
     0
  9
$USERI4
 70
     0
  9
$USERI5
 70
     0
  9
$USERR1
 40
0.0
  9
$USERR2
 40
0.0
  9
$USERR3
 40
0.0
  9
$USERR4
 40
0.0
  9
$USERR5
 40
0.0
  9
$WORLDVIEW
 70
     1
  9
$SHADEDGE
 70
     3
  9
$SHADEDIF
 70
    70
  9
$TILEMODE
 70
     1
  9
$MAXACTVP
 70
    48
  9
$PLIMCHECK
 70
     0
  9
$PEXTMIN
 10
1.0000000000000000E+020
 20
1.0000000000000000E+020
 30
1.0000000000000000E+020
  9
$PEXTMAX
 10
-1.0000000000000000E+020
 20
-1.0000000000000000E+020
 30
-1.0000000000000000E+020
  9
$PLIMMIN
 10
0.0
 20
0.0
  9
$PLIMMAX
 10
12.0
 20
9.0
  9
$UNITMODE
 70
     0
  9
$VISRETAIN
 70
     1
  9
$PLINEGEN
 70
     0
  9
$PSLTSCALE
 70
     1
  0
ENDSEC
  0
SECTION
  2
TABLES
  0
TABLE
  2
VPORT
 70
     1
  0
VPORT
  2
*ACTIVE
 70
     0
 10
0.0
 20
0.0
 11
1.0
 21
1.0
 12
-0.0031484483861561
 22
-0.0008629097443986
 13
0.0
 23
0.0
 14
1.0
 24
1.0
 15
0.0
 25
0.0
 16
-0.0000000000000568
 26
0.0
 36
270.5792370523215
 17
108.1740881050557
 27
40.689024881444681
 37
0.0
 40
72.76765059865906
 41
2.3109756097560972
 42
50.0
 43
0.0
 44
0.0
 50
0.0
 51
0.0
 71
     0
 72
   100
 73
     1
 74
     1
 75
     0
 76
     0
 77
     0
 78
     0
  0
ENDTAB
  0
TABLE
  2
LTYPE
 70
     2
  0
LTYPE
  2
CONTINUOUS
 70
     0
  3
Solid line
 72
    65
 73
     0
 40
0.0
  0
LTYPE
  2
PHANTOM2
 70
     0
  3
___ _ _ ___ _ _ ___ _ _ ___ _ _
 72
    65
 73
     6
 40
1.25
 49
0.625
 49
-0.125
 49
0.125
 49
-0.125
 49
0.125
 49
-0.125
  0
ENDTAB
  0
TABLE
  2
LAYER
 70
     2
  0
LAYER
  2
0
 70
     0
 62
     7
  6
CONTINUOUS
  0
LAYER
  2
DEFPOINTS
 70
     0
 62
     7
  6
CONTINUOUS
  0
ENDTAB
  0
TABLE
  2
STYLE
 70
     1
  0
STYLE
  2
STANDARD
 70
     0
 40
0.0
 41
0.8
 50
0.0
 71
     0
 42
0.2
  3
txt
  4

  0
ENDTAB
  0
TABLE
  2
VIEW
 70
     0
  0
ENDTAB
  0
TABLE
  2
UCS
 70
     0
  0
ENDTAB
  0
TABLE
  2
APPID
 70
     7
  0
APPID
  2
ACAD
 70
     0
  0
APPID
  2
ACAD_MLEADERVER
 70
     0
  0
APPID
  2
ACAD_NAV_VCDISPLAY
 70
     0
  0
APPID
  2
ACAD_EXEMPT_FROM_CAD_STANDARDS
 70
     0
  0
APPID
  2
ACAD_DSTYLE_DIMJAG
 70
     0
  0
APPID
  2
ACAD_DSTYLE_DIMTALN
 70
     0
  0
APPID
  2
ACDBATTR
 70
     0
  0
ENDTAB
  0
TABLE
  2
DIMSTYLE
 70
     2
  0
DIMSTYLE
  2
STANDARD
 70
     0
  3

  4

  5

  6

  7

 40
1.0
 41
0.1875
 42
0.0625
 43
0.38
 44
0.125
 45
0.0
 46
0.0
 47
0.01
 48
0.01
140
0.15625
141
0.09
142
0.0
143
25.399999999999999
144
1.0
145
0.0
146
1.0
147
0.09
 71
     1
 72
     0
 73
     1
 74
     1
 75
     0
 76
     0
 77
     0
 78
     4
170
     0
171
     2
172
     0
173
     0
174
     0
175
     0
176
     0
177
     0
178
     0
  0
ENDTAB
  0
ENDSEC
  0
SECTION
  2
BLOCKS
  0
BLOCK
  8
0
  2
$MODEL_SPACE
 70
     0
 10
0.0
 20
0.0
 30
0.0
  3
$MODEL_SPACE
  1

  0
ENDBLK
  5
21
  8
0
  0
BLOCK
 67
     1
  8
0
  2
$PAPER_SPACE
 70
     0
 10
0.0
 20
0.0
 30
0.0
  3
$PAPER_SPACE
  1

  0
ENDBLK
  5
1D
 67
     1
  8
0
  0
ENDSEC
  0
SECTION
  2
ENTITIES
  0
LINE
  5
1853
  8
0
 10
78.174088313507269
 20
76.788673457093637
 30
0.0
 11
80.074088313507261
 21
76.788673457093637
 31
0.0
  0
LINE
  5
1854
  8
0
 10
80.074088313507261
 20
76.788673457093637
 30
0.0
 11
80.074088313507261
 21
72.948673457093633
 31
0.0
  0
LINE
  5
1855
  8
0
 10
80.074088313507261
 20
72.948673457093633
 30
0.0
 11
78.174088313507269
 21
72.948673457093633
 31
0.0
  0
LINE
  5
1856
  8
0
 10
78.174088313507269
 20
72.948673457093633
 30
0.0
 11
78.174088313507269
 21
76.788673457093637
 31
0.0
  0
LINE
  5
1857
  8
0
 10
79.004088105055686
 20
72.948673457093633
 30
0.0
 11
79.004088105055686
 21
8.8236734570936406
 31
0.0
  0
LINE
  5
1858
  8
0
 10
78.254088105055686
 20
8.8236734570936406
 30
0.0
 11
78.254088105055686
 21
72.948673457093633
 31
0.0
  0
LINE
  5
1859
  8
0
 10
78.174088105055674
 20
8.8236734570936406
 30
0.0
 11
80.074088313507261
 21
8.8236734570936406
 31
0.0
  0
LINE
  5
185A
  8
0
 10
80.074088313507261
 20
8.8236734570936406
 30
0.0
 11
80.074088313507261
 21
4.9836734570936443
 31
0.0
  0
LINE
  5
185B
  8
0
 10
78.174088105055674
 20
8.8236734570936406
 30
0.0
 11
78.174088313507269
 21
4.5836734570936377
 31
0.0
  0
LINE
  5
185C
  8
0
 10
78.174088313507269
 20
4.5836734570936377
 30
0.0
 11
137.9240881050556
 21
4.5836734570936422
 31
0.0
  0
LINE
  5
185D
  8
0
 10
80.074088313507261
 20
76.644673457093631
 30
0.0
 11
87.285088313507259
 21
76.644673457093631
 31
0.0
  0
LINE
  5
185E
  8
0
 10
87.285088105055692
 20
76.805673457093633
 30
0.0
 11
92.455088105055694
 21
76.805673457093633
 31
0.0
  0
LINE
  5
185F
  8
0
 10
92.455088105055694
 20
76.805673457093633
 30
0.0
 11
92.455088105055694
 21
75.905673457093641
 31
0.0
  0
LINE
  5
1860
  8
0
 10
92.455088105055694
 20
75.905673457093641
 30
0.0
 11
91.325088105055684
 21
75.905673457093641
 31
0.0
  0
LINE
  5
1861
  8
0
 10
91.325088105055684
 20
75.905673457093641
 30
0.0
 11
91.325088105055684
 21
74.955673457093638
 31
0.0
  0
LINE
  5
1862
  8
0
 10
91.325088105055684
 20
74.955673457093638
 30
0.0
 11
87.285088105055692
 21
74.955673457093638
 31
0.0
  0
LINE
  5
1863
  8
0
 10
87.285088105055692
 20
74.955673457093638
 30
0.0
 11
87.285088105055692
 21
76.805673457093633
 31
0.0
  0
LINE
  5
1864
  8
0
 10
92.455088105055694
 20
76.662042510893642
 30
0.0
 11
96.739088105055686
 21
76.662042510893642
 31
0.0
  0
LINE
  5
1865
  8
0
 10
96.739088105055686
 20
76.662042510893642
 30
0.0
 11
96.739088105055686
 21
74.912042510893642
 31
0.0
  0
LINE
  5
1866
  8
0
 10
96.739088105055686
 20
74.912042510893642
 30
0.0
 11
92.452088105055694
 21
74.912042510893642
 31
0.0
  0
LINE
  5
1867
  8
0
 10
92.199588105055696
 20
75.905673457093641
 30
0.0
 11
92.199588105055696
 21
75.772042510893641
 31
0.0
  0
LINE
  5
1868
  8
0
 10
91.824588105055696
 20
75.905673457093641
 30
0.0
 11
91.824588105055682
 21
75.772042510893641
 31
0.0
  0
LINE
  5
1869
  8
0
 10
91.572088105055684
 20
75.772042510893641
 30
0.0
 11
92.452088105055694
 21
75.772042510893641
 31
0.0
  0
LINE
  5
186A
  8
0
 10
92.452088105055694
 20
75.772042510893641
 30
0.0
 11
92.452088105055694
 21
74.907042510893632
 31
0.0
  0
LINE
  5
186B
  8
0
 10
92.452088105055694
 20
74.907042510893632
 30
0.0
 11
92.437088105055693
 21
74.892042510893646
 31
0.0
  0
LINE
  5
186C
  8
0
 10
92.437088105055693
 20
74.892042510893646
 30
0.0
 11
91.587088105055685
 21
74.892042510893646
 31
0.0
  0
LINE
  5
186D
  8
0
 10
91.587088105055685
 20
74.892042510893646
 30
0.0
 11
91.572088105055684
 21
74.907042510893632
 31
0.0
  0
LINE
  5
186E
  8
0
 10
91.572088105055684
 20
74.907042510893632
 30
0.0
 11
91.572088105055684
 21
75.772042510893641
 31
0.0
  0
LINE
  5
186F
  8
0
 10
91.572088105055684
 20
74.912042510893642
 30
0.0
 11
91.054088105055683
 21
74.912042510893642
 31
0.0
  0
LINE
  5
1870
  8
0
 10
91.054088313507265
 20
74.96805321992538
 30
0.0
 11
91.054088313507265
 21
6.8336734570936377
 31
0.0
  0
LINE
  5
1871
  8
0
 10
92.455088105055694
 20
4.9712936942618953
 30
0.0
 11
92.455088105055694
 21
5.883673457093642
 31
0.0
  0
LINE
  5
1872
  8
0
 10
92.455088105055694
 20
5.883673457093642
 30
0.0
 11
91.325088105055684
 21
5.8836734447932519
 31
0.0
  0
LINE
  5
1873
  8
0
 10
91.325088105055684
 20
5.8836734447932519
 30
0.0
 11
91.325088105055684
 21
6.8336734570936422
 31
0.0
  0
LINE
  5
1874
  8
0
 10
91.325088105055684
 20
6.8336734570936422
 30
0.0
 11
87.285088105055692
 21
6.8336734570936422
 31
0.0
  0
LINE
  5
1875
  8
0
 10
87.285088105055692
 20
6.8336734570936422
 30
0.0
 11
87.285088313507259
 21
4.9836734570936443
 31
0.0
  0
LINE
  5
1876
  8
0
 10
96.739088313507267
 20
4.9836734570936443
 30
0.0
 11
96.739088313507267
 21
6.8170425108936392
 31
0.0
  0
LINE
  5
1877
  8
0
 10
96.739088313507267
 20
6.8170425108936392
 30
0.0
 11
92.452088313507261
 21
6.8170425108936392
 31
0.0
  0
LINE
  5
1878
  8
0
 10
92.199588105055696
 20
5.883673457093642
 30
0.0
 11
92.199588105055696
 21
5.9570425108936433
 31
0.0
  0
LINE
  5
1879
  8
0
 10
91.824588105055682
 20
5.883673457093642
 30
0.0
 11
91.824588105055682
 21
5.9570425108936433
 31
0.0
  0
LINE
  5
187A
  8
0
 10
91.572088105055684
 20
5.9570425108936433
 30
0.0
 11
92.452088105055694
 21
5.9570425108936433
 31
0.0
  0
LINE
  5
187B
  8
0
 10
92.452088105055694
 20
5.9570425108936433
 30
0.0
 11
92.452088105055694
 21
6.8220425108936453
 31
0.0
  0
LINE
  5
187C
  8
0
 10
92.452088105055694
 20
6.8220425108936453
 30
0.0
 11
92.437088105055693
 21
6.8370425108936379
 31
0.0
  0
LINE
  5
187D
  8
0
 10
92.437088105055693
 20
6.8370425108936379
 30
0.0
 11
91.587088105055685
 21
6.8370425108936379
 31
0.0
  0
LINE
  5
187E
  8
0
 10
91.587088105055685
 20
6.8370425108936379
 30
0.0
 11
91.572088105055684
 21
6.8220425108936453
 31
0.0
  0
LINE
  5
187F
  8
0
 10
91.572088105055684
 20
6.8220425108936453
 30
0.0
 11
91.572088105055684
 21
5.9570425108936433
 31
0.0
  0
LINE
  5
1880
  8
0
 10
91.572088105055684
 20
6.8170425108936392
 30
0.0
 11
91.325088313507266
 21
6.8170425108936392
 31
0.0
  0
LINE
  5
1881
  8
0
 10
87.285088105055692
 20
5.2066734570936433
 30
0.0
 11
80.074088313507261
 21
5.2066734570936433
 31
0.0
  0
LINE
  5
1882
  8
0
 10
136.02408810505571
 20
8.8236734570936406
 30
0.0
 11
137.92408810505569
 21
8.8236734570936406
 31
0.0
  0
LINE
  5
1883
  8
0
 10
137.92408810505569
 20
8.8236734570936406
 30
0.0
 11
137.92408810505569
 21
4.5836734570936422
 31
0.0
  0
LINE
  5
1884
  8
0
 10
137.92408810505569
 20
4.9836734570936398
 30
0.0
 11
78.174088313507269
 21
4.9836734570936443
 31
0.0
  0
LINE
  5
1885
  8
0
 10
136.02408810505571
 20
4.9836734570936398
 30
0.0
 11
136.02408810505571
 21
8.8236734570936406
 31
0.0
  0
LINE
  5
1886
  8
0
 10
137.08908810505571
 20
8.8236734570936406
 30
0.0
 11
137.08908810505571
 21
72.948673457093633
 31
0.0
  0
LINE
  5
1887
  8
0
 10
137.83908810505559
 20
72.948673457093633
 30
0.0
 11
137.83908810505559
 21
8.8236734570936406
 31
0.0
  0
LINE
  5
1888
  8
0
 10
136.02408810505571
 20
76.788673457093637
 30
0.0
 11
138.17408810505569
 21
76.788673457093637
 31
0.0
  0
LINE
  5
1889
  8
0
 10
138.17408810505569
 20
76.788673457093637
 30
0.0
 11
138.17408810505569
 21
72.948673457093633
 31
0.0
  0
LINE
  5
188A
  8
0
 10
138.17408810505569
 20
72.948673457093633
 30
0.0
 11
136.02408810505571
 21
72.948673457093633
 31
0.0
  0
LINE
  5
188B
  8
0
 10
136.02408810505571
 20
72.948673457093633
 30
0.0
 11
136.02408810505571
 21
76.788673457093637
 31
0.0
  0
LINE
  5
188C
  8
0
 10
125.16908810505571
 20
76.651673457093636
 30
0.0
 11
125.16908810505571
 21
5.2176023892936376
 31
0.0
  0
LINE
  5
188D
  8
0
 10
125.11008810505569
 20
5.2176023892936376
 30
0.0
 11
136.02408810505571
 21
5.2176023892936376
 31
0.0
  0
LINE
  5
188E
  8
0
 10
125.11008810505569
 20
5.383673457093642
 30
0.0
 11
96.748088105055686
 21
5.383673457093642
 31
0.0
  0
LINE
  5
188F
  8
0
 10
125.0040881050557
 20
76.552042510893642
 30
0.0
 11
125.0040881050557
 21
5.383673457093642
 31
0.0
  0
LINE
  5
1890
  8
0
 10
125.16908810505571
 20
76.552042510893614
 30
0.0
 11
96.739088313507267
 21
76.552042510893642
 31
0.0
  0
LINE
  5
1891
  8
0
 10
125.16908810505559
 20
76.651673457093636
 30
0.0
 11
136.02408810505571
 21
76.651673457093636
 31
0.0
  0
ARC
  5
1892
  8
0
 10
121.0490881050557
 20
48.835014084693633
 30
0.0
 40
0.019999999999996
 50
89.999999999979664
 51
180.00000000000529
  0
LINE
  5
1893
  8
0
 10
121.0490881050557
 20
48.85501408469365
 30
0.0
 11
121.9590881050557
 21
48.855014084693323
 31
0.0
  0
ARC
  5
1894
  8
0
 10
121.9590881050557
 20
48.83501408469332
 30
0.0
 40
0.0200000000000067
 50
0.0000000009465331
 51
89.999999999979664
  0
ARC
  5
1895
  8
0
 10
121.9590881053193
 20
32.894070937093311
 30
0.0
 40
0.0199999999996692
 50
269.99999924462588
 51
0.0000000009489757
  0
LINE
  5
1896
  8
0
 10
121.9590881050557
 20
32.874070937093649
 30
0.0
 11
121.0490881050557
 21
32.874070949090871
 31
0.0
  0
ARC
  5
1897
  8
0
 10
121.0490881053194
 20
32.894070949354543
 30
0.0
 40
0.0200000002636784
 50
180.00003512490559
 51
269.99999924462509
  0
LINE
  5
1898
  8
0
 10
120.8845881050557
 20
48.81954251089364
 30
0.0
 11
122.1235881050557
 21
48.81954251089364
 31
0.0
  0
LINE
  5
1899
  8
0
 10
122.1235881050557
 20
32.909542510893651
 30
0.0
 11
120.8845881050557
 21
32.909542510893651
 31
0.0
  0
ARC
  5
189A
  8
0
 10
121.5040881050557
 20
47.864542510893642
 30
0.0
 40
0.9999999999999996
 50
308.27963101190772
 51
51.720368988092353
  0
ARC
  5
189B
  8
0
 10
121.5040881050557
 20
47.864542510893642
 30
0.0
 40
0.9999999999999996
 50
82.084220888624316
 51
97.915779111334601
  0
ARC
  5
189C
  8
0
 10
121.5040881050557
 20
47.864542510893642
 30
0.0
 40
0.9999999999999996
 50
128.27963101190761
 51
231.72036898809239
  0
ARC
  5
189D
  8
0
 10
121.5040881050557
 20
33.864542510893642
 30
0.0
 40
1.0
 50
128.27963101190761
 51
231.72036898809239
  0
ARC
  5
189E
  8
0
 10
121.5040881050557
 20
33.864542510893642
 30
0.0
 40
1.0
 50
262.0842176376799
 51
277.91578085157141
  0
ARC
  5
189F
  8
0
 10
121.5040881050557
 20
33.864542510893642
 30
0.0
 40
1.0
 50
308.27963101190772
 51
51.720368988092353
  0
LINE
  5
18A0
  8
0
 10
121.97908810531899
 20
32.894070937093637
 30
0.0
 11
121.97908810531899
 21
32.909542510893651
 31
0.0
  0
LINE
  5
18A1
  8
0
 10
121.02908810505571
 20
32.894070937093637
 30
0.0
 11
121.02908810505571
 21
32.909542510893651
 31
0.0
  0
LINE
  5
18A2
  8
0
 10
120.8845881050557
 20
32.909542510893651
 30
0.0
 11
120.8845881050557
 21
48.81954251089364
 31
0.0
  0
LINE
  5
18A3
  8
0
 10
122.1235881050557
 20
48.81954251089364
 30
0.0
 11
122.1235881050557
 21
32.909542510893651
 31
0.0
  0
LINE
  5
18A4
  8
0
 10
121.02908810505571
 20
48.835014084693633
 30
0.0
 11
121.02908810505571
 21
48.81954251089364
 31
0.0
  0
LINE
  5
18A5
  8
0
 10
121.97908810505569
 20
48.835014084693633
 30
0.0
 11
121.97908810505569
 21
48.81954251089364
 31
0.0
  0
LINE
  5
18A6
  8
0
 10
125.11008810505569
 20
5.383673457093642
 30
0.0
 11
125.11008810505569
 21
4.9836734570936398
 31
0.0
  0
ATTDEF
  5
18B7
  8
DEFPOINTS
 10
108.0451736711011
 20
4.5723763057957321
 30
0.0
 40
0.001
  1
ALUMINUM/GLASS
  3

  2
MATERIAL
 70
     0
1001
ACDBATTR
1070
     0
1070
     1
  0
ATTDEF
  5
18B8
  8
DEFPOINTS
 10
108.0451736711011
 20
4.5740429724623972
 30
0.0
 40
0.001
  1
SHOWER DOOR
  3

  2
PRODUCT
 70
     0
1001
ACDBATTR
1070
     0
1070
     1
  0
ATTDEF
  5
18B9
  8
DEFPOINTS
 10
108.0451736711011
 20
4.5757096391290624
 30
0.0
 40
0.001
  1
PURIST
  3

  2
TRADENAME
 70
     0
1001
ACDBATTR
1070
     0
1070
     1
  0
ATTDEF
  5
18BA
  8
DEFPOINTS
 10
108.0451736711011
 20
4.5773763057957266
 30
0.0
 40
0.001
  1
K-705705-L
  3

  2
MODELNUMBER
 70
     0
1001
ACDBATTR
1070
     0
1070
     1
  0
ENDSEC
  0
EOF
