  0
SECTION
  2
HEADER
  9
$ACADVER
  1
AC1009
  9
$INSBASE
 10
0.0
 20
0.0
 30
0.0
  9
$EXTMIN
 10
-21.451829
 20
-0.0051
 30
0.0
  9
$EXTMAX
 10
21.465882
 20
21.648895
 30
0.0
  9
$LIMMIN
 10
0.0
 20
0.0
  9
$LIMMAX
 10
12.0
 20
9.0
  9
$ORTHOMODE
 70
     0
  9
$REGENMODE
 70
     1
  9
$FILLMODE
 70
     0
  9
$QTEXTMODE
 70
     0
  9
$MIRRTEXT
 70
     1
  9
$DRAGMODE
 70
     2
  9
$LTSCALE
 40
1.0
  9
$OSMODE
 70
     0
  9
$ATTMODE
 70
     1
  9
$TEXTSIZE
 40
0.001
  9
$TRACEWID
 40
0.05
  9
$TEXTSTYLE
  7
STANDARD
  9
$CLAYER
  8
0
  9
$CELTYPE
  6
BYLAYER
  9
$CECOLOR
 62
   256
  9
$DIMSCALE
 40
1.0
  9
$DIMASZ
 40
0.18
  9
$DIMEXO
 40
0.0625
  9
$DIMDLI
 40
0.38
  9
$DIMRND
 40
0.0
  9
$DIMDLE
 40
0.0
  9
$DIMEXE
 40
0.18
  9
$DIMTP
 40
0.0
  9
$DIMTM
 40
0.0
  9
$DIMTXT
 40
0.18
  9
$DIMCEN
 40
0.09
  9
$DIMTSZ
 40
0.0
  9
$DIMTOL
 70
     0
  9
$DIMLIM
 70
     0
  9
$DIMTIH
 70
     1
  9
$DIMTOH
 70
     1
  9
$DIMSE1
 70
     0
  9
$DIMSE2
 70
     0
  9
$DIMTAD
 70
     0
  9
$DIMZIN
 70
     0
  9
$DIMBLK
  1

  9
$DIMASO
 70
     1
  9
$DIMSHO
 70
     1
  9
$DIMPOST
  1

  9
$DIMAPOST
  1

  9
$DIMALT
 70
     0
  9
$DIMALTD
 70
     2
  9
$DIMALTF
 40
25.4
  9
$DIMLFAC
 40
1.0
  9
$DIMTOFL
 70
     0
  9
$DIMTVP
 40
0.0
  9
$DIMTIX
 70
     0
  9
$DIMSOXD
 70
     0
  9
$DIMSAH
 70
     0
  9
$DIMBLK1
  1

  9
$DIMBLK2
  1

  9
$DIMSTYLE
  2
*UNNAMED
  9
$DIMCLRD
 70
     0
  9
$DIMCLRE
 70
     0
  9
$DIMCLRT
 70
     0
  9
$DIMTFAC
 40
1.0
  9
$DIMGAP
 40
0.09
  9
$LUNITS
 70
     2
  9
$LUPREC
 70
     4
  9
$SKETCHINC
 40
0.1
  9
$FILLETRAD
 40
0.0
  9
$AUNITS
 70
     0
  9
$AUPREC
 70
     0
  9
$MENU
  1
acad
  9
$ELEVATION
 40
0.0
  9
$PELEVATION
 40
0.0
  9
$THICKNESS
 40
0.0
  9
$LIMCHECK
 70
     0
  9
$BLIPMODE
 70
     0
  9
$CHAMFERA
 40
0.0
  9
$CHAMFERB
 40
0.0
  9
$SKPOLY
 70
     0
  9
$TDCREATE
 40
2450953.474888079
  9
$TDUPDATE
 40
2450960.553809143
  9
$TDINDWG
 40
0.0039598380
  9
$TDUSRTIMER
 40
0.0039598380
  9
$USRTIMER
 70
     1
  9
$ANGBASE
 50
0.0
  9
$ANGDIR
 70
     0
  9
$PDMODE
 70
     0
  9
$PDSIZE
 40
0.0
  9
$PLINEWID
 40
0.0
  9
$COORDS
 70
     1
  9
$SPLFRAME
 70
     0
  9
$SPLINETYPE
 70
     6
  9
$SPLINESEGS
 70
     8
  9
$ATTDIA
 70
     0
  9
$ATTREQ
 70
     1
  9
$HANDLING
 70
     0
  9
$HANDSEED
  5
0
  9
$SURFTAB1
 70
     6
  9
$SURFTAB2
 70
     6
  9
$SURFTYPE
 70
     6
  9
$SURFU
 70
     6
  9
$SURFV
 70
     6
  9
$UCSNAME
  2

  9
$UCSORG
 10
0.0
 20
0.0
 30
0.0
  9
$UCSXDIR
 10
1.0
 20
0.0
 30
0.0
  9
$UCSYDIR
 10
0.0
 20
1.0
 30
0.0
  9
$PUCSNAME
  2

  9
$PUCSORG
 10
0.0
 20
0.0
 30
0.0
  9
$PUCSXDIR
 10
1.0
 20
0.0
 30
0.0
  9
$PUCSYDIR
 10
0.0
 20
1.0
 30
0.0
  9
$USERI1
 70
     0
  9
$USERI2
 70
     0
  9
$USERI3
 70
     0
  9
$USERI4
 70
     0
  9
$USERI5
 70
     0
  9
$USERR1
 40
0.0
  9
$USERR2
 40
0.0
  9
$USERR3
 40
0.0
  9
$USERR4
 40
0.0
  9
$USERR5
 40
0.0
  9
$WORLDVIEW
 70
     1
  9
$SHADEDGE
 70
     3
  9
$SHADEDIF
 70
    70
  9
$TILEMODE
 70
     1
  9
$MAXACTVP
 70
    16
  9
$PINSBASE
 10
0.0
 20
0.0
 30
0.0
  9
$PLIMCHECK
 70
     0
  9
$PEXTMIN
 10
1.000000E+20
 20
1.000000E+20
 30
1.000000E+20
  9
$PEXTMAX
 10
-1.000000E+20
 20
-1.000000E+20
 30
-1.000000E+20
  9
$PLIMMIN
 10
0.0
 20
0.0
  9
$PLIMMAX
 10
12.0
 20
9.0
  9
$UNITMODE
 70
     0
  9
$VISRETAIN
 70
     0
  9
$PLINEGEN
 70
     0
  9
$PSLTSCALE
 70
     1
  9
$TREEDEPTH
 70
  3020
  9
$DWGCODEPAGE
  3
iso8859-1
  0
ENDSEC
  0
SECTION
  2
TABLES
  0
TABLE
  2
VPORT
 70
     2
  0
VPORT
  2
*ACTIVE
 70
     0
 10
0.0
 20
0.0
 11
1.0
 21
1.0
 12
3.6108
 22
15.399895
 13
0.0
 23
0.0
 14
1.0
 24
1.0
 15
0.0
 25
0.0
 16
0.0
 26
0.0
 36
1.0
 17
0.0
 27
0.0
 37
0.0
 40
34.233322
 41
1.573846
 42
50.0
 43
0.0
 44
0.0
 50
0.0
 51
0.0
 71
     0
 72
  1000
 73
     1
 74
     1
 75
     0
 76
     0
 77
     0
 78
     1
  0
ENDTAB
  0
TABLE
  2
LTYPE
 70
     2
  0
LTYPE
  2
CONTINUOUS
 70
    64
  3
Solid line
 72
    65
 73
     0
 40
0.0
  0
LTYPE
  2
HIDDEN
 70
     0
  3
__ __ __ __ __ __ __ __ __ __ __ __ __ __ __ __
 72
    65
 73
     2
 40
0.375
 49
0.25
 49
-0.125
  0
ENDTAB
  0
TABLE
  2
LAYER
 70
     1
  0
LAYER
  2
0
 70
    64
 62
     7
  6
CONTINUOUS
  0
ENDTAB
  0
TABLE
  2
STYLE
 70
     1
  0
STYLE
  2
STANDARD
 70
    64
 40
0.0
 41
1.0
 50
0.0
 71
     0
 42
0.001
  3
txt
  4

  0
ENDTAB
  0
TABLE
  2
VIEW
 70
     0
  0
ENDTAB
  0
TABLE
  2
UCS
 70
     0
  0
ENDTAB
  0
TABLE
  2
APPID
 70
     1
  0
APPID
  2
ACAD
 70
    64
  0
ENDTAB
  0
TABLE
  2
DIMSTYLE
 70
     0
  0
ENDTAB
  0
ENDSEC
  0
SECTION
  2
BLOCKS
  0
ENDSEC
  0
SECTION
  2
ENTITIES
  0
LINE
  8
0
 10
-18.72533
 20
21.191239
 30
0.0
 11
18.72533
 21
21.191239
 31
0.0
  0
LINE
  8
0
 10
20.995372
 20
18.85744
 30
0.0
 11
-20.995372
 21
18.85744
 31
0.0
  0
LINE
  8
0
 10
11.592993
 20
0.0
 30
0.0
 11
-11.668005
 21
0.0
 31
0.0
  0
LINE
  8
0
 10
-11.068308
 20
1.188112
 30
0.0
 11
7.784681
 21
0.551335
 31
0.0
  0
LINE
  8
0
 10
-14.311579
 20
4.017237
 30
0.0
 11
-16.352724
 21
18.85744
 31
0.0
  0
ARC
  8
0
 10
-10.969514
 20
4.560513
 30
0.0
 40
3.385934
 50
189.233074
 51
252.9724
  0
LINE
  8
0
 10
-11.668005
 20
0.0
 30
0.0
 11
-11.763966
 21
1.104609
 31
0.0
  0
ARC
  8
0
 10
-11.990495
 20
1.098313
 30
0.0
 40
0.226617
 50
1.591941
 51
82.527903
  0
LINE
  8
0
 10
-11.431832
 20
0.001979
 30
0.0
 11
-11.335605
 21
0.974395
 31
0.0
  0
ARC
  8
0
 10
-11.097694
 20
0.950852
 30
0.0
 40
0.239073
 50
82.93966
 51
174.348612
  0
ARC
  8
0
 10
-18.597032
 20
18.795534
 30
0.0
 40
2.399139
 50
93.065455
 51
178.521387
  0
LINE
  8
0
 10
16.239514
 20
18.85744
 30
0.0
 11
13.97726
 21
2.086234
 31
0.0
  0
ARC
  8
0
 10
12.109921
 20
2.499608
 30
0.0
 40
1.912546
 50
272.356125
 51
347.517712
  0
LINE
  8
0
 10
8.318549
 20
0.323644
 30
0.0
 11
11.299405
 21
0.323644
 31
0.0
  0
ARC
  8
0
 10
7.757548
 20
-0.252013
 30
0.0
 40
0.803806
 50
45.738701
 51
88.065516
  0
LINE
  8
0
 10
11.599538
 20
0.340126
 30
0.0
 11
11.592993
 21
0.0
 31
0.0
  0
LINE
  8
0
 10
11.299405
 20
0.323644
 30
0.0
 11
11.299405
 21
0.0
 31
0.0
  0
ARC
  8
0
 10
12.22603
 20
-0.322328
 30
0.0
 40
0.911777
 50
92.356125
 51
133.401906
  0
ARC
  8
0
 10
18.648608
 20
18.8457
 30
0.0
 40
2.346793
 50
0.286629
 51
88.126529
  0
ATTDEF
  8
0
 10
0.0
 20
0.0
 30
0.0
 40
0.001
  1
K-700
  3

  2
MODELNUMBER
 70
     8
  0
ATTDEF
  8
0
 10
0.0
 20
-0.0017
 30
0.0
 40
0.001
  1
VINTAGE
  3

  2
TRADENAME
 70
     8
  0
ATTDEF
  8
0
 10
0.0
 20
-0.0034
 30
0.0
 40
0.001
  1
BATH
  3

  2
PRODUCT
 70
     8
  0
ATTDEF
  8
0
 10
0.0
 20
-0.0051
 30
0.0
 40
0.001
  1
CAST IRON
  3

  2
MATERIAL
 70
     8
  0
ENDSEC
  0
EOF
