  0
SECTION
  2
HEADER
  9
$ACADVER
  1
AC1009
  9
$INSBASE
 10
0.0
 20
0.0
 30
0.0
  9
$EXTMIN
 10
-1.012429627264418
 20
-0.0051
 30
0.0
  9
$EXTMAX
 10
2.0763032758150159
 20
7.5875000000000012
 30
0.0
  9
$LIMMIN
 10
0.0
 20
0.0
  9
$LIMMAX
 10
0.0
 20
0.0
  9
$ORTHOMODE
 70
     0
  9
$REGENMODE
 70
     1
  9
$FILLMODE
 70
     1
  9
$QTEXTMODE
 70
     0
  9
$MIRRTEXT
 70
     1
  9
$DRAGMODE
 70
     2
  9
$LTSCALE
 40
1.0
  9
$OSMODE
 70
    37
  9
$ATTMODE
 70
     1
  9
$TEXTSIZE
 40
0.0
  9
$TRACEWID
 40
0.05
  9
$TEXTSTYLE
  7
STANDARD
  9
$CLAYER
  8
0
  9
$CELTYPE
  6
CONTINUOUS
  9
$CECOLOR
 62
   256
  9
$DIMSCALE
 40
96.0
  9
$DIMASZ
 40
0.2362204724409449
  9
$DIMEXO
 40
0.0393700787401575
  9
$DIMDLI
 40
0.38
  9
$DIMRND
 40
0.0
  9
$DIMDLE
 40
0.0393700787401575
  9
$DIMEXE
 40
0.18
  9
$DIMTP
 40
0.0
  9
$DIMTM
 40
0.0
  9
$DIMTXT
 40
0.25
  9
$DIMCEN
 40
0.09
  9
$DIMTSZ
 40
0.0
  9
$DIMTOL
 70
     0
  9
$DIMLIM
 70
     0
  9
$DIMTIH
 70
     1
  9
$DIMTOH
 70
     1
  9
$DIMSE1
 70
     0
  9
$DIMSE2
 70
     0
  9
$DIMTAD
 70
     1
  9
$DIMZIN
 70
     0
  9
$DIMBLK
  1

  9
$DIMASO
 70
     1
  9
$DIMSHO
 70
     1
  9
$DIMPOST
  1

  9
$DIMAPOST
  1

  9
$DIMALT
 70
     0
  9
$DIMALTD
 70
     2
  9
$DIMALTF
 40
25.399999999999999
  9
$DIMLFAC
 40
1.0
  9
$DIMTOFL
 70
     0
  9
$DIMTVP
 40
0.0
  9
$DIMTIX
 70
     0
  9
$DIMSOXD
 70
     0
  9
$DIMSAH
 70
     0
  9
$DIMBLK1
  1

  9
$DIMBLK2
  1

  9
$DIMSTYLE
  2
STANDARD
  9
$DIMCLRD
 70
     0
  9
$DIMCLRE
 70
     0
  9
$DIMCLRT
 70
     0
  9
$DIMTFAC
 40
1.0
  9
$DIMGAP
 40
0.0393700787401575
  9
$LUNITS
 70
     2
  9
$LUPREC
 70
     3
  9
$SKETCHINC
 40
0.1
  9
$FILLETRAD
 40
0.0
  9
$AUNITS
 70
     0
  9
$AUPREC
 70
     2
  9
$MENU
  1
acad
  9
$ELEVATION
 40
0.0
  9
$PELEVATION
 40
0.0
  9
$THICKNESS
 40
0.0
  9
$LIMCHECK
 70
     0
  9
$BLIPMODE
 70
     0
  9
$CHAMFERA
 40
0.0
  9
$CHAMFERB
 40
0.0
  9
$SKPOLY
 70
     0
  9
$TDCREATE
 40
2444971.75
  9
$TDUPDATE
 40
2453417.6592001161
  9
$TDINDWG
 40
0.0201879282
  9
$TDUSRTIMER
 40
0.0201879282
  9
$USRTIMER
 70
     1
  9
$ANGBASE
 50
0.0
  9
$ANGDIR
 70
     0
  9
$PDMODE
 70
     0
  9
$PDSIZE
 40
-1.0
  9
$PLINEWID
 40
0.0
  9
$COORDS
 70
     1
  9
$SPLFRAME
 70
     0
  9
$SPLINETYPE
 70
     6
  9
$SPLINESEGS
 70
     8
  9
$ATTDIA
 70
     0
  9
$ATTREQ
 70
     1
  9
$HANDLING
 70
     1
  9
$HANDSEED
  5
1EF
  9
$SURFTAB1
 70
     6
  9
$SURFTAB2
 70
     6
  9
$SURFTYPE
 70
     6
  9
$SURFU
 70
     6
  9
$SURFV
 70
     6
  9
$UCSNAME
  2

  9
$UCSORG
 10
0.0
 20
0.0
 30
0.0
  9
$UCSXDIR
 10
1.0
 20
0.0
 30
0.0
  9
$UCSYDIR
 10
0.0
 20
1.0
 30
0.0
  9
$PUCSNAME
  2

  9
$PUCSORG
 10
0.0
 20
0.0
 30
0.0
  9
$PUCSXDIR
 10
1.0
 20
0.0
 30
0.0
  9
$PUCSYDIR
 10
0.0
 20
1.0
 30
0.0
  9
$USERI1
 70
     0
  9
$USERI2
 70
     0
  9
$USERI3
 70
     0
  9
$USERI4
 70
     0
  9
$USERI5
 70
     0
  9
$USERR1
 40
0.0
  9
$USERR2
 40
0.0
  9
$USERR3
 40
0.0
  9
$USERR4
 40
0.0
  9
$USERR5
 40
0.0
  9
$WORLDVIEW
 70
     1
  9
$SHADEDGE
 70
     3
  9
$SHADEDIF
 70
    70
  9
$TILEMODE
 70
     1
  9
$MAXACTVP
 70
    16
  9
$PLIMCHECK
 70
     0
  9
$PEXTMIN
 10
1.0000000000000000E+020
 20
1.0000000000000000E+020
 30
1.0000000000000000E+020
  9
$PEXTMAX
 10
-1.0000000000000000E+020
 20
-1.0000000000000000E+020
 30
-1.0000000000000000E+020
  9
$PLIMMIN
 10
0.0
 20
0.0
  9
$PLIMMAX
 10
12.0
 20
9.0
  9
$UNITMODE
 70
     0
  9
$VISRETAIN
 70
     0
  9
$PLINEGEN
 70
     1
  9
$PSLTSCALE
 70
     1
  0
ENDSEC
  0
SECTION
  2
TABLES
  0
TABLE
  2
VPORT
 70
     2
  0
VPORT
  2
*ACTIVE
 70
     0
 10
0.0
 20
0.0
 11
1.0
 21
1.0
 12
0.5319969053155802
 22
4.5505365493828558
 13
0.0
 23
0.0
 14
1.0
 24
1.0
 15
0.0
 25
0.0
 16
0.0
 26
0.0
 36
1.0
 17
0.0
 27
0.0
 37
0.0
 40
9.1887277216031986
 41
1.9608247422680409
 42
50.0
 43
0.0
 44
0.0
 50
0.0
 51
0.0
 71
     0
 72
  2000
 73
     1
 74
     1
 75
     0
 76
     0
 77
     0
 78
     0
  0
ENDTAB
  0
TABLE
  2
LTYPE
 70
     1
  0
LTYPE
  2
CONTINUOUS
 70
     0
  3
Solid line
 72
    65
 73
     0
 40
0.0
  0
ENDTAB
  0
TABLE
  2
LAYER
 70
     1
  0
LAYER
  2
0
 70
     0
 62
     7
  6
CONTINUOUS
  0
ENDTAB
  0
TABLE
  2
STYLE
 70
     1
  0
STYLE
  2
STANDARD
 70
     0
 40
0.0
 41
1.0
 50
0.0
 71
     0
 42
0.0
  3
txt
  4

  0
ENDTAB
  0
TABLE
  2
VIEW
 70
     0
  0
ENDTAB
  0
TABLE
  2
UCS
 70
     0
  0
ENDTAB
  0
TABLE
  2
APPID
 70
     2
  0
APPID
  2
ACAD
 70
     0
  0
APPID
  2
DCO15
 70
     0
  0
ENDTAB
  0
TABLE
  2
DIMSTYLE
 70
     1
  0
DIMSTYLE
  2
STANDARD
 70
     0
  3

  4

  5

  6

  7

 40
1.0
 41
0.18
 42
0.0625
 43
0.38
 44
0.18
 45
0.0
 46
0.0
 47
0.0
 48
0.0
140
0.18
141
0.09
142
0.0
143
25.399999999999999
144
1.0
145
0.0
146
1.0
147
0.09
 71
     0
 72
     0
 73
     1
 74
     1
 75
     0
 76
     0
 77
     0
 78
     0
170
     0
171
     2
172
     0
173
     0
174
     0
175
     0
176
     0
177
     0
178
     0
  0
ENDTAB
  0
ENDSEC
  0
SECTION
  2
BLOCKS
  0
BLOCK
  8
0
  2
$MODEL_SPACE
 70
     0
 10
0.0
 20
0.0
 30
0.0
  3
$MODEL_SPACE
  1

  0
ENDBLK
  5
56
  8
0
  0
BLOCK
 67
     1
  8
0
  2
$PAPER_SPACE
 70
     0
 10
0.0
 20
0.0
 30
0.0
  3
$PAPER_SPACE
  1

  0
ENDBLK
  5
5B
 67
     1
  8
0
  0
ENDSEC
  0
SECTION
  2
ENTITIES
  0
ARC
  5
B
  8
0
 10
-0.3422391951642916
 20
5.3945402970145224
 30
0.0
 40
0.0502608048357084
 50
98.26174982090815
 51
270.0000000000008
  0
ARC
  5
C
  8
0
 10
0.3422391951642916
 20
5.3945402970145224
 30
0.0
 40
0.0502608048357084
 50
270.0000000000008
 51
81.738250179091864
  0
ARC
  5
D
  8
0
 10
-0.1327354048940328
 20
5.587483773456924
 30
0.0
 40
0.2597645951059668
 50
133.79092560304079
 51
213.45520256372211
  0
ARC
  5
E
  8
0
 10
0.1327354048940328
 20
5.587483773456924
 30
0.0
 40
0.2597645951059668
 50
326.54479743627962
 51
46.209074396959181
  0
ARC
  5
F
  8
0
 10
0.0
 20
7.2750000000000012
 30
0.0
 40
0.3125
 50
0.0
 51
180.0000000000004
  0
LINE
  5
10
  8
0
 10
-0.3125
 20
7.2750000000000012
 30
0.0
 11
-0.3125000000000004
 21
5.7750000000000012
 31
0.0
  0
LINE
  5
11
  8
0
 10
0.3125
 20
5.7750000000000012
 30
0.0
 11
0.3125
 21
7.2750000000000012
 31
0.0
  0
ARC
  5
12
  8
0
 10
0.9
 20
0.135096308989084
 30
0.0
 40
0.1000000000000006
 50
0.0
 51
62.580502108446879
  0
ARC
  5
13
  8
0
 10
-0.8999999999999994
 20
0.135096308989084
 30
0.0
 40
0.100000000000001
 50
117.41949789155341
 51
180.0000000000004
  0
LINE
  5
14
  8
0
 10
-1.0
 20
0.135096308989084
 30
0.0
 11
-1.0
 21
0.0
 31
0.0
  0
LINE
  5
15
  8
0
 10
1.0
 20
0.0
 30
0.0
 11
1.0
 21
0.135096308989084
 31
0.0
  0
ARC
  5
16
  8
0
 10
-1.1648260261280019
 20
0.6455722513946088
 30
0.0
 40
0.4750813089377518
 50
297.41949789155501
 51
358.12161810851887
  0
ARC
  5
17
  8
0
 10
1.1648260261280019
 20
0.6455722513946088
 30
0.0
 40
0.475081308937752
 50
181.87838189148269
 51
242.58050210844661
  0
ARC
  5
18
  8
0
 10
-75.089999999999307
 20
3.0700000000000061
 30
0.0
 40
74.439999999999316
 50
358.1216181085295
 51
0.0
  0
ARC
  5
19
  8
0
 10
75.089999999999321
 20
3.0700000000000061
 30
0.0
 40
74.439999999999316
 50
180.0000000000004
 51
180.61676470776911
  0
ARC
  5
1A
  8
0
 10
75.089999999999321
 20
3.0700000000000061
 30
0.0
 40
74.43999999999933
 50
181.6154638969015
 51
181.8783818914722
  0
ARC
  5
1B
  8
0
 10
-0.407174096708896
 20
3.069999999999999
 30
0.0
 40
0.2428259032911044
 50
98.294662221894697
 51
180.0000000000004
  0
ARC
  5
1C
  8
0
 10
0.4071740967088964
 20
3.069999999999999
 30
0.0
 40
0.2428259032911041
 50
0.0
 51
81.705337778105402
  0
ARC
  5
1D
  8
0
 10
1.0399999999999989
 20
1.370000000000001
 30
0.0
 40
0.4000000000000004
 50
270.0000000000008
 51
0.0
  0
ARC
  5
1E
  8
0
 10
1.0399999999999989
 20
1.8700000000000001
 30
0.0
 40
0.4000000000000004
 50
0.0
 51
90.0
  0
LINE
  5
1F
  8
0
 10
0.6782703512296902
 20
0.9700000344768291
 30
0.0
 11
1.0399999999999989
 21
0.9700000000000015
 31
0.0
  0
LINE
  5
20
  8
0
 10
1.0399999999999989
 20
2.2700000000000009
 30
0.0
 11
0.6529936698947365
 21
2.270000070098817
 31
0.0
  0
LINE
  5
21
  8
0
 10
0.4422051363102933
 20
3.3102857581580429
 30
0.0
 11
0.3682044034584901
 21
3.3210742569144238
 31
0.0
  0
LINE
  5
22
  8
0
 10
-0.3682044034584897
 20
3.3210742569144238
 30
0.0
 11
-0.4422051363102933
 21
3.3102857581580429
 31
0.0
  0
LINE
  5
23
  8
0
 10
0.3682044034584919
 20
3.374754438119667
 30
0.0
 11
0.3125
 21
3.392774952949591
 31
0.0
  0
LINE
  5
24
  8
0
 10
-0.3125000000000004
 20
3.392774952949591
 30
0.0
 11
-0.3682044034584919
 21
3.374754438119667
 31
0.0
  0
LINE
  5
25
  8
0
 10
-0.3682044034584919
 20
3.374754438119667
 30
0.0
 11
-0.3682044034584897
 21
3.3210742569144238
 31
0.0
  0
LINE
  5
26
  8
0
 10
0.3682044034584901
 20
3.3210742569144238
 30
0.0
 11
0.3682044034584919
 21
3.374754438119667
 31
0.0
  0
ARC
  5
27
  8
0
 10
1.77
 20
1.6200000000000001
 30
0.0
 40
0.3559999999999996
 50
202.033252119894
 51
321.86118715165571
  0
ARC
  5
28
  8
0
 10
1.77
 20
1.6200000000000001
 30
0.0
 40
0.3560000000000003
 50
117.43061820050799
 51
157.96674788010651
  0
ARC
  5
29
  8
0
 10
1.77
 20
1.6200000000000001
 30
0.0
 40
0.3560000000000003
 50
38.138812848345211
 51
62.569381799491971
  0
LINE
  5
2A
  8
0
 10
0.3125
 20
3.392774952949591
 30
0.0
 11
0.3125000099732182
 21
5.3442797557575501
 31
0.0
  0
LINE
  5
2B
  8
0
 10
-0.3125000099732182
 20
5.3442797557575501
 30
0.0
 11
-0.3125000000000004
 21
3.392774952949591
 31
0.0
  0
ARC
  5
2C
  8
0
 10
1.77
 20
3.508
 30
0.0
 40
0.2890000000000005
 50
318.79221582510849
 51
0.0
  0
ARC
  5
2D
  8
0
 10
1.77
 20
3.508
 30
0.0
 40
0.2890000000000005
 50
0.0
 51
221.20778417489311
  0
ARC
  5
2E
  8
0
 10
1.936943198881121
 20
3.2514272664203521
 30
0.0
 40
0.0832355866392559
 50
356.2439873463955
 51
52.666204765274223
  0
ARC
  5
2F
  8
0
 10
1.6030568011188779
 20
3.2514272664203521
 30
0.0
 40
0.0832355866392558
 50
127.3337952347258
 51
183.75601265360609
  0
LINE
  5
30
  8
0
 10
1.52
 20
3.2459746825301039
 30
0.0
 11
1.605999999999999
 21
1.9359746825301041
 31
0.0
  0
LINE
  5
31
  8
0
 10
1.9339999999999999
 20
1.9359746825301041
 30
0.0
 11
2.02
 21
3.2459746825301039
 31
0.0
  0
LINE
  5
32
  8
0
 10
0.0
 20
5.3442794921788153
 30
0.0
 11
0.3422391951642916
 21
5.3442794921788153
 31
0.0
  0
LINE
  5
33
  8
0
 10
-0.3422391951642916
 20
5.3442794921788153
 30
0.0
 11
0.0
 21
5.3442794921788153
 31
0.0
  0
LINE
  5
34
  8
0
 10
0.0
 20
5.4442794921788131
 30
0.0
 11
0.3494614501543722
 21
5.4442794921788131
 31
0.0
  0
LINE
  5
35
  8
0
 10
-0.3494614501543722
 20
5.4442794921788131
 30
0.0
 11
0.0
 21
5.4442794921788131
 31
0.0
  0
LINE
  5
36
  8
0
 10
0.3125
 20
5.7750000000000012
 30
0.0
 11
-0.3125000000000004
 21
5.7750000000000012
 31
0.0
  0
LINE
  5
37
  8
0
 10
0.0
 20
0.2238621816529767
 30
0.0
 11
0.9460501883841717
 21
0.2238621816529767
 31
0.0
  0
LINE
  5
38
  8
0
 10
-0.9460501883841718
 20
0.2238621816529767
 30
0.0
 11
0.0
 21
0.2238621816529767
 31
0.0
  0
LINE
  5
39
  8
0
 10
1.0
 20
0.135096308989084
 30
0.0
 11
-1.0
 21
0.135096308989084
 31
0.0
  0
LINE
  5
3A
  8
0
 10
0.0
 20
0.0
 30
0.0
 11
1.0
 21
0.0
 31
0.0
  0
LINE
  5
3B
  8
0
 10
-1.0
 20
0.0
 30
0.0
 11
0.0
 21
0.0
 31
0.0
  0
LINE
  5
3C
  8
0
 10
0.0
 20
0.6300000000000008
 30
0.0
 11
0.6899999999999995
 21
0.6300000000000008
 31
0.0
  0
LINE
  5
3D
  8
0
 10
-0.6899999999999995
 20
0.6300000000000008
 30
0.0
 11
0.0
 21
0.6300000000000008
 31
0.0
  0
POLYLINE
  5
3E
  8
0
 66
     1
 10
0.0
 20
0.0
 30
0.0
 70
   128
  0
VERTEX
  5
1CE
  8
0
 10
0.6529936698947365
 20
2.2686721654388862
 30
0.0
  0
VERTEX
  5
1CF
  8
0
 10
0.6531444414863437
 20
2.2688260169949119
 30
0.0
  0
VERTEX
  5
1D0
  8
0
 10
0.643470639905592
 20
2.2589767307747071
 30
0.0
  0
VERTEX
  5
1D1
  8
0
 10
0.6253019297920816
 20
2.2404618913263792
 30
0.0
  0
VERTEX
  5
1D2
  8
0
 10
0.5996100765865619
 20
2.2142332076557052
 30
0.0
  0
VERTEX
  5
1D3
  8
0
 10
0.5532170125231968
 20
2.1667156632490991
 30
0.0
  0
VERTEX
  5
1D4
  8
0
 10
0.497574778640364
 20
2.10937112569809
 30
0.0
  0
VERTEX
  5
1D5
  8
0
 10
0.4106693659124412
 20
2.0187829188474531
 30
0.0
  0
VERTEX
  5
1D6
  8
0
 10
0.3168502763852361
 20
1.9178642180022301
 30
0.0
  0
VERTEX
  5
1D7
  8
0
 10
0.2576581635109085
 20
1.851143535431915
 30
0.0
  0
VERTEX
  5
1D8
  8
0
 10
0.200582737851096
 20
1.7799215581942729
 30
0.0
  0
VERTEX
  5
1D9
  8
0
 10
0.1558933157737798
 20
1.7093331736373161
 30
0.0
  0
VERTEX
  5
1DA
  8
0
 10
0.1377262923074518
 20
1.656676488598501
 30
0.0
  0
VERTEX
  5
1DB
  8
0
 10
0.1374720027450267
 20
1.6104630891263021
 30
0.0
  0
VERTEX
  5
1DC
  8
0
 10
0.1568191200788096
 20
1.5544554027985411
 30
0.0
  0
VERTEX
  5
1DD
  8
0
 10
0.2039313925004849
 20
1.4803835784825761
 30
0.0
  0
VERTEX
  5
1DE
  8
0
 10
0.2590864420113133
 20
1.4130925158346741
 30
0.0
  0
VERTEX
  5
1DF
  8
0
 10
0.3355739667542337
 20
1.3269023515108069
 30
0.0
  0
VERTEX
  5
1E0
  8
0
 10
0.4113675278472151
 20
1.245950326675505
 30
0.0
  0
VERTEX
  5
1E1
  8
0
 10
0.4832081379383566
 20
1.1712057501312321
 30
0.0
  0
VERTEX
  5
1E2
  8
0
 10
0.5454087527248804
 20
1.107015331664424
 30
0.0
  0
VERTEX
  5
1E3
  8
0
 10
0.5994653182588224
 20
1.051641384682318
 30
0.0
  0
VERTEX
  5
1E4
  8
0
 10
0.6348662459709514
 20
1.015525795226023
 30
0.0
  0
VERTEX
  5
1E5
  8
0
 10
0.6611155360702457
 20
0.9888115038317968
 30
0.0
  0
VERTEX
  5
1E6
  8
0
 10
0.6762873674706214
 20
0.9733910019707501
 30
0.0
  0
VERTEX
  5
1E7
  8
0
 10
0.678270644559635
 20
0.9713773652324536
 30
0.0
  0
SEQEND
  5
1E8
  8
0
  0
LINE
  5
3F
  8
0
 10
0.0
 20
3.0700000000000061
 30
0.0
 11
0.6500000000000008
 21
3.0700000000000061
 31
0.0
  0
LINE
  5
40
  8
0
 10
-0.6500000000000008
 20
3.0700000000000061
 30
0.0
 11
0.0
 21
3.0700000000000061
 31
0.0
  0
LINE
  5
41
  8
0
 10
0.0
 20
3.3102857581580429
 30
0.0
 11
0.4422051363102933
 21
3.3102857581580429
 31
0.0
  0
LINE
  5
42
  8
0
 10
-0.4422051363102933
 20
3.3102857581580429
 30
0.0
 11
0.0
 21
3.3102857581580429
 31
0.0
  0
LINE
  5
43
  8
0
 10
1.4399999999999991
 20
1.6200000000000001
 30
0.0
 11
1.4399999999999991
 21
1.8700000000000001
 31
0.0
  0
LINE
  5
44
  8
0
 10
1.4399999999999991
 20
1.370000000000001
 30
0.0
 11
1.4399999999999991
 21
1.6200000000000001
 31
0.0
  0
LINE
  5
45
  8
0
 10
1.0399999999999989
 20
1.6200000000000001
 30
0.0
 11
1.0399999999999989
 21
2.2700000000000009
 31
0.0
  0
LINE
  5
46
  8
0
 10
1.0399999999999989
 20
0.9700000000000015
 30
0.0
 11
1.0399999999999989
 21
1.6200000000000001
 31
0.0
  0
LINE
  5
47
  8
0
 10
0.0
 20
3.3210742569144238
 30
0.0
 11
0.3682044034584901
 21
3.3210742569144238
 31
0.0
  0
LINE
  5
48
  8
0
 10
-0.3682044034584897
 20
3.3210742569144238
 30
0.0
 11
0.0
 21
3.3210742569144238
 31
0.0
  0
LINE
  5
49
  8
0
 10
0.3125
 20
3.392774952949591
 30
0.0
 11
-0.3125000000000004
 21
3.392774952949591
 31
0.0
  0
LINE
  5
4A
  8
0
 10
0.0
 20
3.374754438119667
 30
0.0
 11
0.3682044034584919
 21
3.374754438119667
 31
0.0
  0
LINE
  5
4B
  8
0
 10
-0.3682044034584919
 20
3.374754438119667
 30
0.0
 11
0.0
 21
3.374754438119667
 31
0.0
  0
LINE
  5
4C
  8
0
 10
1.9339999999999999
 20
1.9359746825301041
 30
0.0
 11
1.605999999999999
 21
1.9359746825301041
 31
0.0
  0
LINE
  5
4D
  8
0
 10
2.0499999999999989
 20
1.6200000000000001
 30
0.0
 11
2.0499999999999989
 21
1.4001455026614209
 31
0.0
  0
LINE
  5
4E
  8
0
 10
2.0499999999999989
 20
1.83985449733858
 30
0.0
 11
2.0499999999999989
 21
1.6200000000000001
 31
0.0
  0
LINE
  5
4F
  8
0
 10
1.9874220442828909
 20
3.3176092054225088
 30
0.0
 11
1.552577955717108
 21
3.3176092054225088
 31
0.0
  0
LINE
  5
50
  8
0
 10
2.02
 20
3.2459746825301039
 30
0.0
 11
1.52
 21
3.2459746825301039
 31
0.0
  0
ATTDEF
  5
51
  8
0
 62
     7
 10
0.0
 20
0.0
 30
0.0
 40
0.001
  1
K-6666
  3

  2
MODELNUMBER
 70
     8
  0
ATTDEF
  5
53
  8
0
 62
     7
 10
0.0
 20
-0.0017
 30
0.0
 40
0.001
  1
Wellspring
  3

  2
TRADENAME
 70
     8
  0
ATTDEF
  5
54
  8
0
 62
     7
 10
0.0
 20
-0.0034
 30
0.0
 40
0.001
  1
Faucets
  3

  2
PRODUCT
 70
     8
  0
ATTDEF
  5
55
  8
0
 62
     7
 10
0.0
 20
-0.0051
 30
0.0
 40
0.001
  1
Brass
  3

  2
MATERIAL
 70
     8
  0
ENDSEC
  0
EOF
