  0
SECTION
  2
HEADER
  9
$ACADVER
  1
AC1009
  9
$DWGCODEPAGE
  3
ansi_1252
  9
$INSBASE
 10
0.0
 20
0.0
 30
0.0
  9
$EXTMIN
 10
1.000000000000000E+20
 20
1.000000000000000E+20
 30
1.000000000000000E+20
  9
$EXTMAX
 10
0.0
 20
0.0
 30
0.0
  9
$LIMMIN
 10
0.0
 20
0.0
  9
$LIMMAX
 10
144.0
 20
108.0
  9
$ORTHOMODE
 70
     1
  9
$REGENMODE
 70
     1
  9
$FILLMODE
 70
     1
  9
$QTEXTMODE
 70
     0
  9
$MIRRTEXT
 70
     1
  9
$DRAGMODE
 70
     2
  9
$LTSCALE
 40
4.0
  9
$OSMODE
 70
    37
  9
$ATTMODE
 70
     1
  9
$TEXTSIZE
 40
0.003
  9
$TRACEWID
 40
0.05
  9
$TEXTSTYLE
  7
STANDARD
  9
$CLAYER
  8
0
  9
$CELTYPE
  6
CONTINUOUS
  9
$CECOLOR
 62
   256
  9
$DIMSCALE
 40
1.0
  9
$DIMASZ
 40
0.18
  9
$DIMEXO
 40
0.0625
  9
$DIMDLI
 40
0.38
  9
$DIMRND
 40
0.0
  9
$DIMDLE
 40
0.0
  9
$DIMEXE
 40
0.18
  9
$DIMTP
 40
0.0
  9
$DIMTM
 40
0.0
  9
$DIMTXT
 40
0.18
  9
$DIMCEN
 40
0.09
  9
$DIMTSZ
 40
0.0
  9
$DIMTOL
 70
     0
  9
$DIMLIM
 70
     0
  9
$DIMTIH
 70
     1
  9
$DIMTOH
 70
     1
  9
$DIMSE1
 70
     0
  9
$DIMSE2
 70
     0
  9
$DIMTAD
 70
     0
  9
$DIMZIN
 70
     0
  9
$DIMBLK
  1

  9
$DIMASO
 70
     1
  9
$DIMSHO
 70
     1
  9
$DIMPOST
  1

  9
$DIMAPOST
  1

  9
$DIMALT
 70
     0
  9
$DIMALTD
 70
     2
  9
$DIMALTF
 40
25.4
  9
$DIMLFAC
 40
1.0
  9
$DIMTOFL
 70
     0
  9
$DIMTVP
 40
0.0
  9
$DIMTIX
 70
     0
  9
$DIMSOXD
 70
     0
  9
$DIMSAH
 70
     0
  9
$DIMBLK1
  1

  9
$DIMBLK2
  1

  9
$DIMSTYLE
  2
STANDARD
  9
$DIMCLRD
 70
     0
  9
$DIMCLRE
 70
     0
  9
$DIMCLRT
 70
     0
  9
$DIMTFAC
 40
1.0
  9
$DIMGAP
 40
0.09
  9
$LUNITS
 70
     2
  9
$LUPREC
 70
     4
  9
$SKETCHINC
 40
0.1
  9
$FILLETRAD
 40
0.0
  9
$AUNITS
 70
     0
  9
$AUPREC
 70
     0
  9
$MENU
  1
acad
  9
$ELEVATION
 40
0.0
  9
$PELEVATION
 40
0.0
  9
$THICKNESS
 40
0.0
  9
$LIMCHECK
 70
     0
  9
$CHAMFERA
 40
0.0
  9
$CHAMFERB
 40
0.0
  9
$SKPOLY
 70
     0
  9
$TDCREATE
 40
2453706.651347789
  9
$TDUPDATE
 40
2453706.656332801
  9
$TDINDWG
 40
0.0049850116
  9
$TDUSRTIMER
 40
0.0049850116
  9
$USRTIMER
 70
     1
  9
$ANGBASE
 50
0.0
  9
$ANGDIR
 70
     0
  9
$PDMODE
 70
     3
  9
$PDSIZE
 40
-2.0
  9
$PLINEWID
 40
0.0
  9
$COORDS
 70
     1
  9
$SPLFRAME
 70
     0
  9
$SPLINETYPE
 70
     6
  9
$SPLINESEGS
 70
     8
  9
$ATTDIA
 70
     0
  9
$ATTREQ
 70
     1
  9
$HANDLING
 70
     1
  9
$HANDSEED
  5
151
  9
$SURFTAB1
 70
     6
  9
$SURFTAB2
 70
     6
  9
$SURFTYPE
 70
     6
  9
$SURFU
 70
     6
  9
$SURFV
 70
     6
  9
$UCSNAME
  2

  9
$UCSORG
 10
0.0
 20
0.0
 30
0.0
  9
$UCSXDIR
 10
1.0
 20
0.0
 30
0.0
  9
$UCSYDIR
 10
0.0
 20
1.0
 30
0.0
  9
$PUCSNAME
  2

  9
$PUCSORG
 10
0.0
 20
0.0
 30
0.0
  9
$PUCSXDIR
 10
1.0
 20
0.0
 30
0.0
  9
$PUCSYDIR
 10
0.0
 20
1.0
 30
0.0
  9
$USERI1
 70
     0
  9
$USERI2
 70
     0
  9
$USERI3
 70
     0
  9
$USERI4
 70
     0
  9
$USERI5
 70
     0
  9
$USERR1
 40
0.0
  9
$USERR2
 40
0.0
  9
$USERR3
 40
0.0
  9
$USERR4
 40
0.0
  9
$USERR5
 40
0.0
  9
$WORLDVIEW
 70
     1
  9
$SHADEDGE
 70
     3
  9
$SHADEDIF
 70
    70
  9
$TILEMODE
 70
     1
  9
$MAXACTVP
 70
    16
  9
$PLIMCHECK
 70
     0
  9
$PEXTMIN
 10
1.000000000000000E+20
 20
1.000000000000000E+20
 30
1.000000000000000E+20
  9
$PEXTMAX
 10
-1.000000000000000E+20
 20
-1.000000000000000E+20
 30
-1.000000000000000E+20
  9
$PLIMMIN
 10
0.0
 20
0.0
  9
$PLIMMAX
 10
12.0
 20
9.0
  9
$UNITMODE
 70
     0
  9
$VISRETAIN
 70
     0
  9
$PLINEGEN
 70
     1
  9
$PSLTSCALE
 70
     0
  0
ENDSEC
  0
SECTION
  2
TABLES
  0
TABLE
  2
VPORT
 70
     1
  0
VPORT
  2
*ACTIVE
 70
     0
 10
0.0
 20
0.0
 11
1.0
 21
1.0
 12
-0.2598116682423754
 22
-0.5605193860142315
 13
0.0
 23
0.0
 14
1.0
 24
1.0
 15
0.0
 25
0.0
 16
0.0
 26
0.0
 36
1.0
 17
0.0
 27
0.0
 37
0.0
 40
16.55080323158395
 41
1.516042780748663
 42
50.0
 43
0.0
 44
0.0
 50
0.0
 51
0.0
 71
     0
 72
   100
 73
     1
 74
     1
 75
     0
 76
     0
 77
     0
 78
     0
  0
ENDTAB
  0
TABLE
  2
LTYPE
 70
     1
  0
LTYPE
  2
CONTINUOUS
 70
     0
  3
Solid line
 72
    65
 73
     0
 40
0.0
  0
ENDTAB
  0
TABLE
  2
LAYER
 70
     1
  0
LAYER
  2
0
 70
     0
 62
     7
  6
CONTINUOUS
  0
ENDTAB
  0
TABLE
  2
STYLE
 70
     1
  0
STYLE
  2
STANDARD
 70
     0
 40
0.0
 41
1.0
 50
0.0
 71
     0
 42
0.003
  3
txt
  4

  0
ENDTAB
  0
TABLE
  2
VIEW
 70
     0
  0
ENDTAB
  0
TABLE
  2
UCS
 70
     0
  0
ENDTAB
  0
TABLE
  2
APPID
 70
     1
  0
APPID
  2
ACAD
 70
     0
  0
ENDTAB
  0
TABLE
  2
DIMSTYLE
 70
     1
  0
DIMSTYLE
  2
STANDARD
 70
     0
  3

  4

  5

  6

  7

 40
1.0
 41
0.18
 42
0.0625
 43
0.38
 44
0.18
 45
0.0
 46
0.0
 47
0.0
 48
0.0
140
0.18
141
0.09
142
0.0
143
25.4
144
1.0
145
0.0
146
1.0
147
0.09
 71
     0
 72
     0
 73
     1
 74
     1
 75
     0
 76
     0
 77
     0
 78
     0
170
     0
171
     2
172
     0
173
     0
174
     0
175
     0
176
     0
177
     0
178
     0
  0
ENDTAB
  0
ENDSEC
  0
SECTION
  2
BLOCKS
  0
BLOCK
  8
0
  2
$MODEL_SPACE
 70
     2
 10
0.0
 20
0.0
 30
0.0
  3
$MODEL_SPACE
  1

  0
ENDBLK
  5
9
  8
0
  0
BLOCK
 67
     1
  8
0
  2
$PAPER_SPACE
 70
     0
 10
0.0
 20
0.0
 30
0.0
  3
$PAPER_SPACE
  1

  0
ENDBLK
  5
E
 67
     1
  8
0
  0
ENDSEC
  0
SECTION
  2
ENTITIES
  0
POLYLINE
  5
24
  8
0
 66
     1
 10
0.0
 20
0.0
 30
0.0
  0
VERTEX
  5
61
  8
0
 10
3.324555049793844
 20
-4.468555232395829
 30
0.0
  0
VERTEX
  5
62
  8
0
 10
-1.123808155775668
 20
-4.472372859253144
 30
0.0
  0
VERTEX
  5
63
  8
0
 10
-3.347437812509084
 20
-4.450858462133208
 30
0.0
  0
VERTEX
  5
64
  8
0
 10
-5.570791496216818
 20
-4.390362875143918
 30
0.0
  0
SEQEND
  5
65
  8
0
  0
POLYLINE
  5
25
  8
0
 66
     1
 10
0.0
 20
0.0
 30
0.0
  0
VERTEX
  5
66
  8
0
 10
-5.368963224299037
 20
-4.253296272337224
 30
0.0
  0
VERTEX
  5
67
  8
0
 10
-5.622363956250625
 20
-4.22973507526987
 30
0.0
  0
VERTEX
  5
68
  8
0
 10
-6.022651331131291
 20
-4.198377640225092
 30
0.0
  0
VERTEX
  5
69
  8
0
 10
-6.359464910152006
 20
-4.184268519279116
 30
0.0
  0
VERTEX
  5
6A
  8
0
 10
-6.438331389093316
 20
-4.191508499116999
 30
0.0
  0
VERTEX
  5
6B
  8
0
 10
-6.422444254523752
 20
-4.212452264508165
 30
0.0
  0
SEQEND
  5
6C
  8
0
  0
POLYLINE
  5
26
  8
0
 66
     1
 10
0.0
 20
0.0
 30
0.0
  0
VERTEX
  5
6D
  8
0
 10
-5.599308709763449
 20
-4.486401488058789
 30
0.0
  0
VERTEX
  5
6E
  8
0
 10
-5.586906453242006
 20
-4.440288838977141
 30
0.0
  0
VERTEX
  5
6F
  8
0
 10
-5.570670758910992
 20
-4.399372244519264
 30
0.0
  0
VERTEX
  5
70
  8
0
 10
-5.550597314691879
 20
-4.363656016763684
 30
0.0
  0
VERTEX
  5
71
  8
0
 10
-5.526681808506146
 20
-4.333144467788928
 30
0.0
  0
VERTEX
  5
72
  8
0
 10
-5.498919928275265
 20
-4.307841909673518
 30
0.0
  0
VERTEX
  5
73
  8
0
 10
-5.467307361920711
 20
-4.287752654495982
 30
0.0
  0
VERTEX
  5
74
  8
0
 10
-5.431839797363961
 20
-4.272881014334846
 30
0.0
  0
VERTEX
  5
75
  8
0
 10
-5.392512922526486
 20
-4.263231301268635
 30
0.0
  0
SEQEND
  5
76
  8
0
  0
POLYLINE
  5
27
  8
0
 66
     1
 10
0.0
 20
0.0
 30
0.0
  0
VERTEX
  5
77
  8
0
 10
-7.711422266577685
 20
-2.856872762213527
 30
0.0
  0
VERTEX
  5
78
  8
0
 10
-7.692968906194548
 20
-2.998146067079758
 30
0.0
  0
VERTEX
  5
79
  8
0
 10
-7.662981813774072
 20
-3.135501309595398
 30
0.0
  0
VERTEX
  5
7A
  8
0
 10
-7.621953644287797
 20
-3.26841403320978
 30
0.0
  0
VERTEX
  5
7B
  8
0
 10
-7.570377052707262
 20
-3.396359781372238
 30
0.0
  0
VERTEX
  5
7C
  8
0
 10
-7.508744694004011
 20
-3.518814097532104
 30
0.0
  0
VERTEX
  5
7D
  8
0
 10
-7.437549223149582
 20
-3.635252525138713
 30
0.0
  0
VERTEX
  5
7E
  8
0
 10
-7.357283295115517
 20
-3.745150607641399
 30
0.0
  0
VERTEX
  5
7F
  8
0
 10
-7.268439564873356
 20
-3.847983888489494
 30
0.0
  0
VERTEX
  5
80
  8
0
 10
-7.171510687394641
 20
-3.943227911132332
 30
0.0
  0
VERTEX
  5
81
  8
0
 10
-7.066989317650912
 20
-4.030358219019247
 30
0.0
  0
VERTEX
  5
82
  8
0
 10
-6.955368110613709
 20
-4.108850355599572
 30
0.0
  0
VERTEX
  5
83
  8
0
 10
-6.837139721254574
 20
-4.17817986432264
 30
0.0
  0
VERTEX
  5
84
  8
0
 10
-6.712796804545048
 20
-4.237822288637787
 30
0.0
  0
VERTEX
  5
85
  8
0
 10
-6.58283201545667
 20
-4.287253171994343
 30
0.0
  0
VERTEX
  5
86
  8
0
 10
-6.447738008960982
 20
-4.325948057841645
 30
0.0
  0
VERTEX
  5
87
  8
0
 10
-6.308007440029525
 20
-4.353382489629023
 30
0.0
  0
SEQEND
  5
88
  8
0
  0
POLYLINE
  5
28
  8
0
 66
     1
 10
0.0
 20
0.0
 30
0.0
  0
VERTEX
  5
89
  8
0
 10
-5.609795684740661
 20
-4.604517943065304
 30
0.0
  0
VERTEX
  5
8A
  8
0
 10
-5.59356789588726
 20
-4.535930022024093
 30
0.0
  0
VERTEX
  5
8B
  8
0
 10
-5.560419510897759
 20
-4.478329277067054
 30
0.0
  0
VERTEX
  5
8C
  8
0
 10
-5.512955025201576
 20
-4.431250003713434
 30
0.0
  0
VERTEX
  5
8D
  8
0
 10
-5.453778934228126
 20
-4.394226497482476
 30
0.0
  0
SEQEND
  5
8E
  8
0
  0
POLYLINE
  5
29
  8
0
 66
     1
 10
0.0
 20
0.0
 30
0.0
  0
VERTEX
  5
8F
  8
0
 10
-5.474568902139751
 20
-4.393490569401024
 30
0.0
  0
VERTEX
  5
90
  8
0
 10
-5.515849867232507
 20
-4.416172102449361
 30
0.0
  0
VERTEX
  5
91
  8
0
 10
-5.552715263914943
 20
-4.447167322895909
 30
0.0
  0
VERTEX
  5
92
  8
0
 10
-5.582612341699953
 20
-4.484716902702256
 30
0.0
  0
VERTEX
  5
93
  8
0
 10
-5.602988350100425
 20
-4.527061513829993
 30
0.0
  0
SEQEND
  5
94
  8
0
  0
POLYLINE
  5
2A
  8
0
 66
     1
 10
0.0
 20
0.0
 30
0.0
  0
VERTEX
  5
95
  8
0
 10
-5.609795684740661
 20
-4.604517943065304
 30
0.0
  0
VERTEX
  5
96
  8
0
 10
-5.604028998391597
 20
-4.570300162598878
 30
0.0
  0
VERTEX
  5
97
  8
0
 10
-5.593881240260166
 20
-4.537479495574853
 30
0.0
  0
VERTEX
  5
98
  8
0
 10
-5.579317913718165
 20
-4.506073190307339
 30
0.0
  0
VERTEX
  5
99
  8
0
 10
-5.560304522137388
 20
-4.476098495110439
 30
0.0
  0
SEQEND
  5
9A
  8
0
  0
POLYLINE
  5
2B
  8
0
 66
     1
 10
0.0
 20
0.0
 30
0.0
  0
VERTEX
  5
9B
  8
0
 10
-5.687436095975471
 20
-4.864668515307073
 30
0.0
  0
VERTEX
  5
9C
  8
0
 10
-5.665335256168095
 20
-4.860477174979821
 30
0.0
  0
VERTEX
  5
9D
  8
0
 10
-5.646822065694138
 20
-4.848938052844191
 30
0.0
  0
VERTEX
  5
9E
  8
0
 10
-5.633621355963808
 20
-4.83160349716937
 30
0.0
  0
VERTEX
  5
9F
  8
0
 10
-5.627457958387315
 20
-4.810025856224549
 30
0.0
  0
SEQEND
  5
A0
  8
0
  0
POLYLINE
  5
2C
  8
0
 66
     1
 10
0.0
 20
0.0
 30
0.0
  0
VERTEX
  5
A1
  8
0
 10
-6.427227786911885
 20
-4.209876516291217
 30
0.0
  0
VERTEX
  5
A2
  8
0
 10
-6.406072010981915
 20
-4.19869853072848
 30
0.0
  0
VERTEX
  5
A3
  8
0
 10
-6.381272528697264
 20
-4.235567880143067
 30
0.0
  0
VERTEX
  5
A4
  8
0
 10
-6.330867205441837
 20
-4.377461136127483
 30
0.0
  0
VERTEX
  5
A5
  8
0
 10
-6.296261337901449
 20
-4.48358138869099
 30
0.0
  0
VERTEX
  5
A6
  8
0
 10
-6.297704446831943
 20
-4.401953742280111
 30
0.0
  0
SEQEND
  5
A7
  8
0
  0
POLYLINE
  5
2D
  8
0
 66
     1
 10
0.0
 20
0.0
 30
0.0
  0
VERTEX
  5
A8
  8
0
 10
-6.380864318591563
 20
-4.340687730480681
 30
0.0
  0
VERTEX
  5
A9
  8
0
 10
-6.344694603911856
 20
-4.375023374426378
 30
0.0
  0
VERTEX
  5
AA
  8
0
 10
-6.316838576630133
 20
-4.416396330526642
 30
0.0
  0
VERTEX
  5
AB
  8
0
 10
-6.297813686169452
 20
-4.462598814576414
 30
0.0
  0
VERTEX
  5
AC
  8
0
 10
-6.288137381952878
 20
-4.51142304237063
 30
0.0
  0
SEQEND
  5
AD
  8
0
  0
LINE
  5
2E
  8
0
 10
-6.420236470260406
 20
-4.212636246548385
 30
0.0
 11
-6.427595750945504
 21
-4.2109804083943
 31
0.0
  0
POLYLINE
  5
2F
  8
0
 66
     1
 10
0.0
 20
0.0
 30
0.0
  0
VERTEX
  5
AE
  8
0
 10
-6.262195917533632
 20
-4.810025856215276
 30
0.0
  0
VERTEX
  5
AF
  8
0
 10
-6.256061267150471
 20
-4.831603497161485
 30
0.0
  0
VERTEX
  5
B0
  8
0
 10
-6.242923801240997
 20
-4.848938052838313
 30
0.0
  0
VERTEX
  5
B1
  8
0
 10
-6.224473854587215
 20
-4.860477174976572
 30
0.0
  0
VERTEX
  5
B2
  8
0
 10
-6.202401761971124
 20
-4.864668515307073
 30
0.0
  0
SEQEND
  5
B3
  8
0
  0
POLYLINE
  5
30
  8
0
 66
     1
 10
0.0
 20
0.0
 30
0.0
  0
VERTEX
  5
B4
  8
0
 10
-8.774654343653424
 20
4.864668515307073
 30
0.0
  0
VERTEX
  5
B5
  8
0
 10
-8.86451087334585
 20
4.858182789864152
 30
0.0
  0
VERTEX
  5
B6
  8
0
 10
-8.951185089086238
 20
4.839207128970739
 30
0.0
  0
VERTEX
  5
B7
  8
0
 10
-9.0335472263009
 20
4.808463805779858
 30
0.0
  0
VERTEX
  5
B8
  8
0
 10
-9.110467520416149
 20
4.766675093444532
 30
0.0
  0
VERTEX
  5
B9
  8
0
 10
-9.180816206858301
 20
4.714563265117787
 30
0.0
  0
VERTEX
  5
BA
  8
0
 10
-9.243463521053666
 20
4.652850593952647
 30
0.0
  0
VERTEX
  5
BB
  8
0
 10
-9.297279698428561
 20
4.582259353102137
 30
0.0
  0
VERTEX
  5
BC
  8
0
 10
-9.341134974409298
 20
4.503511815719279
 30
0.0
  0
SEQEND
  5
BD
  8
0
  0
POLYLINE
  5
31
  8
0
 66
     1
 10
0.0
 20
0.0
 30
0.0
  0
VERTEX
  5
BE
  8
0
 10
-9.37590757568033
 20
4.344367370823562
 30
0.0
  0
VERTEX
  5
BF
  8
0
 10
-9.372745384761275
 20
4.328892758351771
 30
0.0
  0
VERTEX
  5
C0
  8
0
 10
-9.364132726585288
 20
4.316195124450561
 30
0.0
  0
VERTEX
  5
C1
  8
0
 10
-9.351380473024118
 20
4.30760258930579
 30
0.0
  0
VERTEX
  5
C2
  8
0
 10
-9.335799495949532
 20
4.304443273103317
 30
0.0
  0
SEQEND
  5
C3
  8
0
  0
POLYLINE
  5
32
  8
0
 66
     1
 10
0.0
 20
0.0
 30
0.0
  0
VERTEX
  5
C4
  8
0
 10
-9.348126291091575
 20
4.487137416127382
 30
0.0
  0
VERTEX
  5
C5
  8
0
 10
-9.368502299488846
 20
4.41692527884202
 30
0.0
  0
VERTEX
  5
C6
  8
0
 10
-9.37590757568033
 20
4.344367370837913
 30
0.0
  0
SEQEND
  5
C7
  8
0
  0
LINE
  5
33
  8
0
 10
-9.348126291091575
 20
4.487137416127382
 30
0.0
 11
-9.341134974440868
 21
4.503511815651557
 31
0.0
  0
LINE
  5
34
  8
0
 10
-9.37590757568033
 20
4.344367370823562
 30
0.0
 11
-9.373699791475049
 21
4.380979792231609
 31
0.0
  0
POLYLINE
  5
35
  8
0
 66
     1
 10
0.0
 20
0.0
 30
0.0
  0
VERTEX
  5
C8
  8
0
 10
-8.325370257787526
 20
4.157073677370875
 30
0.0
  0
VERTEX
  5
C9
  8
0
 10
-8.331067950880144
 20
4.196037618935326
 30
0.0
  0
VERTEX
  5
CA
  8
0
 10
-8.341698661806465
 20
4.233932165025392
 30
0.0
  0
VERTEX
  5
CB
  8
0
 10
-8.357089907425468
 20
4.270239866218012
 30
0.0
  0
VERTEX
  5
CC
  8
0
 10
-8.377069204596133
 20
4.304443273090125
 30
0.0
  0
SEQEND
  5
CD
  8
0
  0
POLYLINE
  5
36
  8
0
 66
     1
 10
0.0
 20
0.0
 30
0.0
  0
VERTEX
  5
CE
  8
0
 10
6.420604434294717
 20
-4.212636246548385
 30
0.0
  0
VERTEX
  5
CF
  8
0
 10
6.462589705553808
 20
-4.19246182782196
 30
0.0
  0
VERTEX
  5
D0
  8
0
 10
6.374125977241688
 20
-4.188123517482505
 30
0.0
  0
VERTEX
  5
D1
  8
0
 10
5.96984849238644
 20
-4.210543451096378
 30
0.0
  0
VERTEX
  5
D2
  8
0
 10
5.535765920694217
 20
-4.247072505653732
 30
0.0
  0
VERTEX
  5
D3
  8
0
 10
5.399872203130257
 20
-4.264887139418305
 30
0.0
  0
SEQEND
  5
D4
  8
0
  0
POLYLINE
  5
37
  8
0
 66
     1
 10
0.0
 20
0.0
 30
0.0
  0
VERTEX
  5
D5
  8
0
 10
-2.569124887400164
 20
-4.756671071243488
 30
0.0
  0
VERTEX
  5
D6
  8
0
 10
-2.651404376441614
 20
-4.693822526721088
 30
0.0
  0
VERTEX
  5
D7
  8
0
 10
-2.73812961844337
 20
-4.63827864322163
 30
0.0
  0
VERTEX
  5
D8
  8
0
 10
-2.828813348532047
 20
-4.590220528043189
 30
0.0
  0
VERTEX
  5
D9
  8
0
 10
-2.922968301834262
 20
-4.549829288483835
 30
0.0
  0
VERTEX
  5
DA
  8
0
 10
-3.02010721347663
 20
-4.517286031841644
 30
0.0
  0
VERTEX
  5
DB
  8
0
 10
-3.119742818585768
 20
-4.492771865414684
 30
0.0
  0
VERTEX
  5
DC
  8
0
 10
-3.221387852288291
 20
-4.476467896501031
 30
0.0
  0
VERTEX
  5
DD
  8
0
 10
-3.324555049710817
 20
-4.468555232398755
 30
0.0
  0
SEQEND
  5
DE
  8
0
  0
POLYLINE
  5
38
  8
0
 66
     1
 10
0.0
 20
0.0
 30
0.0
  0
VERTEX
  5
DF
  8
0
 10
-5.399688221162094
 20
-4.264887139417311
 30
0.0
  0
VERTEX
  5
E0
  8
0
 10
-5.345344532849696
 20
-4.260609557519278
 30
0.0
  0
VERTEX
  5
E1
  8
0
 10
-5.368963224286508
 20
-4.25329627233899
 30
0.0
  0
SEQEND
  5
E2
  8
0
  0
POLYLINE
  5
39
  8
0
 66
     1
 10
0.0
 20
0.0
 30
0.0
  0
VERTEX
  5
E3
  8
0
 10
-2.569124887400164
 20
-4.756671071243488
 30
0.0
  0
VERTEX
  5
E4
  8
0
 10
-2.549714784593573
 20
-4.76787097653637
 30
0.0
  0
VERTEX
  5
E5
  8
0
 10
-2.52754495153018
 20
-4.771757596649309
 30
0.0
  0
SEQEND
  5
E6
  8
0
  0
POLYLINE
  5
3A
  8
0
 66
     1
 10
0.0
 20
0.0
 30
0.0
  0
VERTEX
  5
E7
  8
0
 10
3.324555049793844
 20
-4.468555232395829
 30
0.0
  0
VERTEX
  5
E8
  8
0
 10
3.221388211710173
 20
-4.47646789649132
 30
0.0
  0
VERTEX
  5
E9
  8
0
 10
3.119745693385376
 20
-4.492771865398334
 30
0.0
  0
VERTEX
  5
EA
  8
0
 10
3.020116915732101
 20
-4.517286031818797
 30
0.0
  0
VERTEX
  5
EB
  8
0
 10
2.922991299662995
 20
-4.549829288454639
 30
0.0
  0
VERTEX
  5
EC
  8
0
 10
2.828858266090704
 20
-4.590220528007785
 30
0.0
  0
VERTEX
  5
ED
  8
0
 10
2.738207235927874
 20
-4.638278643180165
 30
0.0
  0
VERTEX
  5
EE
  8
0
 10
2.651527630087153
 20
-4.693822526673706
 30
0.0
  0
VERTEX
  5
EF
  8
0
 10
2.569308869481187
 20
-4.756671071190336
 30
0.0
  0
SEQEND
  5
F0
  8
0
  0
POLYLINE
  5
3B
  8
0
 66
     1
 10
0.0
 20
0.0
 30
0.0
  0
VERTEX
  5
F1
  8
0
 10
2.527912915559895
 20
-4.771757596649309
 30
0.0
  0
VERTEX
  5
F2
  8
0
 10
2.549921764358662
 20
-4.767870976537902
 30
0.0
  0
VERTEX
  5
F3
  8
0
 10
2.56930886941385
 20
-4.756671071246414
 30
0.0
  0
SEQEND
  5
F4
  8
0
  0
POLYLINE
  5
3C
  8
0
 66
     1
 10
0.0
 20
0.0
 30
0.0
  0
VERTEX
  5
F5
  8
0
 10
5.391960976442064
 20
-4.263231301263005
 30
0.0
  0
VERTEX
  5
F6
  8
0
 10
5.431183283378361
 20
-4.272933837286988
 30
0.0
  0
VERTEX
  5
F7
  8
0
 10
5.466608805172557
 20
-4.287830271895479
 30
0.0
  0
VERTEX
  5
F8
  8
0
 10
5.498235385785391
 20
-4.307922761127742
 30
0.0
  0
VERTEX
  5
F9
  8
0
 10
5.526060869177598
 20
-4.333213461023039
 30
0.0
  0
VERTEX
  5
FA
  8
0
 10
5.550083099309916
 20
-4.363704527620632
 30
0.0
  0
VERTEX
  5
FB
  8
0
 10
5.570299920143082
 20
-4.399398116959785
 30
0.0
  0
VERTEX
  5
FC
  8
0
 10
5.586709175637834
 20
-4.44029638507976
 30
0.0
  0
VERTEX
  5
FD
  8
0
 10
5.599308709754907
 20
-4.486401488019823
 30
0.0
  0
SEQEND
  5
FE
  8
0
  0
POLYLINE
  5
3D
  8
0
 66
     1
 10
0.0
 20
0.0
 30
0.0
  0
VERTEX
  5
FF
  8
0
 10
5.454146898236772
 20
-4.394226497469617
 30
0.0
  0
VERTEX
  5
100
  8
0
 10
5.512696300468543
 20
-4.43319043903362
 30
0.0
  0
VERTEX
  5
101
  8
0
 10
5.559775573821521
 20
-4.480468067995546
 30
0.0
  0
VERTEX
  5
102
  8
0
 10
5.592952706007313
 20
-4.53719777308613
 30
0.0
  0
VERTEX
  5
103
  8
0
 10
5.609795684737528
 20
-4.604517943036106
 30
0.0
  0
SEQEND
  5
104
  8
0
  0
POLYLINE
  5
3E
  8
0
 66
     1
 10
0.0
 20
0.0
 30
0.0
  0
VERTEX
  5
105
  8
0
 10
5.474752884156914
 20
-4.393490569401024
 30
0.0
  0
VERTEX
  5
106
  8
0
 10
5.51591023633201
 20
-4.416741296814855
 30
0.0
  0
VERTEX
  5
107
  8
0
 10
5.551358396538788
 20
-4.44799524197304
 30
0.0
  0
VERTEX
  5
108
  8
0
 10
5.580700653552899
 20
-4.485389586952557
 30
0.0
  0
VERTEX
  5
109
  8
0
 10
5.603540296149991
 20
-4.527061513830379
 30
0.0
  0
SEQEND
  5
10A
  8
0
  0
POLYLINE
  5
3F
  8
0
 66
     1
 10
0.0
 20
0.0
 30
0.0
  0
VERTEX
  5
10B
  8
0
 10
5.627825922420797
 20
-4.810025856215276
 30
0.0
  0
VERTEX
  5
10C
  8
0
 10
5.6339347003328
 20
-4.831603497161485
 30
0.0
  0
VERTEX
  5
10D
  8
0
 10
5.647029045457007
 20
-4.848938052838313
 30
0.0
  0
VERTEX
  5
10E
  8
0
 10
5.665470367953723
 20
-4.860477174976572
 30
0.0
  0
VERTEX
  5
10F
  8
0
 10
5.687620077983252
 20
-4.864668515307073
 30
0.0
  0
SEQEND
  5
110
  8
0
  0
POLYLINE
  5
40
  8
0
 66
     1
 10
0.0
 20
0.0
 30
0.0
  0
VERTEX
  5
111
  8
0
 10
6.308007439802523
 20
-4.35338248966363
 30
0.0
  0
VERTEX
  5
112
  8
0
 10
6.447802734836385
 20
-4.325948057894689
 30
0.0
  0
VERTEX
  5
113
  8
0
 10
6.582953112783121
 20
-4.287253172064985
 30
0.0
  0
VERTEX
  5
114
  8
0
 10
6.712966188176101
 20
-4.237822288725185
 30
0.0
  0
VERTEX
  5
115
  8
0
 10
6.837349575548689
 20
-4.178179864425959
 30
0.0
  0
VERTEX
  5
116
  8
0
 10
6.955610889434253
 20
-4.108850355717969
 30
0.0
  0
VERTEX
  5
117
  8
0
 10
7.06725774436616
 20
-4.030358219151885
 30
0.0
  0
VERTEX
  5
118
  8
0
 10
7.171797754877778
 20
-3.943227911278371
 30
0.0
  0
VERTEX
  5
119
  8
0
 10
7.268738535502473
 20
-3.847983888648095
 30
0.0
  0
VERTEX
  5
11A
  8
0
 10
7.357587700773612
 20
-3.745150607811724
 30
0.0
  0
VERTEX
  5
11B
  8
0
 10
7.437852865224562
 20
-3.635252525319923
 30
0.0
  0
VERTEX
  5
11C
  8
0
 10
7.509041643388691
 20
-3.518814097723358
 30
0.0
  0
VERTEX
  5
11D
  8
0
 10
7.570661649799364
 20
-3.396359781572698
 30
0.0
  0
VERTEX
  5
11E
  8
0
 10
7.62222049898995
 20
-3.268414033418607
 30
0.0
  0
VERTEX
  5
11F
  8
0
 10
7.663225805493816
 20
-3.135501309811752
 30
0.0
  0
VERTEX
  5
120
  8
0
 10
7.693185183844328
 20
-2.998146067302801
 30
0.0
  0
VERTEX
  5
121
  8
0
 10
7.711606248574852
 20
-2.856872762442419
 30
0.0
  0
SEQEND
  5
122
  8
0
  0
POLYLINE
  5
41
  8
0
 66
     1
 10
0.0
 20
0.0
 30
0.0
  0
VERTEX
  5
123
  8
0
 10
6.298072410876742
 20
-4.401953742189647
 30
0.0
  0
VERTEX
  5
124
  8
0
 10
6.310082986931509
 20
-4.344453612399737
 30
0.0
  0
VERTEX
  5
125
  8
0
 10
6.335926710897694
 20
-4.290644621827576
 30
0.0
  0
VERTEX
  5
126
  8
0
 10
6.3739822412497
 20
-4.245114822024316
 30
0.0
  0
VERTEX
  5
127
  8
0
 10
6.42262823646193
 20
-4.212452264541117
 30
0.0
  0
SEQEND
  5
128
  8
0
  0
POLYLINE
  5
42
  8
0
 66
     1
 10
0.0
 20
0.0
 30
0.0
  0
VERTEX
  5
129
  8
0
 10
6.288689328002391
 20
-4.511423042390391
 30
0.0
  0
VERTEX
  5
12A
  8
0
 10
6.29696851877246
 20
-4.462521197182105
 30
0.0
  0
VERTEX
  5
12B
  8
0
 10
6.316424617081982
 20
-4.4160513642622
 30
0.0
  0
VERTEX
  5
12C
  8
0
 10
6.345194805007933
 20
-4.374583542431887
 30
0.0
  0
VERTEX
  5
12D
  8
0
 10
6.381416264627291
 20
-4.340687730492381
 30
0.0
  0
SEQEND
  5
12E
  8
0
  0
POLYLINE
  5
43
  8
0
 66
     1
 10
0.0
 20
0.0
 30
0.0
  0
VERTEX
  5
12F
  8
0
 10
6.202769725996106
 20
-4.864668515307073
 30
0.0
  0
VERTEX
  5
130
  8
0
 10
6.224709581538496
 20
-4.860477174979821
 30
0.0
  0
VERTEX
  5
131
  8
0
 10
6.243061787747461
 20
-4.848938052844191
 30
0.0
  0
VERTEX
  5
132
  8
0
 10
6.256170506469195
 20
-4.83160349716937
 30
0.0
  0
VERTEX
  5
133
  8
0
 10
6.262379899549898
 20
-4.810025856224549
 30
0.0
  0
SEQEND
  5
134
  8
0
  0
LINE
  5
44
  8
0
 10
6.288689328002391
 20
-4.511423042390391
 30
0.0
 11
6.291817022293346
 21
-4.486033524027116
 31
0.0
  0
POLYLINE
  5
45
  8
0
 66
     1
 10
0.0
 20
0.0
 30
0.0
  0
VERTEX
  5
135
  8
0
 10
6.292184986328138
 20
-4.485297595955927
 30
0.0
  0
VERTEX
  5
136
  8
0
 10
6.304690014054309
 20
-4.443004729768987
 30
0.0
  0
VERTEX
  5
137
  8
0
 10
6.323921884280978
 20
-4.404299512915579
 30
0.0
  0
VERTEX
  5
138
  8
0
 10
6.349777107123533
 20
-4.369802884703377
 30
0.0
  0
VERTEX
  5
139
  8
0
 10
6.382152192697362
 20
-4.340135784440054
 30
0.0
  0
SEQEND
  5
13A
  8
0
  0
POLYLINE
  5
46
  8
0
 66
     1
 10
0.0
 20
0.0
 30
0.0
  0
VERTEX
  5
13B
  8
0
 10
8.377253186622184
 20
4.304443273103317
 30
0.0
  0
VERTEX
  5
13C
  8
0
 10
8.357371629896315
 20
4.270239866232149
 30
0.0
  0
VERTEX
  5
13D
  8
0
 10
8.341974634837428
 20
4.233932165040267
 30
0.0
  0
VERTEX
  5
13E
  8
0
 10
8.331200187958332
 20
4.196037618950731
 30
0.0
  0
VERTEX
  5
13F
  8
0
 10
8.32518627577184
 20
4.157073677386606
 30
0.0
  0
SEQEND
  5
140
  8
0
  0
POLYLINE
  5
47
  8
0
 66
     1
 10
0.0
 20
0.0
 30
0.0
  0
VERTEX
  5
141
  8
0
 10
9.341502938474392
 20
4.503511815653212
 30
0.0
  0
VERTEX
  5
142
  8
0
 10
9.297586934062835
 20
4.582259353042306
 30
0.0
  0
VERTEX
  5
143
  8
0
 10
9.243725120531053
 20
4.65285059389963
 30
0.0
  0
VERTEX
  5
144
  8
0
 10
9.181045106413478
 20
4.714563265072162
 30
0.0
  0
VERTEX
  5
145
  8
0
 10
9.110674500244526
 20
4.766675093406875
 30
0.0
  0
VERTEX
  5
146
  8
0
 10
9.033740910558622
 20
4.808463805750749
 30
0.0
  0
VERTEX
  5
147
  8
0
 10
8.951371945890191
 20
4.839207128950756
 30
0.0
  0
VERTEX
  5
148
  8
0
 10
8.864695214773658
 20
4.858182789853871
 30
0.0
  0
VERTEX
  5
149
  8
0
 10
8.774838325743446
 20
4.864668515307073
 30
0.0
  0
SEQEND
  5
14A
  8
0
  0
POLYLINE
  5
48
  8
0
 66
     1
 10
0.0
 20
0.0
 30
0.0
  0
VERTEX
  5
14B
  8
0
 10
9.336167459977219
 20
4.304443273103317
 30
0.0
  0
VERTEX
  5
14C
  8
0
 10
9.351768560085803
 20
4.307602589303351
 30
0.0
  0
VERTEX
  5
14D
  8
0
 10
9.364385701854548
 20
4.316195124446215
 30
0.0
  0
VERTEX
  5
14E
  8
0
 10
9.37282875161041
 20
4.328892758346048
 30
0.0
  0
VERTEX
  5
14F
  8
0
 10
9.375907575680344
 20
4.344367370816994
 30
0.0
  0
SEQEND
  5
150
  8
0
  0
LINE
  5
49
  8
0
 10
-8.77465434365341
 20
4.864668515307102
 30
0.0
 11
8.774838325670586
 21
4.864668515307102
 31
0.0
  0
LINE
  5
4A
  8
0
 10
-9.335799495942908
 20
4.304443273103317
 30
0.0
 11
9.336167459977219
 21
4.304443273103317
 31
0.0
  0
LINE
  5
4B
  8
0
 10
-8.325370257787526
 20
4.157073677370875
 30
0.0
 11
-7.711422266577685
 21
-2.856872762213527
 31
0.0
  0
LINE
  5
4C
  8
0
 10
-5.687436095975471
 20
-4.864668515307045
 30
0.0
 11
-6.202217779944647
 21
-4.864668515307045
 31
0.0
  0
LINE
  5
4D
  8
0
 10
-6.420420452277554
 20
-4.213004210582682
 30
0.0
 11
-6.409933477300342
 21
-4.215395976805553
 31
0.0
  0
LINE
  5
4E
  8
0
 10
-6.297704446842431
 20
-4.402321706223944
 30
0.0
 11
-6.262195917533632
 21
-4.810025856215276
 31
0.0
  0
LINE
  5
4F
  8
0
 10
-5.599308709763449
 20
-4.486401488058789
 30
0.0
 11
-5.627457958386486
 21
-4.810025856215276
 31
0.0
  0
LINE
  5
50
  8
0
 10
8.325186275770406
 20
4.157073677370875
 30
0.0
 11
7.711606248594848
 21
-2.856872762213527
 31
0.0
  0
LINE
  5
51
  8
0
 10
2.527912915559909
 20
-4.771757596649309
 30
0.0
 11
-2.527544951525599
 21
-4.771757596649309
 31
0.0
  0
LINE
  5
52
  8
0
 10
3.324555049793844
 20
-4.468555232395829
 30
0.0
 11
5.57060751508898
 21
-4.390362875109588
 31
0.0
  0
LINE
  5
53
  8
0
 10
6.202769725996106
 20
-4.864668515307045
 30
0.0
 11
5.687620077992634
 21
-4.864668515307045
 31
0.0
  0
LINE
  5
54
  8
0
 10
5.599308709763463
 20
-4.486401488058789
 30
0.0
 11
5.627825922420797
 21
-4.810025856215276
 31
0.0
  0
LINE
  5
55
  8
0
 10
6.298072410876742
 20
-4.401953742189647
 30
0.0
 11
6.262379899550794
 21
-4.810025856215276
 31
0.0
  0
LINE
  5
56
  8
0
 10
6.420604434294717
 20
-4.212636246548385
 30
0.0
 11
6.409933477300356
 21
-4.215395976805553
 31
0.0
  0
ATTDEF
  5
57
  8
0
  6
CONTINUOUS
 10
-0.0018
 20
-0.0165
 30
0.0
 40
0.003
  1
KOHLER CAST IRON
  3

  2
MATERIAL
 70
     2
  0
ATTDEF
  5
58
  8
0
  6
CONTINUOUS
 10
-0.0018
 20
-0.0132
 30
0.0
 40
0.003
  1
SINK
  3

  2
PRODUCT
 70
     2
  0
ATTDEF
  5
59
  8
0
  6
CONTINUOUS
 10
-0.0018
 20
-0.0098
 30
0.0
 40
0.003
  1
IRON/TONES
  3

  2
TRADENAME
 70
     2
  0
ATTDEF
  5
5A
  8
0
  6
CONTINUOUS
 10
-0.0018
 20
-0.0065
 30
0.0
 40
0.003
  1
K-6625
  3

  2
MODELNUMBER
 70
     2
  0
LINE
  5
5B
  8
0
  6
CONTINUOUS
 10
9.341502938474392
 20
4.503511815653212
 30
0.0
 11
9.375907575680344
 21
4.344367370823562
 31
0.0
  0
ENDSEC
  0
EOF
