  0
SECTION
  2
HEADER
  9
$ACADVER
  1
AC1009
  9
$INSBASE
 10
9.9007582008500012
 20
40.984638507950002
 30
0.0
  9
$EXTMIN
 10
-7.950932763718102
 20
30.194638507099999
 30
0.0
  9
$EXTMAX
 10
27.752449165515181
 20
51.774638509100001
 30
0.0
  9
$LIMMIN
 10
0.0
 20
0.0
  9
$LIMMAX
 10
22.0
 20
17.0
  9
$ORTHOMODE
 70
     0
  9
$REGENMODE
 70
     1
  9
$FILLMODE
 70
     1
  9
$QTEXTMODE
 70
     0
  9
$MIRRTEXT
 70
     0
  9
$DRAGMODE
 70
     2
  9
$LTSCALE
 40
1.2099999999999991
  9
$OSMODE
 70
    47
  9
$ATTMODE
 70
     1
  9
$TEXTSIZE
 40
0.2
  9
$TRACEWID
 40
0.05
  9
$TEXTSTYLE
  7
STANDARD
  9
$CLAYER
  8
0
  9
$CELTYPE
  6
BYLAYER
  9
$CECOLOR
 62
   256
  9
$DIMSCALE
 40
1.0
  9
$DIMASZ
 40
0.1875
  9
$DIMEXO
 40
0.0625
  9
$DIMDLI
 40
0.8359999999999999
  9
$DIMRND
 40
0.0
  9
$DIMDLE
 40
0.0
  9
$DIMEXE
 40
0.125
  9
$DIMTP
 40
0.0
  9
$DIMTM
 40
0.0
  9
$DIMTXT
 40
0.15625
  9
$DIMCEN
 40
0.198
  9
$DIMTSZ
 40
0.0
  9
$DIMTOL
 70
     0
  9
$DIMLIM
 70
     0
  9
$DIMTIH
 70
     1
  9
$DIMTOH
 70
     1
  9
$DIMSE1
 70
     0
  9
$DIMSE2
 70
     0
  9
$DIMTAD
 70
     0
  9
$DIMZIN
 70
     0
  9
$DIMBLK
  1

  9
$DIMASO
 70
     1
  9
$DIMSHO
 70
     1
  9
$DIMPOST
  1

  9
$DIMAPOST
  1

  9
$DIMALT
 70
     0
  9
$DIMALTD
 70
     2
  9
$DIMALTF
 40
25.399999999999999
  9
$DIMLFAC
 40
1.0
  9
$DIMTOFL
 70
     0
  9
$DIMTVP
 40
0.0
  9
$DIMTIX
 70
     0
  9
$DIMSOXD
 70
     0
  9
$DIMSAH
 70
     0
  9
$DIMBLK1
  1

  9
$DIMBLK2
  1

  9
$DIMSTYLE
  2
STANDARD
  9
$DIMCLRD
 70
     0
  9
$DIMCLRE
 70
     0
  9
$DIMCLRT
 70
     0
  9
$DIMTFAC
 40
1.0
  9
$DIMGAP
 40
0.09
  9
$LUNITS
 70
     2
  9
$LUPREC
 70
     4
  9
$SKETCHINC
 40
0.1
  9
$FILLETRAD
 40
0.0
  9
$AUNITS
 70
     0
  9
$AUPREC
 70
     0
  9
$MENU
  1
.
  9
$ELEVATION
 40
0.0
  9
$PELEVATION
 40
0.0
  9
$THICKNESS
 40
0.0
  9
$LIMCHECK
 70
     0
  9
$BLIPMODE
 70
     0
  9
$CHAMFERA
 40
0.0
  9
$CHAMFERB
 40
0.0
  9
$SKPOLY
 70
     0
  9
$TDCREATE
 40
2457266.4493271532
  9
$TDUPDATE
 40
2457266.6091365968
  9
$TDINDWG
 40
0.115972338
  9
$TDUSRTIMER
 40
0.115972338
  9
$USRTIMER
 70
     1
  9
$ANGBASE
 50
0.0
  9
$ANGDIR
 70
     0
  9
$PDMODE
 70
     0
  9
$PDSIZE
 40
0.3125
  9
$PLINEWID
 40
0.0
  9
$COORDS
 70
     1
  9
$SPLFRAME
 70
     0
  9
$SPLINETYPE
 70
     6
  9
$SPLINESEGS
 70
     8
  9
$ATTDIA
 70
     0
  9
$ATTREQ
 70
     1
  9
$HANDLING
 70
     1
  9
$HANDSEED
  5
C87
  9
$SURFTAB1
 70
     6
  9
$SURFTAB2
 70
     6
  9
$SURFTYPE
 70
     6
  9
$SURFU
 70
     6
  9
$SURFV
 70
     6
  9
$UCSNAME
  2

  9
$UCSORG
 10
0.0
 20
0.0
 30
0.0
  9
$UCSXDIR
 10
1.0
 20
0.0
 30
0.0
  9
$UCSYDIR
 10
0.0
 20
1.0
 30
0.0
  9
$PUCSNAME
  2

  9
$PUCSORG
 10
0.0
 20
0.0
 30
0.0
  9
$PUCSXDIR
 10
1.0
 20
0.0
 30
0.0
  9
$PUCSYDIR
 10
0.0
 20
1.0
 30
0.0
  9
$USERI1
 70
     0
  9
$USERI2
 70
     0
  9
$USERI3
 70
     0
  9
$USERI4
 70
     0
  9
$USERI5
 70
     0
  9
$USERR1
 40
0.0
  9
$USERR2
 40
0.0
  9
$USERR3
 40
0.0
  9
$USERR4
 40
0.0
  9
$USERR5
 40
0.0
  9
$WORLDVIEW
 70
     1
  9
$SHADEDGE
 70
     3
  9
$SHADEDIF
 70
    70
  9
$TILEMODE
 70
     1
  9
$MAXACTVP
 70
    64
  9
$PLIMCHECK
 70
     0
  9
$PEXTMIN
 10
1.0000000000000000E+020
 20
1.0000000000000000E+020
 30
1.0000000000000000E+020
  9
$PEXTMAX
 10
-1.0000000000000000E+020
 20
-1.0000000000000000E+020
 30
-1.0000000000000000E+020
  9
$PLIMMIN
 10
0.0
 20
0.0
  9
$PLIMMAX
 10
12.0
 20
9.0
  9
$UNITMODE
 70
     0
  9
$VISRETAIN
 70
     1
  9
$PLINEGEN
 70
     0
  9
$PSLTSCALE
 70
     1
  0
ENDSEC
  0
SECTION
  2
TABLES
  0
TABLE
  2
VPORT
 70
     1
  0
VPORT
  2
*ACTIVE
 70
     0
 10
0.0
 20
0.0
 11
1.0
 21
1.0
 12
14.09182487982606
 22
42.26360655261459
 13
0.0
 23
0.0
 14
1.0
 24
1.0
 15
0.0
 25
0.0
 16
0.0
 26
0.0
 36
1.0
 17
0.0
 27
0.0
 37
0.0
 40
40.05661086527796
 41
2.2293364377182772
 42
50.0
 43
0.0
 44
0.0
 50
0.0
 51
0.0
 71
     0
 72
   100
 73
     1
 74
     1
 75
     0
 76
     0
 77
     0
 78
     0
  0
ENDTAB
  0
TABLE
  2
LTYPE
 70
     1
  0
LTYPE
  2
CONTINUOUS
 70
     0
  3
Solid line
 72
    65
 73
     0
 40
0.0
  0
ENDTAB
  0
TABLE
  2
LAYER
 70
     2
  0
LAYER
  2
0
 70
     0
 62
     7
  6
CONTINUOUS
  0
LAYER
  2
DEFPOINTS
 70
     0
 62
     7
  6
CONTINUOUS
  0
ENDTAB
  0
TABLE
  2
STYLE
 70
     1
  0
STYLE
  2
STANDARD
 70
     0
 40
0.0
 41
0.8
 50
0.0
 71
     0
 42
0.2
  3
txt
  4

  0
ENDTAB
  0
TABLE
  2
VIEW
 70
     0
  0
ENDTAB
  0
TABLE
  2
UCS
 70
     0
  0
ENDTAB
  0
TABLE
  2
APPID
 70
     5
  0
APPID
  2
ACAD
 70
     0
  0
APPID
  2
ACAD_MLEADERVER
 70
     0
  0
APPID
  2
ACAD_NAV_VCDISPLAY
 70
     0
  0
APPID
  2
ACAD_EXEMPT_FROM_CAD_STANDARDS
 70
     0
  0
APPID
  2
ACDBATTR
 70
     0
  0
ENDTAB
  0
TABLE
  2
DIMSTYLE
 70
     1
  0
DIMSTYLE
  2
STANDARD
 70
     0
  3

  4

  5

  6

  7

 40
1.0
 41
0.1875
 42
0.0625
 43
0.38
 44
0.125
 45
0.0
 46
0.0
 47
1.5
 48
1.5
140
0.15625
141
0.09
142
0.0
143
25.399999999999999
144
1.0
145
0.0
146
1.0
147
0.09
 71
     0
 72
     0
 73
     1
 74
     1
 75
     0
 76
     0
 77
     0
 78
     4
170
     0
171
     2
172
     0
173
     0
174
     0
175
     0
176
     0
177
     0
178
     0
  0
ENDTAB
  0
ENDSEC
  0
SECTION
  2
BLOCKS
  0
BLOCK
  8
0
  2
$MODEL_SPACE
 70
     0
 10
0.0
 20
0.0
 30
0.0
  3
$MODEL_SPACE
  1

  0
ENDBLK
  5
21
  8
0
  0
BLOCK
 67
     1
  8
0
  2
$PAPER_SPACE
 70
     0
 10
0.0
 20
0.0
 30
0.0
  3
$PAPER_SPACE
  1

  0
ENDBLK
  5
1D
 67
     1
  8
0
  0
ENDSEC
  0
SECTION
  2
ENTITIES
  0
LINE
  5
250
  8
0
 10
-7.916781544
 20
31.729854258
 30
0.0
 11
-7.9509327637
 21
32.381498350400001
 31
0.0
  0
LINE
  5
253
  8
0
 10
-7.0992417990999988
 20
32.504638447399998
 30
0.0
 11
-7.0992417990999988
 21
51.716682957499991
 31
0.0
  0
LINE
  5
25B
  8
0
 10
-6.1180637279999992
 20
33.876553661899997
 30
0.0
 11
-6.1180637279999992
 21
48.957515031699998
 31
0.0
  0
LINE
  5
275
  8
0
 10
-6.2990016976999987
 20
30.194638507099999
 30
0.0
 11
26.100518099399999
 21
30.194638507099999
 31
0.0
  0
LINE
  5
281
  8
0
 10
-7.1613583699000003
 20
32.444638507100002
 30
0.0
 11
-7.8910149915999988
 21
32.444638507100002
 31
0.0
  0
LINE
  5
286
  8
0
 10
23.880303439599999
 20
31.772413460399999
 30
0.0
 11
-4.0787870378999997
 21
31.772413460700001
 31
0.0
  0
LINE
  5
2BF
  8
0
 10
13.3358605578
 20
35.452886181099998
 30
0.0
 11
13.3358605578
 21
48.637389943300001
 31
0.0
  0
LINE
  5
2C8
  8
0
 10
14.9656558439
 20
48.637389943300001
 30
0.0
 11
14.9656558439
 21
35.452886181099998
 31
0.0
  0
LINE
  5
2F2
  8
0
 10
-4.0481183236999989
 20
51.027460435999998
 30
0.0
 11
23.849634725400001
 21
51.027460435999998
 31
0.0
  0
LINE
  5
2F5
  8
0
 10
-7.0412862508999998
 20
51.774638508499997
 30
0.0
 11
26.842802653300001
 21
51.774638509100001
 31
0.0
  0
LINE
  5
30F
  8
0
 10
25.919580129700002
 20
48.957515031699998
 30
0.0
 11
25.919580129700002
 21
33.876553661899997
 31
0.0
  0
LINE
  5
317
  8
0
 10
26.9007582009
 20
51.716682957499991
 30
0.0
 11
26.9007582009
 21
32.504638447399998
 31
0.0
  0
LINE
  5
31B
  8
0
 10
27.752449165500011
 20
32.381498350299999
 30
0.0
 11
27.718297945700002
 21
31.729854258
 31
0.0
  0
ARC
  5
361
  8
0
 10
-6.2990016976999987
 20
31.8146385071
 30
0.0
 40
1.6200000000000001
 50
183.0
 51
270.0
  0
ARC
  5
363
  8
0
 10
-7.8910149915999988
 20
32.3846385071
 30
0.0
 40
0.06
 50
90.0
 51
182.999999401
  0
CIRCLE
  5
366
  8
0
 10
6.763758200899999
 20
43.554638507100002
 30
0.0
 40
1.9375
  0
ARC
  5
367
  8
0
 10
26.100518099399999
 20
31.8146385071
 30
0.0
 40
1.6200000000000001
 50
270.0
 51
357.0
  0
ARC
  5
369
  8
0
 10
27.692531393399999
 20
32.3846385071
 30
0.0
 40
0.06
 50
357.0000005457
 51
90.0
  0
CIRCLE
  5
36C
  8
0
 10
19.992758200899999
 20
43.554638507100002
 30
0.0
 40
1.9375
  0
POLYLINE
  5
37B
  8
0
 10
-7.1613583698922039
 20
32.444638507123088
 30
0.0
 66
     1
 70
     8
  0
VERTEX
  8
0
  5
C05
 10
-7.16136
 20
32.4446
 30
0.000000
  70
    32
  0
VERTEX
  8
0
  5
C06
 10
-7.16060
 20
32.4446
 30
0.000000
  70
    32
  0
VERTEX
  8
0
  5
C07
 10
-7.15983
 20
32.4447
 30
0.000000
  70
    32
  0
VERTEX
  8
0
  5
C08
 10
-7.15907
 20
32.4447
 30
0.000000
  70
    32
  0
VERTEX
  8
0
  5
C09
 10
-7.15831
 20
32.4447
 30
0.000000
  70
    32
  0
VERTEX
  8
0
  5
C0A
 10
-7.15755
 20
32.4448
 30
0.000000
  70
    32
  0
VERTEX
  8
0
  5
C0B
 10
-7.15679
 20
32.4448
 30
0.000000
  70
    32
  0
VERTEX
  8
0
  5
C0C
 10
-7.15603
 20
32.4449
 30
0.000000
  70
    32
  0
VERTEX
  8
0
  5
C0D
 10
-7.15527
 20
32.4449
 30
0.000000
  70
    32
  0
VERTEX
  8
0
  5
C0E
 10
-7.15451
 20
32.4450
 30
0.000000
  70
    32
  0
VERTEX
  8
0
  5
C0F
 10
-7.15375
 20
32.4451
 30
0.000000
  70
    32
  0
VERTEX
  8
0
  5
C10
 10
-7.15300
 20
32.4452
 30
0.000000
  70
    32
  0
VERTEX
  8
0
  5
C11
 10
-7.15224
 20
32.4453
 30
0.000000
  70
    32
  0
VERTEX
  8
0
  5
C12
 10
-7.15149
 20
32.4454
 30
0.000000
  70
    32
  0
VERTEX
  8
0
  5
C13
 10
-7.15074
 20
32.4455
 30
0.000000
  70
    32
  0
VERTEX
  8
0
  5
C14
 10
-7.14999
 20
32.4457
 30
0.000000
  70
    32
  0
VERTEX
  8
0
  5
C15
 10
-7.14924
 20
32.4458
 30
0.000000
  70
    32
  0
VERTEX
  8
0
  5
C16
 10
-7.14849
 20
32.4459
 30
0.000000
  70
    32
  0
VERTEX
  8
0
  5
C17
 10
-7.14775
 20
32.4461
 30
0.000000
  70
    32
  0
VERTEX
  8
0
  5
C18
 10
-7.14701
 20
32.4463
 30
0.000000
  70
    32
  0
VERTEX
  8
0
  5
C19
 10
-7.14627
 20
32.4464
 30
0.000000
  70
    32
  0
VERTEX
  8
0
  5
C1A
 10
-7.14553
 20
32.4466
 30
0.000000
  70
    32
  0
VERTEX
  8
0
  5
C1B
 10
-7.14479
 20
32.4468
 30
0.000000
  70
    32
  0
VERTEX
  8
0
  5
C1C
 10
-7.14406
 20
32.4470
 30
0.000000
  70
    32
  0
VERTEX
  8
0
  5
C1D
 10
-7.14333
 20
32.4472
 30
0.000000
  70
    32
  0
VERTEX
  8
0
  5
C1E
 10
-7.14260
 20
32.4474
 30
0.000000
  70
    32
  0
VERTEX
  8
0
  5
C1F
 10
-7.14187
 20
32.4477
 30
0.000000
  70
    32
  0
VERTEX
  8
0
  5
C20
 10
-7.14115
 20
32.4479
 30
0.000000
  70
    32
  0
VERTEX
  8
0
  5
C21
 10
-7.14043
 20
32.4481
 30
0.000000
  70
    32
  0
VERTEX
  8
0
  5
C22
 10
-7.13972
 20
32.4484
 30
0.000000
  70
    32
  0
VERTEX
  8
0
  5
C23
 10
-7.13900
 20
32.4487
 30
0.000000
  70
    32
  0
VERTEX
  8
0
  5
C24
 10
-7.13829
 20
32.4489
 30
0.000000
  70
    32
  0
VERTEX
  8
0
  5
C25
 10
-7.13759
 20
32.4492
 30
0.000000
  70
    32
  0
VERTEX
  8
0
  5
C26
 10
-7.13688
 20
32.4495
 30
0.000000
  70
    32
  0
VERTEX
  8
0
  5
C27
 10
-7.13619
 20
32.4498
 30
0.000000
  70
    32
  0
VERTEX
  8
0
  5
C28
 10
-7.13549
 20
32.4501
 30
0.000000
  70
    32
  0
VERTEX
  8
0
  5
C29
 10
-7.13480
 20
32.4504
 30
0.000000
  70
    32
  0
VERTEX
  8
0
  5
C2A
 10
-7.13411
 20
32.4507
 30
0.000000
  70
    32
  0
VERTEX
  8
0
  5
C2B
 10
-7.13343
 20
32.4510
 30
0.000000
  70
    32
  0
VERTEX
  8
0
  5
C2C
 10
-7.13275
 20
32.4514
 30
0.000000
  70
    32
  0
VERTEX
  8
0
  5
C2D
 10
-7.13208
 20
32.4517
 30
0.000000
  70
    32
  0
VERTEX
  8
0
  5
C2E
 10
-7.13141
 20
32.4521
 30
0.000000
  70
    32
  0
VERTEX
  8
0
  5
C2F
 10
-7.13074
 20
32.4524
 30
0.000000
  70
    32
  0
VERTEX
  8
0
  5
C30
 10
-7.13008
 20
32.4528
 30
0.000000
  70
    32
  0
VERTEX
  8
0
  5
C31
 10
-7.12942
 20
32.4532
 30
0.000000
  70
    32
  0
VERTEX
  8
0
  5
C32
 10
-7.12877
 20
32.4536
 30
0.000000
  70
    32
  0
VERTEX
  8
0
  5
C33
 10
-7.12813
 20
32.4539
 30
0.000000
  70
    32
  0
VERTEX
  8
0
  5
C34
 10
-7.12748
 20
32.4543
 30
0.000000
  70
    32
  0
VERTEX
  8
0
  5
C35
 10
-7.12685
 20
32.4548
 30
0.000000
  70
    32
  0
VERTEX
  8
0
  5
C36
 10
-7.12622
 20
32.4552
 30
0.000000
  70
    32
  0
VERTEX
  8
0
  5
C37
 10
-7.12559
 20
32.4556
 30
0.000000
  70
    32
  0
VERTEX
  8
0
  5
C38
 10
-7.12497
 20
32.4560
 30
0.000000
  70
    32
  0
VERTEX
  8
0
  5
C39
 10
-7.12436
 20
32.4564
 30
0.000000
  70
    32
  0
VERTEX
  8
0
  5
C3A
 10
-7.12375
 20
32.4569
 30
0.000000
  70
    32
  0
VERTEX
  8
0
  5
C3B
 10
-7.12314
 20
32.4573
 30
0.000000
  70
    32
  0
VERTEX
  8
0
  5
C3C
 10
-7.12254
 20
32.4578
 30
0.000000
  70
    32
  0
VERTEX
  8
0
  5
C3D
 10
-7.12195
 20
32.4583
 30
0.000000
  70
    32
  0
VERTEX
  8
0
  5
C3E
 10
-7.12137
 20
32.4587
 30
0.000000
  70
    32
  0
VERTEX
  8
0
  5
C3F
 10
-7.12079
 20
32.4592
 30
0.000000
  70
    32
  0
VERTEX
  8
0
  5
C40
 10
-7.12021
 20
32.4597
 30
0.000000
  70
    32
  0
VERTEX
  8
0
  5
C41
 10
-7.11964
 20
32.4602
 30
0.000000
  70
    32
  0
VERTEX
  8
0
  5
C42
 10
-7.11908
 20
32.4607
 30
0.000000
  70
    32
  0
VERTEX
  8
0
  5
C43
 10
-7.11853
 20
32.4612
 30
0.000000
  70
    32
  0
VERTEX
  8
0
  5
C44
 10
-7.11798
 20
32.4617
 30
0.000000
  70
    32
  0
VERTEX
  8
0
  5
C45
 10
-7.11744
 20
32.4622
 30
0.000000
  70
    32
  0
VERTEX
  8
0
  5
C46
 10
-7.11690
 20
32.4627
 30
0.000000
  70
    32
  0
VERTEX
  8
0
  5
C47
 10
-7.11637
 20
32.4633
 30
0.000000
  70
    32
  0
VERTEX
  8
0
  5
C48
 10
-7.11585
 20
32.4638
 30
0.000000
  70
    32
  0
VERTEX
  8
0
  5
C49
 10
-7.11533
 20
32.4643
 30
0.000000
  70
    32
  0
VERTEX
  8
0
  5
C4A
 10
-7.11482
 20
32.4649
 30
0.000000
  70
    32
  0
VERTEX
  8
0
  5
C4B
 10
-7.11432
 20
32.4654
 30
0.000000
  70
    32
  0
VERTEX
  8
0
  5
C4C
 10
-7.11383
 20
32.4660
 30
0.000000
  70
    32
  0
VERTEX
  8
0
  5
C4D
 10
-7.11334
 20
32.4666
 30
0.000000
  70
    32
  0
VERTEX
  8
0
  5
C4E
 10
-7.11286
 20
32.4671
 30
0.000000
  70
    32
  0
VERTEX
  8
0
  5
C4F
 10
-7.11239
 20
32.4677
 30
0.000000
  70
    32
  0
VERTEX
  8
0
  5
C50
 10
-7.11192
 20
32.4683
 30
0.000000
  70
    32
  0
VERTEX
  8
0
  5
C51
 10
-7.11147
 20
32.4689
 30
0.000000
  70
    32
  0
VERTEX
  8
0
  5
C52
 10
-7.11102
 20
32.4695
 30
0.000000
  70
    32
  0
VERTEX
  8
0
  5
C53
 10
-7.11057
 20
32.4701
 30
0.000000
  70
    32
  0
VERTEX
  8
0
  5
C54
 10
-7.11014
 20
32.4707
 30
0.000000
  70
    32
  0
VERTEX
  8
0
  5
C55
 10
-7.10971
 20
32.4713
 30
0.000000
  70
    32
  0
VERTEX
  8
0
  5
C56
 10
-7.10929
 20
32.4719
 30
0.000000
  70
    32
  0
VERTEX
  8
0
  5
C57
 10
-7.10888
 20
32.4725
 30
0.000000
  70
    32
  0
VERTEX
  8
0
  5
C58
 10
-7.10848
 20
32.4732
 30
0.000000
  70
    32
  0
VERTEX
  8
0
  5
C59
 10
-7.10808
 20
32.4738
 30
0.000000
  70
    32
  0
VERTEX
  8
0
  5
C5A
 10
-7.10769
 20
32.4744
 30
0.000000
  70
    32
  0
VERTEX
  8
0
  5
C5B
 10
-7.10731
 20
32.4751
 30
0.000000
  70
    32
  0
VERTEX
  8
0
  5
C5C
 10
-7.10694
 20
32.4757
 30
0.000000
  70
    32
  0
VERTEX
  8
0
  5
C5D
 10
-7.10658
 20
32.4764
 30
0.000000
  70
    32
  0
VERTEX
  8
0
  5
C5E
 10
-7.10622
 20
32.4770
 30
0.000000
  70
    32
  0
VERTEX
  8
0
  5
C5F
 10
-7.10587
 20
32.4777
 30
0.000000
  70
    32
  0
VERTEX
  8
0
  5
C60
 10
-7.10554
 20
32.4783
 30
0.000000
  70
    32
  0
VERTEX
  8
0
  5
C61
 10
-7.10521
 20
32.4790
 30
0.000000
  70
    32
  0
VERTEX
  8
0
  5
C62
 10
-7.10488
 20
32.4797
 30
0.000000
  70
    32
  0
VERTEX
  8
0
  5
C63
 10
-7.10457
 20
32.4803
 30
0.000000
  70
    32
  0
VERTEX
  8
0
  5
C64
 10
-7.10427
 20
32.4810
 30
0.000000
  70
    32
  0
VERTEX
  8
0
  5
C65
 10
-7.10397
 20
32.4817
 30
0.000000
  70
    32
  0
VERTEX
  8
0
  5
C66
 10
-7.10368
 20
32.4824
 30
0.000000
  70
    32
  0
VERTEX
  8
0
  5
C67
 10
-7.10340
 20
32.4830
 30
0.000000
  70
    32
  0
VERTEX
  8
0
  5
C68
 10
-7.10313
 20
32.4837
 30
0.000000
  70
    32
  0
VERTEX
  8
0
  5
C69
 10
-7.10287
 20
32.4844
 30
0.000000
  70
    32
  0
VERTEX
  8
0
  5
C6A
 10
-7.10262
 20
32.4851
 30
0.000000
  70
    32
  0
VERTEX
  8
0
  5
C6B
 10
-7.10238
 20
32.4858
 30
0.000000
  70
    32
  0
VERTEX
  8
0
  5
C6C
 10
-7.10214
 20
32.4865
 30
0.000000
  70
    32
  0
VERTEX
  8
0
  5
C6D
 10
-7.10192
 20
32.4872
 30
0.000000
  70
    32
  0
VERTEX
  8
0
  5
C6E
 10
-7.10170
 20
32.4879
 30
0.000000
  70
    32
  0
VERTEX
  8
0
  5
C6F
 10
-7.10149
 20
32.4886
 30
0.000000
  70
    32
  0
VERTEX
  8
0
  5
C70
 10
-7.10129
 20
32.4893
 30
0.000000
  70
    32
  0
VERTEX
  8
0
  5
C71
 10
-7.10110
 20
32.4901
 30
0.000000
  70
    32
  0
VERTEX
  8
0
  5
C72
 10
-7.10092
 20
32.4908
 30
0.000000
  70
    32
  0
VERTEX
  8
0
  5
C73
 10
-7.10075
 20
32.4915
 30
0.000000
  70
    32
  0
VERTEX
  8
0
  5
C74
 10
-7.10059
 20
32.4922
 30
0.000000
  70
    32
  0
VERTEX
  8
0
  5
C75
 10
-7.10044
 20
32.4929
 30
0.000000
  70
    32
  0
VERTEX
  8
0
  5
C76
 10
-7.10029
 20
32.4937
 30
0.000000
  70
    32
  0
VERTEX
  8
0
  5
C77
 10
-7.10016
 20
32.4944
 30
0.000000
  70
    32
  0
VERTEX
  8
0
  5
C78
 10
-7.10003
 20
32.4951
 30
0.000000
  70
    32
  0
VERTEX
  8
0
  5
C79
 10
-7.09991
 20
32.4958
 30
0.000000
  70
    32
  0
VERTEX
  8
0
  5
C7A
 10
-7.09981
 20
32.4966
 30
0.000000
  70
    32
  0
VERTEX
  8
0
  5
C7B
 10
-7.09971
 20
32.4973
 30
0.000000
  70
    32
  0
VERTEX
  8
0
  5
C7C
 10
-7.09962
 20
32.4980
 30
0.000000
  70
    32
  0
VERTEX
  8
0
  5
C7D
 10
-7.09954
 20
32.4988
 30
0.000000
  70
    32
  0
VERTEX
  8
0
  5
C7E
 10
-7.09947
 20
32.4995
 30
0.000000
  70
    32
  0
VERTEX
  8
0
  5
C7F
 10
-7.09941
 20
32.5002
 30
0.000000
  70
    32
  0
VERTEX
  8
0
  5
C80
 10
-7.09936
 20
32.5010
 30
0.000000
  70
    32
  0
VERTEX
  8
0
  5
C81
 10
-7.09932
 20
32.5017
 30
0.000000
  70
    32
  0
VERTEX
  8
0
  5
C82
 10
-7.09928
 20
32.5024
 30
0.000000
  70
    32
  0
VERTEX
  8
0
  5
C83
 10
-7.09926
 20
32.5032
 30
0.000000
  70
    32
  0
VERTEX
  8
0
  5
C84
 10
-7.09925
 20
32.5039
 30
0.000000
  70
    32
  0
VERTEX
  8
0
  5
C85
 10
-7.09924
 20
32.5046
 30
0.000000
  70
    32
  0
SEQEND
  8
0
  5
C86
  0
LINE
  5
570
  8
0
 10
27.692531393399999
 20
32.444638507100002
 30
0.0
 11
26.962874771700001
 21
32.444638507100002
 31
0.0
  0
ARC
  5
571
  8
0
 10
26.843455190683091
 20
51.717335498838047
 30
0.0
 40
0.0573067255225522
 50
359.34756920266773
 51
90.652426842868834
  0
ARC
  5
572
  8
0
 10
-7.0368899459675696
 20
51.71228665508373
 30
0.0
 40
0.0625066481582896
 50
94.033130675599836
 51
175.96686562522061
  0
ARC
  5
57C
  8
0
 10
26.96184726173481
 20
32.505728654659308
 30
0.0
 40
0.0610987880857463
 50
181.02240309181971
 51
270.96359946931142
  0
ARC
  5
57D
  8
0
 10
24.032683255101759
 20
49.140563561392931
 30
0.0
 40
1.895754883846517
 50
354.45905481980532
 51
95.540945177426167
  0
ARC
  5
57E
  8
0
 10
-4.2442753467889851
 20
49.167116981950578
 30
0.0
 40
1.870656394100414
 50
83.980899570038943
 51
186.4333454604589
  0
ARC
  5
57F
  8
0
 10
-4.2870735958186774
 20
33.610824123631389
 30
0.0
 40
1.850172168129889
 50
171.74238095080801
 51
276.46388090633621
  0
ARC
  5
580
  8
0
 10
24.061447192686799
 20
33.637130206533463
 30
0.0
 40
1.8734944896083749
 50
264.45153855810139
 51
7.342199316149002
  0
LINE
  5
74E
  8
0
 10
22.827526810699979
 20
48.695249602600001
 30
0.0
 11
17.157365601999992
 21
48.695261282799997
 31
0.0
  0
LINE
  5
74F
  8
0
 10
23.576278438999989
 20
47.946578452499992
 30
0.0
 11
23.573954959199991
 21
36.8148693694
 31
0.0
  0
LINE
  5
750
  8
0
 10
22.821896906199989
 20
36.065156369699999
 30
0.0
 11
17.16202936189999
 21
36.065135163800001
 31
0.0
  0
LINE
  5
751
  8
0
 10
16.409734511699991
 20
36.815273407699998
 30
0.0
 11
16.40862121579999
 21
47.9462180879
 31
0.0
  0
ARC
  5
752
  8
0
 10
17.22717808475938
 20
47.876732203871988
 30
0.0
 40
0.8215008434565053
 50
94.874968666526868
 51
175.1478923551291
  0
ARC
  5
753
  8
0
 10
22.757621687778379
 20
47.876585332620877
 30
0.0
 40
0.8216434221431608
 50
4.8867629030917739
 51
85.119395759999009
  0
ARC
  5
754
  8
0
 10
22.751272285046159
 20
36.888063620643173
 30
0.0
 40
0.8259323100399711
 50
274.90529326521641
 51
354.91576927640727
  0
ARC
  5
755
  8
0
 10
17.232751596441521
 20
36.888378482383636
 30
0.0
 40
0.8262754964605653
 50
185.09001718686179
 51
265.0899554700834
  0
LINE
  5
757
  8
0
 10
11.901811270399991
 20
47.943119761299997
 30
0.0
 11
11.90032950639999
 21
36.810320252700002
 31
0.0
  0
LINE
  5
758
  8
0
 10
11.14714315509999
 20
36.060193656999999
 30
0.0
 11
-3.0446096926000048
 21
36.027014415899998
 31
0.0
  0
LINE
  5
759
  8
0
 10
-3.8006140185000059
 20
36.777040449899999
 30
0.0
 11
-3.8015691208000031
 21
47.940082324199999
 31
0.0
  0
LINE
  5
75A
  8
0
 10
11.15284845069999
 20
48.692408313999991
 30
0.0
 11
-3.050969401100005
 21
48.6900205504
 31
0.0
  0
ARC
  5
75B
  8
0
 10
-2.974149619598478
 20
47.862532477139823
 30
0.0
 40
0.8310462022160807
 50
95.303846692211025
 51
174.6443306170535
  0
ARC
  5
75C
  8
0
 10
11.06344490893842
 20
47.854081241298893
 30
0.0
 40
0.8430812619445252
 50
6.0623607793379888
 51
83.912681279414244
  0
ARC
  5
75D
  8
0
 10
11.07515278752477
 20
36.885670844167919
 30
0.0
 40
0.8286098668473181
 50
274.98473647153202
 51
354.78254269465481
  0
ARC
  5
75E
  8
0
 10
-2.9711500408846212
 20
36.857090159919842
 30
0.0
 40
0.8333177342621457
 50
185.51241585512889
 51
264.9395027693123
  0
ARC
  5
768
  8
0
 10
16.259699711442941
 20
48.789588237159762
 30
0.0
 40
1.30296387373198
 50
83.376999273818015
 51
186.70813964795181
  0
ARC
  5
769
  8
0
 10
12.06407156550144
 20
48.811830405681967
 30
0.0
 40
1.283696504571004
 50
352.18996014299432
 51
97.731336162437913
  0
ARC
  5
76A
  8
0
 10
16.265211663431192
 20
35.375641779893563
 30
0.0
 40
1.3018494426069529
 50
176.59838903737
 51
276.39161855162939
  0
ARC
  5
76B
  8
0
 10
12.05189546852935
 20
35.359215504091928
 30
0.0
 40
1.28737739074326
 50
262.83740793271397
 51
4.1725770273306821
  0
ATTDEF
  5
84C
  8
DEFPOINTS
 10
9.8958650715523042
 20
40.97033227768047
 30
0.0
 40
0.001
  1
CAST IRON
  3

  2
MATERIAL
 70
     0
1001
ACDBATTR
1070
     0
1070
     1
  0
ATTDEF
  5
84D
  8
DEFPOINTS
 10
9.8958650715523042
 20
40.971998944347142
 30
0.0
 40
0.001
  1
SINKS
  3

  2
PRODUCT
 70
     0
1001
ACDBATTR
1070
     0
1070
     1
  0
ATTDEF
  5
84E
  8
DEFPOINTS
 10
9.8958650715523042
 20
40.9736656110138
 30
0.0
 40
0.001
  1
WHITEHAVEN
  3

  2
TRADENAME
 70
     0
1001
ACDBATTR
1070
     0
1070
     1
  0
ATTDEF
  5
84F
  8
DEFPOINTS
 10
9.8958650715523042
 20
40.975332277680472
 30
0.0
 40
0.001
  1
K-6427
  3

  2
MODELNUMBER
 70
     0
1001
ACDBATTR
1070
     0
1070
     1
  0
ENDSEC
  0
EOF
