  0
SECTION
  2
HEADER
  9
$ACADVER
  1
AC1009
  9
$INSBASE
 10
9.9007582008999986
 20
20.385065537500001
 30
0.0
  9
$EXTMIN
 10
-14.74850588261563
 20
10.5700655178
 30
0.0
  9
$EXTMAX
 10
29.30759588802886
 20
26.614686222250249
 30
0.0
  9
$LIMMIN
 10
0.0
 20
0.0
  9
$LIMMAX
 10
22.0
 20
17.0
  9
$ORTHOMODE
 70
     1
  9
$REGENMODE
 70
     1
  9
$FILLMODE
 70
     1
  9
$QTEXTMODE
 70
     0
  9
$MIRRTEXT
 70
     0
  9
$DRAGMODE
 70
     2
  9
$LTSCALE
 40
1.2099999999999991
  9
$OSMODE
 70
    47
  9
$ATTMODE
 70
     1
  9
$TEXTSIZE
 40
0.001
  9
$TRACEWID
 40
0.05
  9
$TEXTSTYLE
  7
STANDARD
  9
$CLAYER
  8
0
  9
$CELTYPE
  6
BYLAYER
  9
$CECOLOR
 62
   256
  9
$DIMSCALE
 40
1.0
  9
$DIMASZ
 40
0.1875
  9
$DIMEXO
 40
0.0625
  9
$DIMDLI
 40
0.8359999999999999
  9
$DIMRND
 40
0.0
  9
$DIMDLE
 40
0.0
  9
$DIMEXE
 40
0.125
  9
$DIMTP
 40
0.0
  9
$DIMTM
 40
0.0
  9
$DIMTXT
 40
0.15625
  9
$DIMCEN
 40
0.198
  9
$DIMTSZ
 40
0.0
  9
$DIMTOL
 70
     0
  9
$DIMLIM
 70
     0
  9
$DIMTIH
 70
     1
  9
$DIMTOH
 70
     1
  9
$DIMSE1
 70
     0
  9
$DIMSE2
 70
     0
  9
$DIMTAD
 70
     0
  9
$DIMZIN
 70
     0
  9
$DIMBLK
  1

  9
$DIMASO
 70
     1
  9
$DIMSHO
 70
     1
  9
$DIMPOST
  1

  9
$DIMAPOST
  1

  9
$DIMALT
 70
     0
  9
$DIMALTD
 70
     2
  9
$DIMALTF
 40
25.399999999999999
  9
$DIMLFAC
 40
1.0
  9
$DIMTOFL
 70
     0
  9
$DIMTVP
 40
0.0
  9
$DIMTIX
 70
     0
  9
$DIMSOXD
 70
     0
  9
$DIMSAH
 70
     0
  9
$DIMBLK1
  1

  9
$DIMBLK2
  1

  9
$DIMSTYLE
  2
STANDARD
  9
$DIMCLRD
 70
     0
  9
$DIMCLRE
 70
     0
  9
$DIMCLRT
 70
     0
  9
$DIMTFAC
 40
1.0
  9
$DIMGAP
 40
0.09
  9
$LUNITS
 70
     2
  9
$LUPREC
 70
     4
  9
$SKETCHINC
 40
0.1
  9
$FILLETRAD
 40
0.0
  9
$AUNITS
 70
     0
  9
$AUPREC
 70
     0
  9
$MENU
  1
.
  9
$ELEVATION
 40
0.0
  9
$PELEVATION
 40
0.0
  9
$THICKNESS
 40
0.0
  9
$LIMCHECK
 70
     0
  9
$BLIPMODE
 70
     0
  9
$CHAMFERA
 40
0.0
  9
$CHAMFERB
 40
0.0
  9
$SKPOLY
 70
     0
  9
$TDCREATE
 40
2457266.4493271532
  9
$TDUPDATE
 40
2457266.546810938
  9
$TDINDWG
 40
0.0903628588
  9
$TDUSRTIMER
 40
0.0903628588
  9
$USRTIMER
 70
     1
  9
$ANGBASE
 50
0.0
  9
$ANGDIR
 70
     0
  9
$PDMODE
 70
     0
  9
$PDSIZE
 40
0.3125
  9
$PLINEWID
 40
0.0
  9
$COORDS
 70
     1
  9
$SPLFRAME
 70
     0
  9
$SPLINETYPE
 70
     6
  9
$SPLINESEGS
 70
     8
  9
$ATTDIA
 70
     0
  9
$ATTREQ
 70
     1
  9
$HANDLING
 70
     1
  9
$HANDSEED
  5
722
  9
$SURFTAB1
 70
     6
  9
$SURFTAB2
 70
     6
  9
$SURFTYPE
 70
     6
  9
$SURFU
 70
     6
  9
$SURFV
 70
     6
  9
$UCSNAME
  2

  9
$UCSORG
 10
0.0
 20
0.0
 30
0.0
  9
$UCSXDIR
 10
1.0
 20
0.0
 30
0.0
  9
$UCSYDIR
 10
0.0
 20
1.0
 30
0.0
  9
$PUCSNAME
  2

  9
$PUCSORG
 10
0.0
 20
0.0
 30
0.0
  9
$PUCSXDIR
 10
1.0
 20
0.0
 30
0.0
  9
$PUCSYDIR
 10
0.0
 20
1.0
 30
0.0
  9
$USERI1
 70
     0
  9
$USERI2
 70
     0
  9
$USERI3
 70
     0
  9
$USERI4
 70
     0
  9
$USERI5
 70
     0
  9
$USERR1
 40
0.0
  9
$USERR2
 40
0.0
  9
$USERR3
 40
0.0
  9
$USERR4
 40
0.0
  9
$USERR5
 40
0.0
  9
$WORLDVIEW
 70
     1
  9
$SHADEDGE
 70
     3
  9
$SHADEDIF
 70
    70
  9
$TILEMODE
 70
     1
  9
$MAXACTVP
 70
    64
  9
$PLIMCHECK
 70
     0
  9
$PEXTMIN
 10
1.0000000000000000E+020
 20
1.0000000000000000E+020
 30
1.0000000000000000E+020
  9
$PEXTMAX
 10
-1.0000000000000000E+020
 20
-1.0000000000000000E+020
 30
-1.0000000000000000E+020
  9
$PLIMMIN
 10
0.0
 20
0.0
  9
$PLIMMAX
 10
12.0
 20
9.0
  9
$UNITMODE
 70
     0
  9
$VISRETAIN
 70
     1
  9
$PLINEGEN
 70
     0
  9
$PSLTSCALE
 70
     1
  0
ENDSEC
  0
SECTION
  2
TABLES
  0
TABLE
  2
VPORT
 70
     1
  0
VPORT
  2
*ACTIVE
 70
     0
 10
0.0
 20
0.0
 11
1.0
 21
1.0
 12
11.48012227852209
 22
17.27000619428366
 13
0.0
 23
0.0
 14
1.0
 24
1.0
 15
0.0
 25
0.0
 16
0.0
 26
0.0
 36
1.0
 17
0.0
 27
0.0
 37
0.0
 40
19.525617799952851
 41
2.2293364377182772
 42
50.0
 43
0.0
 44
0.0
 50
0.0
 51
0.0
 71
     0
 72
   100
 73
     1
 74
     1
 75
     0
 76
     0
 77
     0
 78
     0
  0
ENDTAB
  0
TABLE
  2
LTYPE
 70
     7
  0
LTYPE
  2
CONTINUOUS
 70
     0
  3
Solid line
 72
    65
 73
     0
 40
0.0
  0
ENDTAB
  0
TABLE
  2
LAYER
 70
    26
  0
LAYER
  2
0
 70
     0
 62
     7
  6
CONTINUOUS
  0
LAYER
  2
DEFPOINTS
 70
     0
 62
     7
  6
CONTINUOUS
  0
ENDTAB
  0
TABLE
  2
STYLE
 70
     2
  0
STYLE
  2
STANDARD
 70
     0
 40
0.0
 41
0.8
 50
0.0
 71
     0
 42
0.001
  3
txt
  4

  0
ENDTAB
  0
TABLE
  2
VIEW
 70
     0
  0
ENDTAB
  0
TABLE
  2
UCS
 70
     0
  0
ENDTAB
  0
TABLE
  2
APPID
 70
     5
  0
APPID
  2
ACAD
 70
     0
  0
APPID
  2
ACAD_MLEADERVER
 70
     0
  0
APPID
  2
ACAD_NAV_VCDISPLAY
 70
     0
  0
APPID
  2
ACAD_EXEMPT_FROM_CAD_STANDARDS
 70
     0
  0
APPID
  2
AcDbAttr
 70
     0
  0
ENDTAB
  0
TABLE
  2
DIMSTYLE
 70
     2
  0
DIMSTYLE
  2
STANDARD
 70
     0
  3

  4

  5

  6

  7

 40
1.0
 41
0.1875
 42
0.0625
 43
0.38
 44
0.125
 45
0.0
 46
0.0
 47
1.5
 48
1.5
140
0.15625
141
0.09
142
0.0
143
25.399999999999999
144
1.0
145
0.0
146
1.0
147
0.09
 71
     0
 72
     0
 73
     1
 74
     1
 75
     0
 76
     0
 77
     0
 78
     4
170
     0
171
     2
172
     0
173
     0
174
     0
175
     0
176
     0
177
     0
178
     0
  0
ENDTAB
  0
ENDSEC
  0
SECTION
  2
BLOCKS
  0
BLOCK
  8
0
  2
$MODEL_SPACE
 70
     2
 10
0.0
 20
0.0
 30
0.0
  3
$MODEL_SPACE
  1

  0
ENDBLK
  5
21
  8
0
  0
BLOCK
 67
     1
  8
0
  2
$PAPER_SPACE
 70
     0
 10
0.0
 20
0.0
 30
0.0
  3
$PAPER_SPACE
  1

  0
ENDBLK
  5
1D
 67
     1
  8
0
  0
ENDSEC
  0
SECTION
  2
ENTITIES
  0
LINE
  5
217
  8
0
 10
-7.9509327637
 20
19.755065267799999
 30
0.0
 11
-7.9509327637
 21
13.2061549864
 31
0.0
  0
LINE
  5
21A
  8
0
 10
-2.6328845891000001
 20
11.162128489900001
 30
0.0
 11
-2.474206936799999
 21
10.5700655178
 31
0.0
  0
LINE
  5
21C
  8
0
 10
-0.7242766614000001
 20
10.5700655178
 30
0.0
 11
-0.5845774513000001
 21
11.0912999794
 31
0.0
  0
LINE
  5
234
  8
0
 10
-0.7242767344
 20
10.5700655375
 30
0.0
 11
-2.4742068638000001
 21
10.5700655375
 31
0.0
  0
LINE
  5
23A
  8
0
 10
-0.5208676183
 20
11.201133129600001
 30
0.0
 11
3.4252361582999988
 21
11.063332149200001
 31
0.0
  0
LINE
  5
23D
  8
0
 10
-6.3331524219000004
 20
11.588374572899999
 30
0.0
 11
26.134668752
 21
11.588374572899999
 31
0.0
  0
LINE
  5
246
  8
0
 10
-7.3202322587999991
 20
20.385065537500001
 30
0.0
 11
27.121748660600002
 21
20.385065537500001
 31
0.0
  0
LINE
  5
24D
  8
0
 10
27.752449165500011
 20
13.206154914700001
 30
0.0
 11
27.752449165500011
 21
19.755065267799999
 31
0.0
  0
ARC
  5
529
  8
0
 10
27.12209908087048
 20
19.754715452932139
 30
0.0
 40
0.630350181694979
 50
0.031796479401331
 51
90.031806578093295
  0
ARC
  5
52A
  8
0
 10
26.110370307634181
 20
13.230453608150549
 30
0.0
 40
1.6422586282170399
 50
270.84776860804891
 51
359.15222647616957
  0
ARC
  5
52B
  8
0
 10
-6.3088535992481889
 20
13.23045373627488
 30
0.0
 40
1.6422589356043209
 50
180.847775333908
 51
269.15222212674388
  0
ARC
  5
52C
  8
0
 10
-7.3068915906296601
 20
19.741009022254911
 30
0.0
 40
0.644194676668767
 50
91.186670719662473
 51
178.74971418592401
  0
ARC
  5
52D
  8
0
 10
-3.8838126545984699
 20
12.37508284675155
 30
0.0
 40
1.0658144047660689
 50
227.57225835734391
 51
275.83313573727293
  0
LINE
  5
52E
  8
0
 10
-3.7754921808848851
 20
11.314787123671749
 30
0.0
 11
-2.704757547287628
 21
11.277396246432691
 31
0.0
  0
ARC
  5
536
  8
0
 10
-2.8406750068697511
 20
11.11260620133897
 30
0.0
 40
0.2136101935331028
 50
13.40512152124206
 51
50.484471191285657
  0
ARC
  5
537
  8
0
 10
-0.3829891160084711
 20
11.043124492177171
 30
0.0
 40
0.2072648896816992
 50
130.38170116315069
 51
166.5595633280943
  0
LINE
  5
538
  8
0
 10
-0.5172711987612781
 20
11.201007539862269
 30
0.0
 11
3.4252361582875488
 21
11.063332149200431
 31
0.0
  0
LINE
  5
539
  8
0
 10
3.4252361582824871
 20
11.063332149173711
 30
0.0
 11
4.2360309037999988
 21
10.750065537499999
 31
0.0
  0
LINE
  5
53A
  8
0
 10
4.2360309037999988
 20
10.750065537499999
 30
0.0
 11
9.3154005939439593
 21
10.75436055398953
 31
0.0
  0
LINE
  5
53B
  8
0
 10
9.3154005939439593
 20
10.75436055398953
 30
0.0
 11
10.102280243499999
 21
11.063332149200001
 31
0.0
  0
LINE
  5
53C
  8
0
 10
10.102280243499999
 20
11.063332149200001
 30
0.0
 11
11.8801510839
 21
11.125416767000001
 31
0.0
  0
ARC
  5
53D
  8
0
 10
11.799670158901581
 20
12.81265958899046
 30
0.0
 40
1.689161188178008
 50
272.7309198196541
 51
313.54872333344917
  0
ARC
  5
53E
  8
0
 10
16.55782824489329
 20
12.783479820177501
 30
0.0
 40
1.7228472061493909
 50
223.92215096134979
 51
273.20786045864293
  0
LINE
  5
53F
  8
0
 10
16.654236158297749
 20
11.06333214917318
 30
0.0
 11
17.441115807856381
 21
10.7543605539894
 31
0.0
  0
LINE
  5
540
  8
0
 10
17.441115807856381
 20
10.7543605539894
 30
0.0
 11
20.477527346199999
 21
10.750065537499999
 31
0.0
  0
LINE
  5
541
  8
0
 10
20.416763484899999
 20
10.976839422499999
 30
0.0
 11
20.525793136200001
 21
10.5700655375
 31
0.0
  0
LINE
  5
542
  8
0
 10
20.525793136200001
 20
10.5700655375
 30
0.0
 11
22.2757232656
 21
10.5700655375
 31
0.0
  0
LINE
  5
543
  8
0
 10
22.2757232656
 20
10.5700655375
 30
0.0
 11
22.390238046299999
 21
10.997310136999999
 31
0.0
  0
LINE
  5
544
  8
0
 10
22.3239890555
 20
10.750065537499999
 30
0.0
 11
22.520485497999999
 21
10.750065537499999
 31
0.0
  0
LINE
  5
546
  8
0
 10
23.3312802435
 20
11.063332149200001
 30
0.0
 11
23.889934696800001
 21
11.117551508
 31
0.0
  0
ARC
  5
547
  8
0
 10
23.418334886845749
 20
12.79750380343166
 30
0.0
 40
1.74489142804789
 50
285.68060702157879
 51
316.13561117281881
  0
LINE
  5
548
  8
0
 10
20.2194153706
 20
11.156942149400001
 30
0.0
 11
15.98986900227243
 21
11.156942149400001
 31
0.0
  0
LINE
  5
549
  8
0
 10
22.581980479799999
 20
11.1749914842
 30
0.0
 11
24.060284939121232
 21
11.1749914842
 31
0.0
  0
ARC
  5
54A
  8
0
 10
22.520258200899999
 20
10.820065537499969
 30
0.0
 40
0.0699999999999772
 50
269.99999989769589
 51
310.35032458190881
  0
ARC
  5
54B
  8
0
 10
23.374904614400009
 20
9.8140936153999867
 30
0.0
 40
1.2500000000000151
 50
92.00000000140038
 51
130.35032458299989
  0
ARC
  5
54C
  8
0
 10
22.63330655899135
 20
10.927342906213051
 30
0.0
 40
0.2529114164764272
 50
101.7089897970672
 51
164.34761650124921
  0
ARC
  5
54E
  8
0
 10
20.178122419384032
 20
10.913518237611379
 30
0.0
 40
0.2469014148412176
 50
15.288740937246461
 51
80.372341874569855
  0
ATTDEF
  5
5E7
  8
DEFPOINTS
 10
9.8976011785961315
 20
20.380634836031181
 30
0.0
 40
0.001
  1
K-6427
  3

  2
MODELNUMBER
 70
     0
1001
AcDbAttr
1070
     0
1070
     1
  0
ATTDEF
  5
5E8
  8
DEFPOINTS
 10
9.8976011785961315
 20
20.378968169364519
 30
0.0
 40
0.001
  1
WHITEHAVEN
  3

  2
TRADENAME
 70
     0
1001
AcDbAttr
1070
     0
1070
     1
  0
ATTDEF
  5
5E9
  8
DEFPOINTS
 10
9.8976011785961315
 20
20.377301502697851
 30
0.0
 40
0.001
  1
SINKS
  3

  2
PRODUCT
 70
     0
1001
AcDbAttr
1070
     0
1070
     1
  0
ATTDEF
  5
5EA
  8
DEFPOINTS
 10
9.8976011785961315
 20
20.375634836031178
 30
0.0
 40
0.001
  1
CAST IRON
  3

  2
MATERIAL
 70
     0
1001
AcDbAttr
1070
     0
1070
     1
  0
ENDSEC
  0
EOF
