  0
SECTION
  2
HEADER
  9
$ACADVER
  1
AC1009
  9
$INSBASE
 10
477.45598842161422
 20
-0.1941472525330425
 30
0.0
  9
$EXTMIN
 10
460.95598842161422
 20
-10.75914725253304
 30
0.0
  9
$EXTMAX
 10
493.95598842161428
 20
10.37085274746695
 30
0.0
  9
$LIMMIN
 10
0.0
 20
0.0
  9
$LIMMAX
 10
11.692913385800001
 20
8.2677165353999982
  9
$ORTHOMODE
 70
     1
  9
$REGENMODE
 70
     1
  9
$FILLMODE
 70
     1
  9
$QTEXTMODE
 70
     0
  9
$MIRRTEXT
 70
     0
  9
$DRAGMODE
 70
     2
  9
$LTSCALE
 40
0.6431102362
  9
$OSMODE
 70
  3071
  9
$ATTMODE
 70
     1
  9
$TEXTSIZE
 40
0.2
  9
$TRACEWID
 40
0.05
  9
$TEXTSTYLE
  7
STANDARD
  9
$CLAYER
  8
0
  9
$CELTYPE
  6
BYLAYER
  9
$CECOLOR
 62
   256
  9
$DIMSCALE
 40
1.0
  9
$DIMASZ
 40
0.1875
  9
$DIMEXO
 40
0.0625
  9
$DIMDLI
 40
0.4443307087
  9
$DIMRND
 40
0.0
  9
$DIMDLE
 40
0.0
  9
$DIMEXE
 40
0.125
  9
$DIMTP
 40
0.01
  9
$DIMTM
 40
0.01
  9
$DIMTXT
 40
2.0
  9
$DIMCEN
 40
0.1052362205
  9
$DIMTSZ
 40
0.0
  9
$DIMTOL
 70
     1
  9
$DIMLIM
 70
     0
  9
$DIMTIH
 70
     1
  9
$DIMTOH
 70
     1
  9
$DIMSE1
 70
     0
  9
$DIMSE2
 70
     0
  9
$DIMTAD
 70
     0
  9
$DIMZIN
 70
     0
  9
$DIMBLK
  1

  9
$DIMASO
 70
     1
  9
$DIMSHO
 70
     1
  9
$DIMPOST
  1
\X
  9
$DIMAPOST
  1

  9
$DIMALT
 70
     1
  9
$DIMALTD
 70
     2
  9
$DIMALTF
 40
25.399999999999999
  9
$DIMLFAC
 40
1.0
  9
$DIMTOFL
 70
     0
  9
$DIMTVP
 40
0.0
  9
$DIMTIX
 70
     0
  9
$DIMSOXD
 70
     0
  9
$DIMSAH
 70
     0
  9
$DIMBLK1
  1

  9
$DIMBLK2
  1

  9
$DIMSTYLE
  2
STANDARD
  9
$DIMCLRD
 70
     0
  9
$DIMCLRE
 70
     0
  9
$DIMCLRT
 70
     0
  9
$DIMTFAC
 40
1.0
  9
$DIMGAP
 40
0.09
  9
$LUNITS
 70
     2
  9
$LUPREC
 70
     4
  9
$SKETCHINC
 40
0.1
  9
$FILLETRAD
 40
0.0
  9
$AUNITS
 70
     0
  9
$AUPREC
 70
     0
  9
$MENU
  1
.
  9
$ELEVATION
 40
0.0
  9
$PELEVATION
 40
0.0
  9
$THICKNESS
 40
0.0
  9
$LIMCHECK
 70
     0
  9
$BLIPMODE
 70
     0
  9
$CHAMFERA
 40
0.0
  9
$CHAMFERB
 40
0.0
  9
$SKPOLY
 70
     0
  9
$TDCREATE
 40
2458060.4683680669
  9
$TDUPDATE
 40
2458618.6469948958
  9
$TDINDWG
 40
0.2452964236
  9
$TDUSRTIMER
 40
0.2452964236
  9
$USRTIMER
 70
     1
  9
$ANGBASE
 50
0.0
  9
$ANGDIR
 70
     0
  9
$PDMODE
 70
     0
  9
$PDSIZE
 40
0.3125
  9
$PLINEWID
 40
0.0
  9
$COORDS
 70
     1
  9
$SPLFRAME
 70
     0
  9
$SPLINETYPE
 70
     6
  9
$SPLINESEGS
 70
     8
  9
$ATTDIA
 70
     1
  9
$ATTREQ
 70
     1
  9
$HANDLING
 70
     1
  9
$HANDSEED
  5
4590
  9
$SURFTAB1
 70
     6
  9
$SURFTAB2
 70
     6
  9
$SURFTYPE
 70
     6
  9
$SURFU
 70
     6
  9
$SURFV
 70
     6
  9
$UCSNAME
  2

  9
$UCSORG
 10
0.0
 20
0.0
 30
0.0
  9
$UCSXDIR
 10
1.0
 20
0.0
 30
0.0
  9
$UCSYDIR
 10
0.0
 20
1.0
 30
0.0
  9
$PUCSNAME
  2

  9
$PUCSORG
 10
0.0
 20
0.0
 30
0.0
  9
$PUCSXDIR
 10
1.0
 20
0.0
 30
0.0
  9
$PUCSYDIR
 10
0.0
 20
1.0
 30
0.0
  9
$USERI1
 70
     0
  9
$USERI2
 70
     0
  9
$USERI3
 70
     0
  9
$USERI4
 70
     0
  9
$USERI5
 70
     0
  9
$USERR1
 40
0.0
  9
$USERR2
 40
0.0
  9
$USERR3
 40
0.0
  9
$USERR4
 40
0.0
  9
$USERR5
 40
0.0
  9
$WORLDVIEW
 70
     1
  9
$SHADEDGE
 70
     3
  9
$SHADEDIF
 70
    70
  9
$TILEMODE
 70
     1
  9
$MAXACTVP
 70
    64
  9
$PLIMCHECK
 70
     0
  9
$PEXTMIN
 10
1.0000000000000000E+020
 20
1.0000000000000000E+020
 30
1.0000000000000000E+020
  9
$PEXTMAX
 10
-1.0000000000000000E+020
 20
-1.0000000000000000E+020
 30
-1.0000000000000000E+020
  9
$PLIMMIN
 10
0.0
 20
0.0
  9
$PLIMMAX
 10
12.0
 20
9.0
  9
$UNITMODE
 70
     0
  9
$VISRETAIN
 70
     1
  9
$PLINEGEN
 70
     0
  9
$PSLTSCALE
 70
     1
  0
ENDSEC
  0
SECTION
  2
TABLES
  0
TABLE
  2
VPORT
 70
     1
  0
VPORT
  2
*ACTIVE
 70
     0
 10
0.0
 20
0.0
 11
1.0
 21
1.0
 12
0.0
 22
0.0
 13
0.0
 23
0.0
 14
1.0
 24
1.0
 15
0.0
 25
0.0
 16
0.0
 26
0.0
 36
110.19265757156769
 17
477.45598842161422
 27
-0.1941472525330425
 37
0.0
 40
39.198793917579479
 41
2.0984340044742731
 42
50.0
 43
0.0
 44
0.0
 50
0.0
 51
0.0
 71
     0
 72
   100
 73
     1
 74
     1
 75
     0
 76
     0
 77
     0
 78
     0
  0
ENDTAB
  0
TABLE
  2
LTYPE
 70
     2
  0
LTYPE
  2
CONTINUOUS
 70
     0
  3
Solid line
 72
    65
 73
     0
 40
0.0
  0
LTYPE
  2
PHANTOM2
 70
     0
  3
___ _ _ ___ _ _ ___ _ _ ___ _ _
 72
    65
 73
     6
 40
1.25
 49
0.625
 49
-0.125
 49
0.125
 49
-0.125
 49
0.125
 49
-0.125
  0
ENDTAB
  0
TABLE
  2
LAYER
 70
     2
  0
LAYER
  2
0
 70
     0
 62
   255
  6
CONTINUOUS
  0
LAYER
  2
DEFPOINTS
 70
     0
 62
     7
  6
CONTINUOUS
  0
ENDTAB
  0
TABLE
  2
STYLE
 70
     1
  0
STYLE
  2
STANDARD
 70
     0
 40
0.0
 41
0.8
 50
0.0
 71
     0
 42
0.2
  3
txt
  4

  0
ENDTAB
  0
TABLE
  2
VIEW
 70
     0
  0
ENDTAB
  0
TABLE
  2
UCS
 70
     0
  0
ENDTAB
  0
TABLE
  2
APPID
 70
     9
  0
APPID
  2
ACAD
 70
     0
  0
APPID
  2
ACAD_MLEADERVER
 70
     0
  0
APPID
  2
ACAD_EXEMPT_FROM_CAD_STANDARDS
 70
     0
  0
APPID
  2
ACAD_NAV_VCDISPLAY
 70
     0
  0
APPID
  2
ACAECLAYERSTANDARD
 70
     0
  0
APPID
  2
ACCMTRANSPARENCY
 70
     0
  0
APPID
  2
ACAD_DSTYLE_DIMJAG
 70
     0
  0
APPID
  2
ACAD_DSTYLE_DIMTALN
 70
     0
  0
APPID
  2
ACDBATTR
 70
     0
  0
ENDTAB
  0
TABLE
  2
DIMSTYLE
 70
     1
  0
DIMSTYLE
  2
STANDARD
 70
     0
  3

  4

  5

  6

  7

 40
1.0
 41
0.1875
 42
0.0625
 43
0.38
 44
0.125
 45
0.0
 46
0.0
 47
0.01
 48
0.01
140
0.15625
141
0.09
142
0.0
143
25.399999999999999
144
1.0
145
0.0
146
1.0
147
0.09
 71
     1
 72
     0
 73
     1
 74
     1
 75
     0
 76
     0
 77
     0
 78
     4
170
     0
171
     2
172
     0
173
     0
174
     0
175
     0
176
     0
177
     0
178
     0
  0
ENDTAB
  0
ENDSEC
  0
SECTION
  2
BLOCKS
  0
BLOCK
  8
0
  2
$MODEL_SPACE
 70
     0
 10
0.0
 20
0.0
 30
0.0
  3
$MODEL_SPACE
  1

  0
ENDBLK
  5
21
  8
0
  0
BLOCK
 67
     1
  8
0
  2
$PAPER_SPACE
 70
     0
 10
0.0
 20
0.0
 30
0.0
  3
$PAPER_SPACE
  1

  0
ENDBLK
  5
1D
 67
     1
  8
0
  0
ENDSEC
  0
SECTION
  2
ENTITIES
  0
ATTDEF
  5
3930
  8
DEFPOINTS
 10
477.4525305894723
 20
-0.1885453203402676
 30
0.0
 40
0.001
  1
K-6411-3
  3

  2
MODELNUMBER
 70
     0
1001
ACDBATTR
1070
     0
1070
     1
  0
ATTDEF
  5
3931
  8
DEFPOINTS
 10
477.4525305894723
 20
-0.1902119870069327
 30
0.0
 40
0.001
  1
INDIO
  3

  2
TRADENAME
 70
     0
1001
ACDBATTR
1070
     0
1070
     1
  0
ATTDEF
  5
3932
  8
DEFPOINTS
 10
477.4525305894723
 20
-0.1918786536735979
 30
0.0
 40
0.001
  1
KITCHEN SINK
  3

  2
PRODUCT
 70
     0
1001
ACDBATTR
1070
     0
1070
     1
  0
ATTDEF
  5
3933
  8
DEFPOINTS
 10
477.4525305894723
 20
-0.193545320340263
 30
0.0
 40
0.001
  1
CAST IRON
  3

  2
MATERIAL
 70
     0
1001
ACDBATTR
1070
     0
1070
     1
  0
LINE
  5
4404
  8
0
 10
460.95598842161422
 20
-10.75914725253304
 30
0.0
 11
460.95598842161422
 21
10.37085274746695
 31
0.0
  0
LINE
  5
4405
  8
0
 10
461.6509445899631
 20
8.6571013474579246
 30
0.0
 11
461.6509445899631
 21
-9.0333045230547171
 31
0.0
  0
LINE
  5
4406
  8
0
 10
462.38675672111418
 20
-7.6887149465330458
 30
0.0
 11
462.38675637170519
 21
7.3083523535962618
 31
0.0
  0
LINE
  5
4407
  8
0
 10
493.95598842161428
 20
-10.75914725253304
 30
0.0
 11
460.95598842161422
 21
-10.75914725253304
 31
0.0
  0
LINE
  5
4408
  8
0
 10
482.5893752016143
 20
5.346958952066962
 30
0.0
 11
491.31968143131428
 21
5.346958952066962
 31
0.0
  0
LINE
  5
4409
  8
0
 10
481.28438632541418
 20
5.7807997485669631
 30
0.0
 11
476.87573987118878
 21
8.3261329647216868
 31
0.0
  0
LINE
  5
440A
  8
0
 10
475.90614874012221
 20
8.4971430384669588
 30
0.0
 11
491.64661373151432
 21
8.4971430384669588
 31
0.0
  0
LINE
  5
440B
  8
0
 10
463.61042072761421
 20
8.5240843390669667
 30
0.0
 11
475.58416297471422
 21
8.5240653935669641
 31
0.0
  0
LINE
  5
440C
  8
0
 10
492.68443120683293
 20
9.2580162378669542
 30
0.0
 11
462.22754563639569
 21
9.2580162378669542
 31
0.0
  0
LINE
  5
440D
  8
0
 10
460.95598842161422
 20
10.37085274746695
 30
0.0
 11
493.95598842161428
 21
10.37085274746695
 31
0.0
  0
LINE
  5
440E
  8
0
 10
492.52253809501423
 20
7.6212186749669542
 30
0.0
 11
492.52253809501423
 21
4.3915808408639521
 31
0.0
  0
LINE
  5
440F
  8
0
 10
492.54947800371423
 20
3.9584204414669619
 30
0.0
 11
492.5494800744143
 21
-7.6887149467330431
 31
0.0
  0
ARC
  5
4410
  8
0
 10
487.71293170221418
 20
-2482.238700540734
 30
0.0
 40
2474.2893185370999
 50
89.931021984299349
 51
90.066745522400609
  0
CIRCLE
  5
4411
  8
0
 10
482.60798842161421
 20
6.9263527474669573
 30
0.0
 40
0.6875
  0
CIRCLE
  5
4412
  8
0
 10
490.60798842161432
 20
6.9263527474669573
 30
0.0
 40
0.6875
  0
CIRCLE
  5
4413
  8
0
 10
486.60798842161432
 20
6.9263527474669573
 30
0.0
 40
0.6875
  0
ARC
  5
4414
  8
0
 10
487.72045502599269
 20
1191.0963107644891
 30
0.0
 40
1186.890639006222
 50
269.86105414970763
 51
270.14287999530728
  0
ARC
  5
4415
  8
0
 10
1454.1277091319139
 20
1691.4110417427671
 30
0.0
 40
1947.3567755255001
 50
239.86255831340091
 51
240.00530452300029
  0
LINE
  5
4416
  8
0
 10
493.95598842161428
 20
-10.75914725253304
 30
0.0
 11
493.95598842161428
 21
10.37085274746695
 31
0.0
  0
ARC
  5
4417
  8
0
 10
462.25867270329371
 20
8.6510556827230047
 30
0.0
 40
0.6077581836506402
 50
92.93575673013126
 51
179.43004175683399
  0
LINE
  5
4418
  8
0
 10
492.68443120683293
 20
-9.6463107429330393
 30
0.0
 11
462.22754563639569
 21
-9.6463107429330393
 31
0.0
  0
ARC
  5
4419
  8
0
 10
462.25867270329371
 20
-9.0393501877890898
 30
0.0
 40
0.6077581836506406
 50
179.43004175698951
 51
267.06424326986871
  0
LINE
  5
441A
  8
0
 10
493.2610322532654
 20
8.6571013474579246
 30
0.0
 11
493.2610322532654
 21
-9.0333045230547171
 31
0.0
  0
ARC
  5
441B
  8
0
 10
492.65330413993479
 20
8.6510556827230047
 30
0.0
 40
0.6077581836506725
 50
0.5699582431659689
 51
87.064243269865486
  0
ARC
  5
441C
  8
0
 10
492.65330413993479
 20
-9.0393501877890898
 30
0.0
 40
0.6077581836506406
 50
272.93575673013129
 51
0.5699582430104278
  0
LINE
  5
441D
  8
0
 10
464.22378178532767
 20
7.5836346120535083
 30
0.0
 11
475.4172769333278
 21
7.5836346120535012
 31
0.0
  0
ARC
  5
441E
  8
0
 10
475.3691175380647
 20
5.6013650062381819
 30
0.0
 40
1.982854537653056
 50
58.450088469774961
 51
88.608268331610134
  0
ARC
  5
441F
  8
0
 10
479.89673735866648
 20
3.5675007020042169
 30
0.0
 40
1.4744657485941111
 50
1.19415637209242
 51
61.271202940941258
  0
LINE
  5
4420
  8
0
 10
481.37088287424308
 20
3.598229234067126
 30
0.0
 11
481.37088287424308
 21
-7.1519774857674392
 31
0.0
  0
ARC
  5
4421
  8
0
 10
480.38223375206582
 20
-6.9399384791221257
 30
0.0
 40
1.011131854468535
 50
270.18002765043019
 51
347.89495806055157
  0
LINE
  5
4422
  8
0
 10
480.38541079920719
 20
-7.9510653423259683
 30
0.0
 11
464.24573171801268
 21
-7.9510653423259683
 31
0.0
  0
ARC
  5
4423
  8
0
 10
464.23971989796451
 20
-7.036604304574829
 30
0.0
 40
0.9144807988936619
 50
182.0730956859579
 51
270.37666662601657
  0
LINE
  5
4424
  8
0
 10
463.32583763557921
 20
-7.0696851455951943
 30
0.0
 11
463.32583763557921
 21
6.688428305173594
 31
0.0
  0
ARC
  5
4425
  8
0
 10
464.24773181507192
 20
6.6616629986672464
 30
0.0
 40
0.9222826355379428
 50
91.488036145183941
 51
178.337001716126
  0
LINE
  5
4426
  8
0
 10
483.84594871571448
 20
3.212999257200408
 30
0.0
 11
483.84594871571448
 21
-6.9468154153529724
 31
0.0
  0
ARC
  5
4427
  8
0
 10
484.86218003583542
 20
-6.9352558152245862
 30
0.0
 40
1.016297063042982
 50
180.65170962913021
 51
268.21710666529748
  0
LINE
  5
4428
  8
0
 10
491.58845101001418
 20
-7.0547742222330418
 30
0.0
 11
491.58845101001418
 21
3.32448072439422
 31
0.0
  0
ARC
  5
4429
  8
0
 10
490.68708172797159
 20
3.307865816717281
 30
0.0
 40
0.9015224000363357
 50
1.056011459702757
 51
90.435308121010095
  0
ARC
  5
442A
  8
0
 10
490.64600443868147
 20
-7.0087111813076239
 30
0.0
 40
0.9435715889937563
 50
272.77653834576432
 51
357.20183685218348
  0
ARC
  5
442B
  8
0
 10
484.93035432737452
 20
3.1247506145949302
 30
0.0
 40
1.0879905116873121
 50
94.648864826716277
 51
175.34753706485469
  0
LINE
  5
442C
  8
0
 10
463.61042072761421
 20
-8.9123774521330361
 30
0.0
 11
491.3258154981142
 21
-8.9123774521330361
 31
0.0
  0
ARC
  5
442D
  8
0
 10
475.1473101661341
 20
1.3604941387618359
 30
0.0
 40
7.176879091850064
 50
76.064286951983306
 51
86.510279188767711
  0
ARC
  5
442E
  8
0
 10
482.89687198980562
 20
8.4515235775692972
 30
0.0
 40
3.1197557258010491
 50
238.87795172166761
 51
264.34349292299532
  0
ARC
  5
442F
  8
0
 10
491.32352085971502
 20
3.756387702972432
 30
0.0
 40
1.5905758830236849
 50
49.73593773226127
 51
90.138304157054407
  0
ARC
  5
4430
  8
0
 10
490.24334758059882
 20
4.0324112821321227
 30
0.0
 40
2.307317094142161
 50
358.16232895249078
 51
23.979150218002459
  0
ARC
  5
4431
  8
0
 10
491.33036245343101
 20
-7.6932598388431961
 30
0.0
 40
1.219126092673001
 50
269.78630434140217
 51
0.2135986925393689
  0
ARC
  5
4432
  8
0
 10
463.59269549167237
 20
-7.706438703315448
 30
0.0
 40
1.2060690071011331
 50
179.15798100364651
 51
270.842089274486
  0
ARC
  5
4433
  8
0
 10
463.57631435157379
 20
7.3347230169827142
 30
0.0
 40
1.1898502424072579
 50
88.357424291315311
 51
181.2699509424551
  0
ARC
  5
4434
  8
0
 10
491.66154013147298
 20
7.6361450747060351
 30
0.0
 40
0.8611273370595297
 50
359.00681060419441
 51
90.993189430390785
  0
CIRCLE
  5
4435
  8
0
 10
477.50498842161431
 20
0.3439227474669622
 30
0.0
 40
0.31
  0
CIRCLE
  5
4436
  8
0
 10
477.50498842161431
 20
0.3439227474669622
 30
0.0
 40
0.2760925586
  0
CIRCLE
  5
4437
  8
0
 10
477.50498842161431
 20
0.3439227474669622
 30
0.0
 40
2.25
  0
CIRCLE
  5
4438
  8
0
 10
477.50498842161431
 20
0.3439227474669622
 30
0.0
 40
1.6780895467000001
  0
CIRCLE
  5
4439
  8
0
 10
487.71112247161432
 20
0.3439227474669622
 30
0.0
 40
0.31
  0
CIRCLE
  5
443A
  8
0
 10
487.71112247161432
 20
0.3439227474669622
 30
0.0
 40
0.2760925586
  0
CIRCLE
  5
443B
  8
0
 10
487.71112247161432
 20
0.3439227474669622
 30
0.0
 40
2.25
  0
CIRCLE
  5
443C
  8
0
 10
487.71112247161432
 20
0.3439227474669622
 30
0.0
 40
1.6780895467000001
  0
POINT
  5
443E
  8
DEFPOINTS
 10
482.60798842161421
 20
6.9263527474669573
 30
0.0
  0
LINE
  5
443F
  8
0
 10
460.99623320681428
 20
10.33060796226696
 30
0.0
 11
460.99623320681428
 21
-10.71890246723304
 31
0.0
  0
LINE
  5
4440
  8
0
 10
493.91574363641422
 20
-10.71890246723304
 30
0.0
 11
460.99623320681428
 21
-10.71890246723304
 31
0.0
  0
LINE
  5
4441
  8
0
 10
460.95598842161422
 20
-10.75914725253304
 30
0.0
 11
460.99623320681428
 21
-10.71890246723304
 31
0.0
  0
LINE
  5
4442
  8
0
 10
460.95598842161422
 20
10.37085274746695
 30
0.0
 11
460.99623320681428
 21
10.33060796226696
 31
0.0
  0
LINE
  5
4443
  8
0
 10
493.95598842161428
 20
10.37085274746695
 30
0.0
 11
493.91574363641422
 21
10.33060796226696
 31
0.0
  0
LINE
  5
4444
  8
0
 10
493.95598842161428
 20
-10.75914725253304
 30
0.0
 11
493.91574363641422
 21
-10.71890246723304
 31
0.0
  0
LINE
  5
4445
  8
0
 10
493.91574363641422
 20
10.33060796226696
 30
0.0
 11
460.99623320681428
 21
10.33060796226696
 31
0.0
  0
LINE
  5
4446
  8
0
 10
493.91574363641422
 20
10.33060796226696
 30
0.0
 11
493.91574363641422
 21
-10.71890246723304
 31
0.0
  0
ENDSEC
  0
EOF
