  0
SECTION
  2
HEADER
  9
$ACADVER
  1
AC1009
  9
$INSBASE
 10
432.15458457117597
 20
73.58127139650604
 30
0.0
  9
$EXTMIN
 10
415.65458457117597
 20
63.856271396506052
 30
0.0
  9
$EXTMAX
 10
448.65458457117597
 20
73.581271396506054
 30
0.0
  9
$LIMMIN
 10
0.0
 20
0.0
  9
$LIMMAX
 10
11.692913385800001
 20
8.2677165353999982
  9
$ORTHOMODE
 70
     1
  9
$REGENMODE
 70
     1
  9
$FILLMODE
 70
     1
  9
$QTEXTMODE
 70
     0
  9
$MIRRTEXT
 70
     0
  9
$DRAGMODE
 70
     2
  9
$LTSCALE
 40
0.6431102362
  9
$OSMODE
 70
  3071
  9
$ATTMODE
 70
     1
  9
$TEXTSIZE
 40
0.2
  9
$TRACEWID
 40
0.05
  9
$TEXTSTYLE
  7
STANDARD
  9
$CLAYER
  8
0
  9
$CELTYPE
  6
BYLAYER
  9
$CECOLOR
 62
   256
  9
$DIMSCALE
 40
1.0
  9
$DIMASZ
 40
0.1875
  9
$DIMEXO
 40
0.0625
  9
$DIMDLI
 40
0.4443307087
  9
$DIMRND
 40
0.0
  9
$DIMDLE
 40
0.0
  9
$DIMEXE
 40
0.125
  9
$DIMTP
 40
0.01
  9
$DIMTM
 40
0.01
  9
$DIMTXT
 40
2.0
  9
$DIMCEN
 40
0.1052362205
  9
$DIMTSZ
 40
0.0
  9
$DIMTOL
 70
     1
  9
$DIMLIM
 70
     0
  9
$DIMTIH
 70
     1
  9
$DIMTOH
 70
     1
  9
$DIMSE1
 70
     0
  9
$DIMSE2
 70
     0
  9
$DIMTAD
 70
     0
  9
$DIMZIN
 70
     0
  9
$DIMBLK
  1

  9
$DIMASO
 70
     1
  9
$DIMSHO
 70
     1
  9
$DIMPOST
  1
\X
  9
$DIMAPOST
  1

  9
$DIMALT
 70
     1
  9
$DIMALTD
 70
     2
  9
$DIMALTF
 40
25.399999999999999
  9
$DIMLFAC
 40
1.0
  9
$DIMTOFL
 70
     0
  9
$DIMTVP
 40
0.0
  9
$DIMTIX
 70
     0
  9
$DIMSOXD
 70
     0
  9
$DIMSAH
 70
     0
  9
$DIMBLK1
  1

  9
$DIMBLK2
  1

  9
$DIMSTYLE
  2
STANDARD
  9
$DIMCLRD
 70
     0
  9
$DIMCLRE
 70
     0
  9
$DIMCLRT
 70
     0
  9
$DIMTFAC
 40
1.0
  9
$DIMGAP
 40
0.09
  9
$LUNITS
 70
     2
  9
$LUPREC
 70
     4
  9
$SKETCHINC
 40
0.1
  9
$FILLETRAD
 40
0.0
  9
$AUNITS
 70
     0
  9
$AUPREC
 70
     0
  9
$MENU
  1
.
  9
$ELEVATION
 40
0.0
  9
$PELEVATION
 40
0.0
  9
$THICKNESS
 40
0.0
  9
$LIMCHECK
 70
     0
  9
$BLIPMODE
 70
     0
  9
$CHAMFERA
 40
0.0
  9
$CHAMFERB
 40
0.0
  9
$SKPOLY
 70
     0
  9
$TDCREATE
 40
2458060.4683680669
  9
$TDUPDATE
 40
2458618.6469011689
  9
$TDINDWG
 40
0.2440753935
  9
$TDUSRTIMER
 40
0.2440753935
  9
$USRTIMER
 70
     1
  9
$ANGBASE
 50
0.0
  9
$ANGDIR
 70
     0
  9
$PDMODE
 70
     0
  9
$PDSIZE
 40
0.3125
  9
$PLINEWID
 40
0.0
  9
$COORDS
 70
     1
  9
$SPLFRAME
 70
     0
  9
$SPLINETYPE
 70
     6
  9
$SPLINESEGS
 70
     8
  9
$ATTDIA
 70
     1
  9
$ATTREQ
 70
     1
  9
$HANDLING
 70
     1
  9
$HANDSEED
  5
4445
  9
$SURFTAB1
 70
     6
  9
$SURFTAB2
 70
     6
  9
$SURFTYPE
 70
     6
  9
$SURFU
 70
     6
  9
$SURFV
 70
     6
  9
$UCSNAME
  2

  9
$UCSORG
 10
0.0
 20
0.0
 30
0.0
  9
$UCSXDIR
 10
1.0
 20
0.0
 30
0.0
  9
$UCSYDIR
 10
0.0
 20
1.0
 30
0.0
  9
$PUCSNAME
  2

  9
$PUCSORG
 10
0.0
 20
0.0
 30
0.0
  9
$PUCSXDIR
 10
1.0
 20
0.0
 30
0.0
  9
$PUCSYDIR
 10
0.0
 20
1.0
 30
0.0
  9
$USERI1
 70
     0
  9
$USERI2
 70
     0
  9
$USERI3
 70
     0
  9
$USERI4
 70
     0
  9
$USERI5
 70
     0
  9
$USERR1
 40
0.0
  9
$USERR2
 40
0.0
  9
$USERR3
 40
0.0
  9
$USERR4
 40
0.0
  9
$USERR5
 40
0.0
  9
$WORLDVIEW
 70
     1
  9
$SHADEDGE
 70
     3
  9
$SHADEDIF
 70
    70
  9
$TILEMODE
 70
     1
  9
$MAXACTVP
 70
    64
  9
$PLIMCHECK
 70
     0
  9
$PEXTMIN
 10
1.0000000000000000E+020
 20
1.0000000000000000E+020
 30
1.0000000000000000E+020
  9
$PEXTMAX
 10
-1.0000000000000000E+020
 20
-1.0000000000000000E+020
 30
-1.0000000000000000E+020
  9
$PLIMMIN
 10
0.0
 20
0.0
  9
$PLIMMAX
 10
12.0
 20
9.0
  9
$UNITMODE
 70
     0
  9
$VISRETAIN
 70
     1
  9
$PLINEGEN
 70
     0
  9
$PSLTSCALE
 70
     1
  0
ENDSEC
  0
SECTION
  2
TABLES
  0
TABLE
  2
VPORT
 70
     1
  0
VPORT
  2
*ACTIVE
 70
     0
 10
0.0
 20
0.0
 11
1.0
 21
1.0
 12
0.0
 22
0.0
 13
0.0
 23
0.0
 14
1.0
 24
1.0
 15
0.0
 25
0.0
 16
0.0
 26
0.0
 36
96.745109378178483
 17
432.15458457117597
 27
68.718771396506042
 37
0.0
 40
34.404981555017642
 41
2.0984340044742731
 42
50.0
 43
0.0
 44
0.0
 50
0.0
 51
0.0
 71
     0
 72
   100
 73
     1
 74
     1
 75
     0
 76
     0
 77
     0
 78
     0
  0
ENDTAB
  0
TABLE
  2
LTYPE
 70
     2
  0
LTYPE
  2
CONTINUOUS
 70
     0
  3
Solid line
 72
    65
 73
     0
 40
0.0
  0
LTYPE
  2
PHANTOM2
 70
     0
  3
___ _ _ ___ _ _ ___ _ _ ___ _ _
 72
    65
 73
     6
 40
1.25
 49
0.625
 49
-0.125
 49
0.125
 49
-0.125
 49
0.125
 49
-0.125
  0
ENDTAB
  0
TABLE
  2
LAYER
 70
     2
  0
LAYER
  2
0
 70
     0
 62
   255
  6
CONTINUOUS
  0
LAYER
  2
DEFPOINTS
 70
     0
 62
     7
  6
CONTINUOUS
  0
ENDTAB
  0
TABLE
  2
STYLE
 70
     1
  0
STYLE
  2
STANDARD
 70
     0
 40
0.0
 41
0.8
 50
0.0
 71
     0
 42
0.2
  3
txt
  4

  0
ENDTAB
  0
TABLE
  2
VIEW
 70
     0
  0
ENDTAB
  0
TABLE
  2
UCS
 70
     0
  0
ENDTAB
  0
TABLE
  2
APPID
 70
     9
  0
APPID
  2
ACAD
 70
     0
  0
APPID
  2
ACAD_MLEADERVER
 70
     0
  0
APPID
  2
ACAD_EXEMPT_FROM_CAD_STANDARDS
 70
     0
  0
APPID
  2
ACAD_NAV_VCDISPLAY
 70
     0
  0
APPID
  2
ACAECLAYERSTANDARD
 70
     0
  0
APPID
  2
ACCMTRANSPARENCY
 70
     0
  0
APPID
  2
ACAD_DSTYLE_DIMJAG
 70
     0
  0
APPID
  2
ACAD_DSTYLE_DIMTALN
 70
     0
  0
APPID
  2
ACDBATTR
 70
     0
  0
ENDTAB
  0
TABLE
  2
DIMSTYLE
 70
     1
  0
DIMSTYLE
  2
STANDARD
 70
     0
  3

  4

  5

  6

  7

 40
1.0
 41
0.1875
 42
0.0625
 43
0.38
 44
0.125
 45
0.0
 46
0.0
 47
0.01
 48
0.01
140
0.15625
141
0.09
142
0.0
143
25.399999999999999
144
1.0
145
0.0
146
1.0
147
0.09
 71
     1
 72
     0
 73
     1
 74
     1
 75
     0
 76
     0
 77
     0
 78
     4
170
     0
171
     2
172
     0
173
     0
174
     0
175
     0
176
     0
177
     0
178
     0
  0
ENDTAB
  0
ENDSEC
  0
SECTION
  2
BLOCKS
  0
BLOCK
  8
0
  2
$MODEL_SPACE
 70
     0
 10
0.0
 20
0.0
 30
0.0
  3
$MODEL_SPACE
  1

  0
ENDBLK
  5
21
  8
0
  0
BLOCK
 67
     1
  8
0
  2
$PAPER_SPACE
 70
     0
 10
0.0
 20
0.0
 30
0.0
  3
$PAPER_SPACE
  1

  0
ENDBLK
  5
1D
 67
     1
  8
0
  0
ENDSEC
  0
SECTION
  2
ENTITIES
  0
ATTDEF
  5
3930
  8
DEFPOINTS
 10
432.14957644688809
 20
73.579665321981494
 30
0.0
 40
0.001
  1
K-6411-3
  3

  2
MODELNUMBER
 70
     0
1001
ACDBATTR
1070
     0
1070
     1
  0
ATTDEF
  5
3931
  8
DEFPOINTS
 10
432.14957644688809
 20
73.577998655314815
 30
0.0
 40
0.001
  1
INDIO
  3

  2
TRADENAME
 70
     0
1001
ACDBATTR
1070
     0
1070
     1
  0
ATTDEF
  5
3932
  8
DEFPOINTS
 10
432.14957644688809
 20
73.576331988648164
 30
0.0
 40
0.001
  1
KITCHEN SINK
  3

  2
PRODUCT
 70
     0
1001
ACDBATTR
1070
     0
1070
     1
  0
ATTDEF
  5
3933
  8
DEFPOINTS
 10
432.14957644688809
 20
73.574665321981499
 30
0.0
 40
0.001
  1
CAST IRON
  3

  2
MATERIAL
 70
     0
1001
ACDBATTR
1070
     0
1070
     1
  0
LINE
  5
4341
  8
0
 10
415.65458457117597
 20
73.121271396506046
 30
0.0
 11
415.69482935637598
 21
73.581271396506054
 31
0.0
  0
LINE
  5
4342
  8
0
 10
417.11807055937601
 20
72.727787816206046
 30
0.0
 11
417.74246480397937
 21
65.591821110127171
 31
0.0
  0
LINE
  5
4343
  8
0
 10
418.86164702867597
 20
64.440535642106056
 30
0.0
 11
418.90797171527601
 21
63.911042051406049
 31
0.0
  0
LINE
  5
4344
  8
0
 10
419.589322292676
 20
64.388440527406047
 30
0.0
 11
419.54755533807599
 21
63.911042051406049
 31
0.0
  0
LINE
  5
4345
  8
0
 10
447.8247193120759
 20
73.105835349206046
 30
0.0
 11
447.37796940638623
 21
72.941115177842747
 31
0.0
  0
LINE
  5
4346
  8
0
 10
418.96774340118139
 20
63.856271396506052
 30
0.0
 11
419.48778365207102
 21
63.856271396506052
 31
0.0
  0
LINE
  5
4347
  8
0
 10
434.59743509647598
 20
63.856271396506052
 30
0.0
 11
435.11869631139427
 21
63.856271396506052
 31
0.0
  0
LINE
  5
4348
  8
0
 10
439.49513557424251
 20
63.856271396506052
 30
0.0
 11
440.015498353976
 21
63.856271396506052
 31
0.0
  0
LINE
  5
4349
  8
0
 10
444.81089433707598
 20
63.856271396506052
 30
0.0
 11
445.33157907667601
 21
63.856271396506052
 31
0.0
  0
LINE
  5
434A
  8
0
 10
429.67585725117601
 20
63.946271396506049
 30
0.0
 11
434.53490324726101
 21
63.946271396506049
 31
0.0
  0
LINE
  5
434B
  8
0
 10
440.0780296791965
 20
63.946271396506049
 30
0.0
 11
444.74836248455949
 21
63.946271396506049
 31
0.0
  0
LINE
  5
434C
  8
0
 10
428.87736782527588
 20
64.249212108006034
 30
0.0
 11
434.4875208660759
 21
64.249212108006034
 31
0.0
  0
LINE
  5
434D
  8
0
 10
440.12541345307602
 20
64.249212108006034
 30
0.0
 11
444.70099110187601
 21
64.249212108006034
 31
0.0
  0
LINE
  5
434E
  8
0
 10
428.87736782527588
 20
64.249212108006034
 30
0.0
 11
419.70696851882423
 21
64.569449504637035
 31
0.0
  0
LINE
  5
434F
  8
0
 10
434.51716580717613
 20
64.149011264706047
 30
0.0
 11
434.53798541557597
 21
63.911042051406049
 31
0.0
  0
LINE
  5
4350
  8
0
 10
416.95478486947599
 20
72.940827990406049
 30
0.0
 11
416.50211561287603
 21
73.106107499106045
 31
0.0
  0
LINE
  5
4351
  8
0
 10
435.19186157762988
 20
64.064367078044441
 30
0.0
 11
435.17846799767602
 21
63.911042051406049
 31
0.0
  0
LINE
  5
4352
  8
0
 10
437.49760563957602
 20
68.711271396506049
 30
0.0
 11
437.11556350527599
 21
68.711271396506049
 31
0.0
  0
LINE
  5
4353
  8
0
 10
436.6174661533301
 20
68.254849267879877
 30
0.0
 11
436.35252581037599
 21
65.226755272206049
 31
0.0
  0
LINE
  5
4354
  8
0
 10
437.99570298877597
 20
68.254849271406044
 30
0.0
 11
438.2607045222407
 21
65.226182931924825
 31
0.0
  0
LINE
  5
4355
  8
0
 10
439.42349696262067
 20
64.046681630015399
 30
0.0
 11
439.43536388807598
 21
63.911042051406049
 31
0.0
  0
LINE
  5
4356
  8
0
 10
448.65458457117597
 20
73.121271396506046
 30
0.0
 11
415.65458457117597
 21
73.121271396506046
 31
0.0
  0
LINE
  5
4357
  8
0
 10
440.09576742767598
 20
64.149014789306051
 30
0.0
 11
440.07494751087597
 21
63.911042051406049
 31
0.0
  0
LINE
  5
4358
  8
0
 10
448.61433978597597
 20
73.581271396506054
 30
0.0
 11
415.69482935637598
 21
73.581271396506054
 31
0.0
  0
LINE
  5
4359
  8
0
 10
444.73061883147602
 20
64.149082279506047
 30
0.0
 11
444.75144465287599
 21
63.911042051406049
 31
0.0
  0
LINE
  5
435A
  8
0
 10
445.40333057204589
 20
64.051657941933996
 30
0.0
 11
445.39102827567598
 21
63.911042051406049
 31
0.0
  0
LINE
  5
435B
  8
0
 10
447.21540628927602
 20
72.728340159006052
 30
0.0
 11
446.55908503382858
 21
65.226815520307483
 31
0.0
  0
ARC
  5
435C
  8
0
 10
428.83374333024329
 20
62.999973543786759
 30
0.0
 40
1.250000034736426
 50
50.34693851386649
 51
87.999994357720126
  0
ARC
  5
435D
  8
0
 10
418.837324956798
 20
65.700782755615734
 30
0.0
 40
1.1002687828061011
 50
185.68342243692581
 51
263.24993657684109
  0
ARC
  5
435E
  8
0
 10
418.837429252476
 20
65.697620587706041
 30
0.0
 40
1.0971408956999991
 50
263.22511772799987
 51
266.5410722536796
  0
ARC
  5
435F
  8
0
 10
416.86902188228481
 20
72.705998879538015
 30
0.0
 40
0.2500000025660211
 50
5.0000001712513367
 51
69.93707546103299
  0
ARC
  5
4360
  8
0
 10
416.416371779776
 20
72.871271396506046
 30
0.0
 40
0.25
 50
69.941748567799252
 51
90.0
  0
ARC
  5
4361
  8
0
 10
429.68036841922918
 20
64.028090908151839
 30
0.0
 40
0.0819437802591498
 50
233.31587478383179
 51
266.84415795115689
  0
ARC
  5
4362
  8
0
 10
418.97657182477582
 20
63.925905935453102
 30
0.0
 40
0.0701919516577816
 50
192.22554307514321
 51
262.77446135155822
  0
ARC
  5
4363
  8
0
 10
419.48192238515651
 20
63.922667851892719
 30
0.0
 40
0.0666546602853706
 50
275.04481105904648
 51
349.95518451465318
  0
ARC
  5
4364
  8
0
 10
439.039877397976
 20
62.999973574206052
 30
0.0
 40
1.25
 50
75.843125349096695
 51
82.267033250099018
  0
ARC
  5
4365
  8
0
 10
435.5734456073281
 20
62.999889087302577
 30
0.0
 40
1.250086735083914
 50
97.732527373700108
 51
105.0195979388315
  0
ARC
  5
4366
  8
0
 10
439.3562128603927
 20
65.328901442503337
 30
0.0
 40
1.1003134150669069
 50
185.35658217938621
 51
262.26252128324802
  0
ARC
  5
4367
  8
0
 10
435.25695624353477
 20
65.328890271094266
 30
0.0
 40
1.1003200597037539
 50
277.74540523835122
 51
354.67396734689572
  0
ARC
  5
4368
  8
0
 10
437.48318190565078
 20
68.195530652398574
 30
0.0
 40
0.5159423991564369
 50
6.6019753429440353
 51
88.398025063156254
  0
ARC
  5
4369
  8
0
 10
437.13716316649652
 20
68.187699499290204
 30
0.0
 40
0.5240172486814265
 50
92.362365245831256
 51
172.63763441286881
  0
ARC
  5
436A
  8
0
 10
435.1136003393695
 20
63.921832679459662
 30
0.0
 40
0.0657590355266877
 50
274.44457132186898
 51
350.55542384613159
  0
ARC
  5
436B
  8
0
 10
439.49995670473442
 20
63.921532742395819
 30
0.0
 40
0.0654391821966336
 50
189.2250105670937
 51
265.77499414050538
  0
ARC
  5
436C
  8
0
 10
440.01066216900159
 20
63.921169663089628
 30
0.0
 40
0.0650782121040512
 50
274.26177449008361
 51
351.04711893790898
  0
ARC
  5
436D
  8
0
 10
434.60493541882448
 20
63.924062011361109
 30
0.0
 40
0.0682042689115496
 50
191.00511074722729
 51
263.68649924724502
  0
ARC
  5
436E
  8
0
 10
445.77914088994351
 20
63.00190053151389
 30
0.0
 40
1.2480287130202059
 50
97.71435898693818
 51
103.781520564757
  0
ARC
  5
436F
  8
0
 10
445.46350042167597
 20
65.328955633606057
 30
0.0
 40
1.1003355148
 50
277.73584551509941
 51
354.67377490329977
  0
ARC
  5
4370
  8
0
 10
447.46445496387599
 20
72.706551224206052
 30
0.0
 40
0.25
 50
110.2393235938008
 51
174.9999999999998
  0
ARC
  5
4371
  8
0
 10
444.81556267670811
 20
63.920988097709461
 30
0.0
 40
0.064884858091634
 50
188.817498081113
 51
265.87411498709071
  0
ARC
  5
4372
  8
0
 10
445.32768067339549
 20
63.920151825018138
 30
0.0
 40
0.0639992710507284
 50
273.49223374342398
 51
351.8166191494085
  0
LINE
  5
4373
  8
0
 10
448.65458457117597
 20
73.121271396506046
 30
0.0
 11
448.61433978597597
 21
73.581271396506054
 31
0.0
  0
ARC
  5
4374
  8
0
 10
418.5944355923869
 20
64.397562643910604
 30
0.0
 40
0.2706448415499733
 50
9.13609235793467
 51
49.212604118252578
  0
ARC
  5
4375
  8
0
 10
419.85345085928878
 20
64.345507370077314
 30
0.0
 40
0.2675951339227752
 50
123.18901981723739
 51
170.76752159911521
  0
ARC
  5
4376
  8
0
 10
435.45726512602499
 20
64.040413839497717
 30
0.0
 40
0.2664822717135447
 50
141.2339908780387
 51
174.8429052111324
  0
ARC
  5
4377
  8
0
 10
439.15923110706473
 20
64.023184313403704
 30
0.0
 40
0.2653084361657317
 50
5.0811175820404042
 51
45.375364750052462
  0
ARC
  5
4378
  8
0
 10
434.2571777857994
 20
64.126578181778982
 30
0.0
 40
0.2609540466613569
 50
4.9315555146464876
 51
28.03069577289267
  0
ARC
  5
4379
  8
0
 10
440.36488791111958
 20
64.123872819718713
 30
0.0
 40
0.2702923477342546
 50
152.37274844444451
 51
174.66276348453169
  0
ARC
  5
437A
  8
0
 10
444.47476336320932
 20
64.127824636241826
 30
0.0
 40
0.2567370406448681
 50
4.7494869860082556
 51
28.216761555857911
  0
ARC
  5
437B
  8
0
 10
445.66665509580901
 20
64.024473094121475
 30
0.0
 40
0.264724046443921
 50
134.27961178218851
 51
174.1058331834856
  0
ARC
  5
437C
  8
0
 10
447.91120490020012
 20
72.871271305589644
 30
0.0
 40
0.2500000950667544
 50
90.010440201013026
 51
110.23932306026821
  0
ENDSEC
  0
EOF
