  0
SECTION
  2
HEADER
  9
$ACADVER
  1
AC1009
  9
$INSBASE
 10
5.1514404592999989
 20
38.028677565700001
 30
0.0
  9
$EXTMIN
 10
-27.597662186632341
 20
21.714898116047841
 30
-0.0015258207003583
  9
$EXTMAX
 10
37.889979011144327
 20
57.315716864753
 30
0.0000000349246037
  9
$LIMMIN
 10
0.0
 20
0.0
  9
$LIMMAX
 10
11.692913385800001
 20
8.2677165353999982
  9
$ORTHOMODE
 70
     0
  9
$REGENMODE
 70
     1
  9
$FILLMODE
 70
     1
  9
$QTEXTMODE
 70
     0
  9
$MIRRTEXT
 70
     0
  9
$DRAGMODE
 70
     2
  9
$LTSCALE
 40
0.6431102362
  9
$OSMODE
 70
   231
  9
$ATTMODE
 70
     1
  9
$TEXTSIZE
 40
0.2
  9
$TRACEWID
 40
0.05
  9
$TEXTSTYLE
  7
STANDARD
  9
$CLAYER
  8
0
  9
$CELTYPE
  6
BYLAYER
  9
$CECOLOR
 62
   256
  9
$DIMSCALE
 40
1.0
  9
$DIMASZ
 40
0.1875
  9
$DIMEXO
 40
0.0625
  9
$DIMDLI
 40
0.4443307087
  9
$DIMRND
 40
0.0
  9
$DIMDLE
 40
0.0
  9
$DIMEXE
 40
0.125
  9
$DIMTP
 40
0.0
  9
$DIMTM
 40
0.0
  9
$DIMTXT
 40
1.0
  9
$DIMCEN
 40
0.1052362205
  9
$DIMTSZ
 40
0.0
  9
$DIMTOL
 70
     0
  9
$DIMLIM
 70
     0
  9
$DIMTIH
 70
     1
  9
$DIMTOH
 70
     1
  9
$DIMSE1
 70
     0
  9
$DIMSE2
 70
     0
  9
$DIMTAD
 70
     0
  9
$DIMZIN
 70
     0
  9
$DIMBLK
  1

  9
$DIMASO
 70
     1
  9
$DIMSHO
 70
     1
  9
$DIMPOST
  1
\X
  9
$DIMAPOST
  1

  9
$DIMALT
 70
     1
  9
$DIMALTD
 70
     2
  9
$DIMALTF
 40
25.399999999999999
  9
$DIMLFAC
 40
1.0
  9
$DIMTOFL
 70
     0
  9
$DIMTVP
 40
0.0
  9
$DIMTIX
 70
     0
  9
$DIMSOXD
 70
     0
  9
$DIMSAH
 70
     0
  9
$DIMBLK1
  1

  9
$DIMBLK2
  1

  9
$DIMSTYLE
  2
STANDARD
  9
$DIMCLRD
 70
     0
  9
$DIMCLRE
 70
     0
  9
$DIMCLRT
 70
     0
  9
$DIMTFAC
 40
1.0
  9
$DIMGAP
 40
0.09
  9
$LUNITS
 70
     2
  9
$LUPREC
 70
     4
  9
$SKETCHINC
 40
0.1
  9
$FILLETRAD
 40
0.0
  9
$AUNITS
 70
     0
  9
$AUPREC
 70
     0
  9
$MENU
  1
.
  9
$ELEVATION
 40
0.0
  9
$PELEVATION
 40
0.0
  9
$THICKNESS
 40
0.0
  9
$LIMCHECK
 70
     0
  9
$BLIPMODE
 70
     0
  9
$CHAMFERA
 40
0.0
  9
$CHAMFERB
 40
0.0
  9
$SKPOLY
 70
     0
  9
$TDCREATE
 40
2457955.4209858682
  9
$TDUPDATE
 40
2457955.4461172111
  9
$TDINDWG
 40
0.0245787963
  9
$TDUSRTIMER
 40
0.0245787963
  9
$USRTIMER
 70
     1
  9
$ANGBASE
 50
0.0
  9
$ANGDIR
 70
     0
  9
$PDMODE
 70
     0
  9
$PDSIZE
 40
0.3125
  9
$PLINEWID
 40
0.0
  9
$COORDS
 70
     1
  9
$SPLFRAME
 70
     0
  9
$SPLINETYPE
 70
     6
  9
$SPLINESEGS
 70
     8
  9
$ATTDIA
 70
     1
  9
$ATTREQ
 70
     1
  9
$HANDLING
 70
     1
  9
$HANDSEED
  5
C3D
  9
$SURFTAB1
 70
     6
  9
$SURFTAB2
 70
     6
  9
$SURFTYPE
 70
     6
  9
$SURFU
 70
     6
  9
$SURFV
 70
     6
  9
$UCSNAME
  2

  9
$UCSORG
 10
0.0
 20
0.0
 30
0.0
  9
$UCSXDIR
 10
1.0
 20
0.0
 30
0.0
  9
$UCSYDIR
 10
0.0
 20
1.0
 30
0.0
  9
$PUCSNAME
  2

  9
$PUCSORG
 10
0.0
 20
0.0
 30
0.0
  9
$PUCSXDIR
 10
1.0
 20
0.0
 30
0.0
  9
$PUCSYDIR
 10
0.0
 20
1.0
 30
0.0
  9
$USERI1
 70
     0
  9
$USERI2
 70
     0
  9
$USERI3
 70
     0
  9
$USERI4
 70
     0
  9
$USERI5
 70
     0
  9
$USERR1
 40
0.0
  9
$USERR2
 40
0.0
  9
$USERR3
 40
0.0
  9
$USERR4
 40
0.0
  9
$USERR5
 40
0.0
  9
$WORLDVIEW
 70
     1
  9
$SHADEDGE
 70
     3
  9
$SHADEDIF
 70
    70
  9
$TILEMODE
 70
     1
  9
$MAXACTVP
 70
    48
  9
$PLIMCHECK
 70
     0
  9
$PEXTMIN
 10
1.0000000000000000E+020
 20
1.0000000000000000E+020
 30
1.0000000000000000E+020
  9
$PEXTMAX
 10
-1.0000000000000000E+020
 20
-1.0000000000000000E+020
 30
-1.0000000000000000E+020
  9
$PLIMMIN
 10
0.0
 20
0.0
  9
$PLIMMAX
 10
12.0
 20
9.0
  9
$UNITMODE
 70
     0
  9
$VISRETAIN
 70
     1
  9
$PLINEGEN
 70
     0
  9
$PSLTSCALE
 70
     1
  0
ENDSEC
  0
SECTION
  2
TABLES
  0
TABLE
  2
VPORT
 70
     1
  0
VPORT
  2
*ACTIVE
 70
     0
 10
0.0
 20
0.0
 11
1.0
 21
1.0
 12
5.1461584122560033
 22
39.515307490400417
 13
0.0
 23
0.0
 14
1.0
 24
1.0
 15
0.0
 25
0.0
 16
0.0
 26
0.0
 36
1.0
 17
0.0
 27
0.0
 37
0.0
 40
36.789242540133237
 41
1.786624203821656
 42
50.0
 43
0.0
 44
0.0
 50
0.0
 51
0.0
 71
     0
 72
   100
 73
     1
 74
     1
 75
     0
 76
     0
 77
     0
 78
     0
  0
ENDTAB
  0
TABLE
  2
LTYPE
 70
     2
  0
LTYPE
  2
CONTINUOUS
 70
     0
  3
Solid line
 72
    65
 73
     0
 40
0.0
  0
LTYPE
  2
PHANTOM2
 70
     0
  3
___ _ _ ___ _ _ ___ _ _ ___ _ _
 72
    65
 73
     6
 40
1.25
 49
0.625
 49
-0.125
 49
0.125
 49
-0.125
 49
0.125
 49
-0.125
  0
ENDTAB
  0
TABLE
  2
LAYER
 70
     2
  0
LAYER
  2
0
 70
     0
 62
     7
  6
CONTINUOUS
  0
LAYER
  2
DEFPOINTS
 70
     0
 62
     7
  6
CONTINUOUS
  0
ENDTAB
  0
TABLE
  2
STYLE
 70
     1
  0
STYLE
  2
STANDARD
 70
     0
 40
0.0
 41
0.8
 50
0.0
 71
     0
 42
0.2
  3
txt
  4

  0
ENDTAB
  0
TABLE
  2
VIEW
 70
     0
  0
ENDTAB
  0
TABLE
  2
UCS
 70
     0
  0
ENDTAB
  0
TABLE
  2
APPID
 70
     7
  0
APPID
  2
ACAD
 70
     0
  0
APPID
  2
ACAD_MLEADERVER
 70
     0
  0
APPID
  2
ACAD_NAV_VCDISPLAY
 70
     0
  0
APPID
  2
ACAD_DSTYLE_DIMJAG
 70
     0
  0
APPID
  2
ACAD_DSTYLE_DIMTALN
 70
     0
  0
APPID
  2
ACAD_EXEMPT_FROM_CAD_STANDARDS
 70
     0
  0
APPID
  2
ACDBATTR
 70
     0
  0
ENDTAB
  0
TABLE
  2
DIMSTYLE
 70
     1
  0
DIMSTYLE
  2
STANDARD
 70
     0
  3

  4

  5

  6

  7

 40
1.0
 41
0.1875
 42
0.0625
 43
0.38
 44
0.125
 45
0.0
 46
0.0
 47
1.5
 48
1.5
140
0.15625
141
0.09
142
0.0
143
25.399999999999999
144
1.0
145
0.0
146
1.0
147
0.09
 71
     0
 72
     0
 73
     1
 74
     1
 75
     0
 76
     0
 77
     0
 78
     4
170
     0
171
     2
172
     0
173
     0
174
     0
175
     0
176
     0
177
     0
178
     0
  0
ENDTAB
  0
ENDSEC
  0
SECTION
  2
BLOCKS
  0
BLOCK
  8
0
  2
$MODEL_SPACE
 70
     0
 10
0.0
 20
0.0
 30
0.0
  3
$MODEL_SPACE
  1

  0
ENDBLK
  5
21
  8
0
  0
BLOCK
 67
     1
  8
0
  2
$PAPER_SPACE
 70
     0
 10
0.0
 20
0.0
 30
0.0
  3
$PAPER_SPACE
  1

  0
ENDBLK
  5
1D
 67
     1
  8
0
  0
ENDSEC
  0
SECTION
  2
ENTITIES
  0
CIRCLE
  5
49B
  8
0
 10
5.1514404592999989
 20
38.028677565700001
 30
0.0
 40
1.6914327747999991
  0
CIRCLE
  5
49C
  8
0
 10
5.1514404592999989
 20
38.028677565700001
 30
0.0
 40
1.4643502883999999
  0
ARC
  5
632
  8
0
 10
23.10006791951638
 20
39.552224838297413
 30
0.0
 40
14.789446208508959
 50
354.08713719611762
 51
32.123452118319122
  0
ARC
  5
633
  8
0
 10
20.425192243150612
 20
36.721920979377032
 30
0.0
 40
18.58538419503299
 50
35.129503606610818
 51
74.163117969643494
  0
ARC
  5
634
  8
0
 10
8.4667396755570881
 20
0.207238112638891
 30
0.0
 40
56.99831833802488
 50
72.615196170479521
 51
90.568259127615875
  0
ARC
  5
635
  8
0
 10
3.9742014579524718
 20
-14.100615161502921
 30
0.0
 40
71.414815031605229
 50
86.805736222244363
 51
103.85846913194359
  0
ARC
  5
636
  8
0
 10
-8.1240650266714844
 20
33.328855588660488
 30
0.0
 40
22.471478017674951
 50
102.87531125627279
 51
133.20311732944401
  0
ARC
  5
637
  8
0
 10
-13.057447751526681
 20
39.600858699066549
 30
0.0
 40
14.539036650553349
 50
135.95342141045251
 51
186.20782716298979
  0
ARC
  5
638
  8
0
 10
-13.30151305332986
 20
39.207612222891782
 30
0.0
 40
14.25853969916999
 50
184.74278459457
 51
222.9204547707283
  0
ARC
  5
639
  8
0
 10
-8.7235923260860044
 20
44.63126353514231
 30
0.0
 40
21.321481038495119
 50
225.2166533092653
 51
255.23666617156411
  0
ARC
  5
63A
  8
0
 10
2.3614360307873992
 20
83.218433973145224
 30
0.0
 40
61.465910871502871
 50
254.41072737705659
 51
270.03729024531992
  0
ARC
  5
63B
  8
0
 10
5.1514403588231881
 20
127.9073909446722
 30
0.0
 40
106.1904689834757
 50
268.51605315905749
 51
275.23122981448603
  0
ARC
  5
63C
  8
0
 10
11.652996537103419
 20
63.781440400009409
 30
0.0
 40
41.743552046997877
 50
274.36948521341338
 51
295.01656611709171
  0
ARC
  5
63D
  8
0
 10
22.156135955338979
 20
40.022888871109608
 30
0.0
 40
15.781201676575821
 50
296.93836683092871
 51
352.74033805645109
  0
ARC
  5
642
  8
0
 10
5.1543154716941908
 20
5702.448847035379
 30
0.0
 40
5653.4516199283089
 50
269.96425832550813
 51
270.0356838572107
  0
ARC
  5
643
  8
0
 10
8.6558294086701633
 20
7.3114366141237586
 30
0.0
 40
41.686891467778153
 50
76.365506677088803
 51
89.973253538024636
  0
ARC
  5
644
  8
0
 10
15.58901588321716
 20
35.34075335739913
 30
0.0
 40
12.81378563012008
 50
45.12020836906207
 51
76.949177429974895
  0
ARC
  5
645
  8
0
 10
18.081818342302739
 20
38.976998804132542
 30
0.0
 40
8.5158152691577218
 50
3.023112721802752
 51
39.733502430852951
  0
ARC
  5
646
  8
0
 10
-9.3082956493677393
 20
38.377943236275001
 30
0.0
 40
35.909379075782709
 50
359.44271483109361
 51
1.672660863613435
  0
ARC
  5
647
  8
0
 10
1.6549585995991121
 20
7.2454219448210759
 30
0.0
 40
41.752910555465867
 50
90.037554634136939
 51
103.62368378322689
  0
ARC
  5
648
  8
0
 10
-6.5456080706184263
 20
37.844066065485372
 30
0.0
 40
10.112394200453981
 50
99.299274250195282
 51
153.4979722288933
  0
ARC
  5
649
  8
0
 10
-7.0540770309750167
 20
38.806727792259707
 30
0.0
 40
9.2495836804541351
 50
157.43210198824929
 51
184.82526947346449
  0
ARC
  5
653
  8
0
 10
5.153651977739484
 20
956.47734398408056
 30
0.0
 40
905.27711991048193
 50
269.7353214207202
 51
270.26439765661269
  0
LINE
  5
654
  8
0
 10
3.9524479304
 20
51.261653859799992
 30
0.0
 11
3.9014407218750882
 21
51.243189389651462
 31
0.0
  0
LINE
  5
655
  8
0
 10
3.9014407218750882
 20
51.243189389651462
 30
0.0
 11
3.9271704980000002
 21
51.229975559899998
 31
0.0
  0
ARC
  5
656
  8
0
 10
4.2507820312825819
 20
52.960636880474659
 30
0.0
 40
1.7606569884582099
 50
259.40873017786208
 51
268.33090778390289
  0
ARC
  5
657
  8
0
 10
4.2699400318018093
 20
49.132584172613129
 30
0.0
 40
2.1526121265454452
 50
92.357747885376455
 51
98.481586136914274
  0
ARC
  5
658
  8
0
 10
5.8465046824677804
 20
47.170647490699963
 30
0.0
 40
4.1219058245123907
 50
82.972321407417809
 51
86.174608892381997
  0
LINE
  5
659
  8
0
 10
6.3508149588000027
 20
51.261586108100012
 30
0.0
 11
6.4014404592999989
 21
51.243189291999997
 31
0.0
  0
LINE
  5
65A
  8
0
 10
6.4014404592999989
 20
51.243189291999997
 30
0.0
 11
6.3757104111
 21
51.229975551099997
 31
0.0
  0
ARC
  5
65B
  8
0
 10
6.094073643000776
 20
52.570142691634977
 30
0.0
 40
1.3694404819907651
 50
269.82906443846349
 51
281.86803658476362
  0
ARC
  5
65C
  8
0
 10
5.1513453591262088
 20
6.9033021645561634
 30
0.0
 40
44.390670185035972
 50
88.747702819294872
 51
91.252044917680905
  0
ARC
  5
65D
  8
0
 10
18.024881577072531
 20
-153.92243499321481
 30
0.0
 40
205.3164354653498
 50
88.771920874981646
 51
92.42681127347015
  0
ARC
  5
65E
  8
0
 10
21.819278385822361
 20
37.901525772986552
 30
0.0
 40
13.45864900249825
 50
71.559476770289706
 51
87.418536209672695
  0
ARC
  5
65F
  8
0
 10
23.22205264404381
 20
42.315346863241857
 30
0.0
 40
8.8279833395307801
 50
30.478325563419968
 51
71.134784814842703
  0
ARC
  5
660
  8
0
 10
16.875026221937691
 20
39.552598377572949
 30
0.0
 40
15.721649312127701
 50
0.2950017860840148
 51
27.42180288312737
  0
ARC
  5
661
  8
0
 10
-54.002648043516118
 20
42.665890279122593
 30
0.0
 40
86.652189066533268
 50
356.93233716907417
 51
357.99455648348442
  0
ARC
  5
662
  8
0
 10
0.9794790876921196
 20
-227.98063686918829
 30
0.0
 40
279.19042313066552
 50
90.001587590686555
 51
92.512313871462723
  0
ARC
  5
663
  8
0
 10
-10.692286472228419
 20
39.60780882995212
 30
0.0
 40
11.34775426299227
 50
92.860453777175536
 51
141.94885728360219
  0
ARC
  5
664
  8
0
 10
-7.1534241349666789
 20
39.00988664079108
 30
0.0
 40
14.60351556889719
 50
148.6748788031752
 51
177.59323218231401
  0
ARC
  5
665
  8
0
 10
-38.633666020964682
 20
38.341904072849992
 30
0.0
 40
16.938159408252162
 50
358.9404055380449
 51
4.3381084276026982
  0
ARC
  5
679
  8
0
 10
-5.1947764805349594
 20
38.815353237891593
 30
0.0
 40
11.104003904684889
 50
184.06258739638349
 51
208.68537934060981
  0
ARC
  5
67A
  8
0
 10
-4.2296084886782861
 20
40.323436709455457
 30
0.0
 40
12.70371871382604
 50
212.5657915643412
 51
256.89539308292251
  0
ARC
  5
67B
  8
0
 10
1.658834725490935
 20
66.899970588536135
 30
0.0
 40
39.924281648063548
 50
257.31242940715561
 51
271.61884183376361
  0
ARC
  5
67C
  8
0
 10
4.628781026628614
 20
432.8136447225798
 30
0.0
 40
405.82620177092741
 50
269.73993756078193
 51
270.73476265339548
  0
ARC
  5
67D
  8
0
 10
11.23084712248138
 20
46.953952871912172
 30
0.0
 40
19.982095784484141
 50
265.98849725511121
 51
305.10068000329869
  0
ARC
  5
67E
  8
0
 10
16.78065598496293
 20
38.340561868230687
 30
0.0
 40
9.7526067494208775
 50
307.52358450426681
 51
349.27889326744452
  0
ARC
  5
67F
  8
0
 10
49.074379450691332
 20
33.723038528450182
 30
0.0
 40
22.883704019686629
 50
169.1549812658302
 51
172.96357807898389
  0
ARC
  5
680
  8
0
 10
-5.7619640977954214
 20
39.877729589081483
 30
0.0
 40
16.043349978921629
 50
186.6182459840812
 51
209.70714866327589
  0
ARC
  5
681
  8
0
 10
-7.4349299473125914
 20
40.086689044728431
 30
0.0
 40
14.72852559057999
 50
213.64145794974581
 51
255.68115892105109
  0
ARC
  5
682
  8
0
 10
1.43803417516956
 20
67.438503813357542
 30
0.0
 40
43.463739600332737
 50
253.26445306789731
 51
270.90138108994802
  0
ARC
  5
683
  8
0
 10
4.2669192571765286
 20
560.79192423700965
 30
0.0
 40
536.81606689263276
 50
269.7710431312463
 51
270.67281725332748
  0
ARC
  5
684
  8
0
 10
11.4938023406672
 20
56.39997700244205
 30
0.0
 40
32.400265036119663
 50
268.36710439453469
 51
298.0458994549906
  0
ARC
  5
685
  8
0
 10
21.340378600461062
 20
37.201873721471827
 30
0.0
 40
10.83214056000531
 50
299.82467547510743
 51
331.83870594574569
  0
ARC
  5
686
  8
0
 10
16.56357623613496
 20
39.22890004793382
 30
0.0
 40
16.00685587709691
 50
333.51296502122773
 51
355.69982480062771
  0
ATTDEF
  5
7B4
  8
DEFPOINTS
 10
5.146832505814813
 20
38.041033157756601
 30
0.0
 40
0.001
  1
K-6369
  3

  2
MODELNUMBER
 70
     0
1001
ACDBATTR
1070
     0
1070
     1
  0
ATTDEF
  5
7B5
  8
DEFPOINTS
 10
5.146832505814813
 20
38.039366491089943
 30
0.0
 40
0.001
  1
SUNSTRUCK
  3

  2
TRADENAME
 70
     0
1001
ACDBATTR
1070
     0
1070
     1
  0
ATTDEF
  5
7B6
  8
DEFPOINTS
 10
5.146832505814813
 20
38.037699824423271
 30
0.0
 40
0.001
  1
BATH
  3

  2
PRODUCT
 70
     0
1001
ACDBATTR
1070
     0
1070
     1
  0
ATTDEF
  5
7B7
  8
DEFPOINTS
 10
5.146832505814813
 20
38.036033157756599
 30
0.0
 40
0.001
  1
ACRYLIC
  3

  2
MATERIAL
 70
     0
1001
ACDBATTR
1070
     0
1070
     1
  0
ENDSEC
  0
EOF
