  0
SECTION
  2
HEADER
  9
$ACADVER
  1
AC1009
  9
$INSBASE
 10
5.1674835358950189
 20
39.984708301600001
 30
0.0
  9
$EXTMIN
 10
-2.3971742915575538
 20
18.940194222826239
 30
0.0
  9
$EXTMAX
 10
12.732141363347591
 20
39.9970857983934
 30
0.0
  9
$LIMMIN
 10
0.0
 20
0.0
  9
$LIMMAX
 10
11.692913385800001
 20
8.2677165353999982
  9
$ORTHOMODE
 70
     1
  9
$REGENMODE
 70
     1
  9
$FILLMODE
 70
     1
  9
$QTEXTMODE
 70
     0
  9
$MIRRTEXT
 70
     0
  9
$DRAGMODE
 70
     2
  9
$LTSCALE
 40
0.6431102362
  9
$OSMODE
 70
    39
  9
$ATTMODE
 70
     1
  9
$TEXTSIZE
 40
0.2
  9
$TRACEWID
 40
0.05
  9
$TEXTSTYLE
  7
STANDARD
  9
$CLAYER
  8
0
  9
$CELTYPE
  6
BYLAYER
  9
$CECOLOR
 62
   256
  9
$DIMSCALE
 40
1.0
  9
$DIMASZ
 40
0.1875
  9
$DIMEXO
 40
0.0625
  9
$DIMDLI
 40
0.4443307087
  9
$DIMRND
 40
0.0
  9
$DIMDLE
 40
0.0
  9
$DIMEXE
 40
0.125
  9
$DIMTP
 40
0.01
  9
$DIMTM
 40
0.01
  9
$DIMTXT
 40
0.15625
  9
$DIMCEN
 40
0.1052362205
  9
$DIMTSZ
 40
0.0
  9
$DIMTOL
 70
     1
  9
$DIMLIM
 70
     0
  9
$DIMTIH
 70
     1
  9
$DIMTOH
 70
     1
  9
$DIMSE1
 70
     0
  9
$DIMSE2
 70
     0
  9
$DIMTAD
 70
     0
  9
$DIMZIN
 70
     0
  9
$DIMBLK
  1

  9
$DIMASO
 70
     1
  9
$DIMSHO
 70
     1
  9
$DIMPOST
  1

  9
$DIMAPOST
  1

  9
$DIMALT
 70
     0
  9
$DIMALTD
 70
     2
  9
$DIMALTF
 40
25.399999999999999
  9
$DIMLFAC
 40
1.0
  9
$DIMTOFL
 70
     0
  9
$DIMTVP
 40
0.0
  9
$DIMTIX
 70
     0
  9
$DIMSOXD
 70
     0
  9
$DIMSAH
 70
     0
  9
$DIMBLK1
  1

  9
$DIMBLK2
  1

  9
$DIMSTYLE
  2
STANDARD
  9
$DIMCLRD
 70
     0
  9
$DIMCLRE
 70
     0
  9
$DIMCLRT
 70
     0
  9
$DIMTFAC
 40
1.0
  9
$DIMGAP
 40
0.09
  9
$LUNITS
 70
     2
  9
$LUPREC
 70
     4
  9
$SKETCHINC
 40
0.1
  9
$FILLETRAD
 40
0.0
  9
$AUNITS
 70
     0
  9
$AUPREC
 70
     0
  9
$MENU
  1
.
  9
$ELEVATION
 40
0.0
  9
$PELEVATION
 40
0.0
  9
$THICKNESS
 40
0.0
  9
$LIMCHECK
 70
     0
  9
$BLIPMODE
 70
     0
  9
$CHAMFERA
 40
0.0
  9
$CHAMFERB
 40
0.0
  9
$SKPOLY
 70
     0
  9
$TDCREATE
 40
2457589.511840567
  9
$TDUPDATE
 40
2457590.512527558
  9
$TDINDWG
 40
0.1763771991
  9
$TDUSRTIMER
 40
0.1763771991
  9
$USRTIMER
 70
     1
  9
$ANGBASE
 50
0.0
  9
$ANGDIR
 70
     0
  9
$PDMODE
 70
     0
  9
$PDSIZE
 40
0.3125
  9
$PLINEWID
 40
0.0
  9
$COORDS
 70
     1
  9
$SPLFRAME
 70
     0
  9
$SPLINETYPE
 70
     6
  9
$SPLINESEGS
 70
     8
  9
$ATTDIA
 70
     1
  9
$ATTREQ
 70
     1
  9
$HANDLING
 70
     1
  9
$HANDSEED
  5
D78
  9
$SURFTAB1
 70
     6
  9
$SURFTAB2
 70
     6
  9
$SURFTYPE
 70
     6
  9
$SURFU
 70
     6
  9
$SURFV
 70
     6
  9
$UCSNAME
  2

  9
$UCSORG
 10
0.0
 20
0.0
 30
0.0
  9
$UCSXDIR
 10
1.0
 20
0.0
 30
0.0
  9
$UCSYDIR
 10
0.0
 20
1.0
 30
0.0
  9
$PUCSNAME
  2

  9
$PUCSORG
 10
0.0
 20
0.0
 30
0.0
  9
$PUCSXDIR
 10
1.0
 20
0.0
 30
0.0
  9
$PUCSYDIR
 10
0.0
 20
1.0
 30
0.0
  9
$USERI1
 70
     0
  9
$USERI2
 70
     0
  9
$USERI3
 70
     0
  9
$USERI4
 70
     0
  9
$USERI5
 70
     0
  9
$USERR1
 40
0.0
  9
$USERR2
 40
0.0
  9
$USERR3
 40
0.0
  9
$USERR4
 40
0.0
  9
$USERR5
 40
0.0
  9
$WORLDVIEW
 70
     1
  9
$SHADEDGE
 70
     3
  9
$SHADEDIF
 70
    70
  9
$TILEMODE
 70
     1
  9
$MAXACTVP
 70
    64
  9
$PLIMCHECK
 70
     0
  9
$PEXTMIN
 10
1.0000000000000000E+020
 20
1.0000000000000000E+020
 30
1.0000000000000000E+020
  9
$PEXTMAX
 10
-1.0000000000000000E+020
 20
-1.0000000000000000E+020
 30
-1.0000000000000000E+020
  9
$PLIMMIN
 10
0.0
 20
0.0
  9
$PLIMMAX
 10
12.0
 20
9.0
  9
$UNITMODE
 70
     0
  9
$VISRETAIN
 70
     1
  9
$PLINEGEN
 70
     0
  9
$PSLTSCALE
 70
     1
  0
ENDSEC
  0
SECTION
  2
TABLES
  0
TABLE
  2
VPORT
 70
     1
  0
VPORT
  2
*ACTIVE
 70
     0
 10
0.0
 20
0.0
 11
1.0
 21
1.0
 12
15.267827740403281
 22
11.977462816671551
 13
0.0
 23
0.0
 14
1.0
 24
1.0
 15
0.0
 25
0.0
 16
-0.0000000000000338
 26
0.0
 36
150.1353747618378
 17
-10.099707222399999
 27
17.939932415628711
 37
0.0
 40
21.214497054785681
 41
1.786624203821656
 42
50.0
 43
0.0
 44
0.0
 50
0.0
 51
0.0
 71
     0
 72
   100
 73
     1
 74
     1
 75
     0
 76
     0
 77
     0
 78
     0
  0
ENDTAB
  0
TABLE
  2
LTYPE
 70
     1
  0
LTYPE
  2
CONTINUOUS
 70
     0
  3
Solid line
 72
    65
 73
     0
 40
0.0
  0
ENDTAB
  0
TABLE
  2
LAYER
 70
     2
  0
LAYER
  2
0
 70
     0
 62
     7
  6
CONTINUOUS
  0
LAYER
  2
DEFPOINTS
 70
     0
 62
     7
  6
CONTINUOUS
  0
ENDTAB
  0
TABLE
  2
STYLE
 70
     1
  0
STYLE
  2
STANDARD
 70
     0
 40
0.0
 41
0.8
 50
0.0
 71
     0
 42
0.2
  3
txt
  4

  0
ENDTAB
  0
TABLE
  2
VIEW
 70
     1
  0
ENDTAB
  0
TABLE
  2
UCS
 70
     0
  0
ENDTAB
  0
TABLE
  2
APPID
 70
     5
  0
APPID
  2
ACAD
 70
     0
  0
APPID
  2
ACAD_MLEADERVER
 70
     0
  0
APPID
  2
ACAD_EXEMPT_FROM_CAD_STANDARDS
 70
     0
  0
APPID
  2
ACAD_NAV_VCDISPLAY
 70
     0
  0
APPID
  2
ACDBATTR
 70
     0
  0
ENDTAB
  0
TABLE
  2
DIMSTYLE
 70
     1
  0
DIMSTYLE
  2
STANDARD
 70
     0
  3

  4

  5

  6

  7

 40
1.0
 41
0.1875
 42
0.0625
 43
0.38
 44
0.125
 45
0.0
 46
0.0
 47
0.01
 48
0.01
140
0.15625
141
0.09
142
0.0
143
25.399999999999999
144
1.0
145
0.0
146
1.0
147
0.09
 71
     1
 72
     0
 73
     1
 74
     1
 75
     0
 76
     0
 77
     0
 78
     4
170
     0
171
     2
172
     0
173
     0
174
     0
175
     0
176
     0
177
     0
178
     0
  0
ENDTAB
  0
ENDSEC
  0
SECTION
  2
BLOCKS
  0
BLOCK
  8
0
  2
$MODEL_SPACE
 70
     0
 10
0.0
 20
0.0
 30
0.0
  3
$MODEL_SPACE
  1

  0
ENDBLK
  5
21
  8
0
  0
BLOCK
 67
     1
  8
0
  2
$PAPER_SPACE
 70
     0
 10
0.0
 20
0.0
 30
0.0
  3
$PAPER_SPACE
  1

  0
ENDBLK
  5
1D
 67
     1
  8
0
  0
ENDSEC
  0
SECTION
  2
ENTITIES
  0
LINE
  5
A4B
  8
0
 10
5.1674835358950189
 20
39.984708301600001
 30
0.0
 11
-2.1159521547999991
 21
39.984708301600001
 31
0.0
  0
ARC
  5
A4C
  8
0
 10
3603.1068728093219
 20
-144.47679034832561
 30
0.0
 40
3609.9387338466649
 50
177.07101122280091
 51
177.1310898421487
  0
ARC
  5
A4D
  8
0
 10
45.730925737747519
 20
33.265888072379688
 30
0.0
 40
48.128100029305081
 50
176.4997115821221
 51
182.04788133288179
  0
ARC
  5
A4E
  8
0
 10
19.900469549606459
 20
32.125025117620432
 30
0.0
 40
22.274431003009799
 50
181.48945478798311
 51
197.68043674507061
  0
ARC
  5
A50
  8
0
 10
12.16967742186203
 20
29.795869763418121
 30
0.0
 40
14.20200218806059
 50
198.19991961194651
 51
216.9011999635286
  0
ARC
  5
A52
  8
0
 10
5.7032297495177158
 20
24.916833078300758
 30
0.0
 40
6.101439867078569
 50
216.72338837780771
 51
245.0422206693394
  0
ARC
  5
A53
  8
0
 10
5.1070119245762511
 20
23.56041371426106
 30
0.0
 40
4.6202194914348151
 50
244.6478730570733
 51
270.7499355921878
  0
LINE
  5
A54
  8
0
 10
5.1674835358950189
 20
37.001135127800012
 30
0.0
 11
3.1262238055792611
 21
37.001135127800012
 31
0.0
  0
LINE
  5
A55
  8
0
 10
3.1267046362999991
 20
36.946037384699999
 30
0.0
 11
3.1172708798999991
 21
38.027038796300012
 31
0.0
  0
ARC
  5
A56
  8
0
 10
2.6172996321637978
 20
38.022675613322143
 30
0.0
 40
0.4999902858342273
 50
0.4999999999650847
 51
52.087328409327426
  0
ARC
  5
A57
  8
0
 10
2.5609168652716519
 20
37.892137987643743
 30
0.0
 40
0.638622787066561
 50
55.294350120127788
 51
70.513928371074329
  0
ARC
  5
A58
  8
0
 10
2.6243885412728019
 20
38.084386471986441
 30
0.0
 40
0.4362341890071673
 50
69.949987186614464
 51
92.861098432601437
  0
ARC
  5
A59
  8
0
 10
2.605429570098122
 20
-160.2777262063978
 30
0.0
 40
198.7978031116364
 50
90.000811484221515
 51
90.161187968462002
  0
ARC
  5
A5A
  8
0
 10
2.0528332997792562
 20
38.16262826162253
 30
0.0
 40
0.3567243779348916
 50
91.07186391534114
 51
111.23874826680139
  0
ARC
  5
A5B
  8
0
 10
2.1348715152344728
 20
37.890771235526628
 30
0.0
 40
0.6402140065966444
 50
109.2680913902506
 51
124.69643310745739
  0
ARC
  5
A5C
  8
0
 10
2.077677112052386
 20
38.022670834383412
 30
0.0
 40
0.4999999995628122
 50
127.91320955782901
 51
179.50002833140999
  0
ARC
  5
A5D
  8
0
 10
541.73294383017765
 20
32.772631007646382
 30
0.0
 40
540.18080338624759
 50
179.44266835695649
 51
179.55733163957109
  0
LINE
  5
A65
  8
0
 10
1.5682624355000001
 20
36.946037385899999
 30
0.0
 11
1.64457557065
 21
36.946054765750013
 31
0.0
  0
ARC
  5
A66
  8
0
 10
1.6444114347071921
 20
36.978604453278827
 30
0.0
 40
0.03255010136439
 50
270.28891881284699
 51
352.85750441879128
  0
ARC
  5
A67
  8
0
 10
1.691365631104365
 20
36.963455124294889
 30
0.0
 40
0.0183868359789454
 50
101.94655466491569
 51
142.85683032149149
  0
ARC
  5
A68
  8
0
 10
1.696288031559176
 20
36.950515908488647
 30
0.0
 40
0.0321358937348964
 50
89.764036538027327
 51
105.760150147194
  0
LINE
  5
A69
  8
0
 10
1.6964203777
 20
36.9826515297
 30
0.0
 11
2.998546672699999
 21
36.982655363200003
 31
0.0
  0
ARC
  5
A6A
  8
0
 10
2.9999448655477989
 20
36.957345190839568
 30
0.0
 40
0.0253487612512261
 50
43.79729711795067
 51
93.161890154848393
  0
ARC
  5
A6B
  8
0
 10
3.050707712086536
 20
36.9787259095989
 30
0.0
 40
0.0326921953707306
 50
186.73950693924789
 51
270.81313092591449
  0
ARC
  5
A6C
  8
0
 10
3.2754533143493849
 20
-37203.461141313659
 30
0.0
 40
37240.407178995418
 50
90.000228855485375
 51
90.000345065838545
  0
ARC
  5
A6D
  8
0
 10
2.062481465470865
 20
37.068703573222862
 30
0.0
 40
0.1249948712801719
 50
223.50711084435909
 51
253.53236863608109
  0
ARC
  5
A6E
  8
0
 10
2.6427928908321769
 20
37.045164808752027
 30
0.0
 40
0.0995054066881292
 50
284.53935070007981
 51
321.08183694940487
  0
LINE
  5
A6F
  8
0
 10
1.6575645001802719
 20
36.948830203204437
 30
0.0
 11
3.0374292522869242
 21
36.948851804700041
 31
0.0
  0
LINE
  5
A73
  8
0
 10
1.5816766622599709
 20
36.946040440908142
 30
0.0
 11
1.5741252982
 21
36.839777144499998
 31
0.0
  0
LINE
  5
A74
  8
0
 10
1.5741252982
 20
36.839777144499998
 30
0.0
 11
1.570607827955208
 21
36.467976543593132
 31
0.0
  0
LINE
  5
A75
  8
0
 10
5.1674835358950189
 20
36.429148240825327
 30
0.0
 11
1.0795563338
 21
36.473277448499999
 31
0.0
  0
LINE
  5
A7D
  8
0
 10
1.547774848666952
 20
36.468223025791808
 30
0.0
 11
1.5443453886
 21
36.851751114899997
 31
0.0
  0
LINE
  5
A7E
  8
0
 10
1.5443453886
 20
36.851751114899997
 30
0.0
 11
1.5393229811999991
 21
36.9255153581
 31
0.0
  0
LINE
  5
A7F
  8
0
 10
1.5393229811999991
 20
36.9255153581
 30
0.0
 11
1.10990943267183
 21
36.925515434399202
 31
0.0
  0
ARC
  5
A80
  8
0
 10
1.1099094220112879
 20
36.865517667372572
 30
0.0
 40
0.0599977670266237
 50
89.999989819550052
 51
180.08257861253401
  0
ARC
  5
A81
  8
0
 10
8.1883044114686001
 20
36.811069287314822
 30
0.0
 40
7.1385996857305534
 50
179.5636766186287
 51
182.67679818493659
  0
ARC
  5
A82
  8
0
 10
1.0797501907385989
 20
36.533241689623118
 30
0.0
 40
0.0598509543404831
 50
183.8174496680995
 51
248.1694817565787
  0
ARC
  5
A83
  8
0
 10
-4.92228895198265
 20
36.55850831362752
 30
0.0
 40
5.9423929786157608
 50
359.71796098072679
 51
2.3553952911907898
  0
ARC
  5
A84
  8
0
 10
0.6350469556579609
 20
36.792697252686402
 30
0.0
 40
0.3801688531952171
 50
1.5118842355143629
 51
6.453808994072455
  0
ARC
  5
A86
  8
0
 10
1.5312950794469129
 20
36.894079973456641
 30
0.0
 40
0.5217952012249097
 50
181.88175684835591
 51
186.45380899407229
  0
ARC
  5
A87
  8
0
 10
0.9497317274867072
 20
36.868247691858151
 30
0.0
 40
0.0606762304714949
 50
8.2419163697887328
 51
89.433533912730397
  0
ARC
  5
A88
  8
0
 10
0.7566040589499998
 20
763.98227306315573
 30
0.0
 40
727.05337791616455
 50
269.98473321044952
 51
270.01526678955048
  0
ARC
  5
A90
  8
0
 10
0.563130299830053
 20
36.740240394615377
 30
0.0
 40
0.1886807329644444
 50
90.077066382626185
 51
141.5308911435927
  0
ARC
  5
A91
  8
0
 10
9.3575918668088267
 20
30.257913470180618
 30
0.0
 40
11.113901916086331
 50
143.57114335387169
 51
162.75098123746849
  0
ARC
  5
A92
  8
0
 10
6.6527317667221189
 20
30.50480814757293
 30
0.0
 40
8.4764183287664743
 50
158.9204736309625
 51
170.9967730958555
  0
ARC
  5
A93
  8
0
 10
32.234848713468082
 20
26.451521928972682
 30
0.0
 40
34.377650667149183
 50
170.9967730958555
 51
173.7430331317826
  0
ARC
  5
A94
  8
0
 10
10.70253889165992
 20
29.425700201228171
 30
0.0
 40
12.66414313990836
 50
176.50255214786091
 51
186.72997785356239
  0
ARC
  5
A95
  8
0
 10
-66.097096090330353
 20
17.206483661592141
 30
0.0
 40
65.113781874228522
 50
8.1900630919630313
 51
9.4894968696408082
  0
ARC
  5
A96
  8
0
 10
1.0797125330514279
 20
36.531508253326741
 30
0.0
 40
0.0582310143220624
 50
247.5696196306171
 51
269.84630924419508
  0
ARC
  5
A97
  8
0
 10
0.8918248561151063
 20
36.777566041660059
 30
0.0
 40
0.2767561500484537
 50
265.32288787132723
 51
297.60031966895872
  0
ARC
  5
A98
  8
0
 10
71.857733277599635
 20
36.538356429024311
 30
0.0
 40
70.988484670119377
 50
180.02956050095131
 51
180.04215042333101
  0
ARC
  5
A99
  8
0
 10
10.800594229126659
 20
29.275489532000108
 30
0.0
 40
12.272922244596471
 50
144.0184603895317
 51
165.54829654354259
  0
ARC
  5
A9A
  8
0
 10
9.8471222827615126
 20
29.313902731888611
 30
0.0
 40
11.341810032062771
 50
164.5340864022412
 51
189.7790448192919
  0
ARC
  5
A9B
  8
0
 10
12.67252193882544
 20
29.8008698775241
 30
0.0
 40
14.208867795243449
 50
189.77904481929181
 51
206.17449692949091
  0
ARC
  5
A9C
  8
0
 10
8.7273485923250789
 20
27.614122291418951
 30
0.0
 40
9.7062098231141931
 50
204.8623467181184
 51
225.11579213682
  0
ARC
  5
AA4
  8
0
 10
5.4572369897126451
 20
24.51323163478742
 30
0.0
 40
5.203075427898443
 50
226.53384520018361
 51
252.1838110233117
  0
ARC
  5
AA5
  8
0
 10
5.104365262181247
 20
23.45694863411514
 30
0.0
 40
4.0895023743242183
 50
252.3626427407961
 51
270.88435070062792
  0
LINE
  5
AA6
  8
0
 10
5.1674835358950189
 20
39.984708301600001
 30
0.0
 11
12.45091922659004
 21
39.984708301600001
 31
0.0
  0
ARC
  5
AA7
  8
0
 10
-3592.7719057375321
 20
-144.47679034832561
 30
0.0
 40
3609.9387338466649
 50
2.8689101578512548
 51
2.928988777199093
  0
ARC
  5
AA8
  8
0
 10
-35.39595866595748
 20
33.265888072379688
 30
0.0
 40
48.128100029305081
 50
357.95211866711821
 51
3.5002884178778499
  0
ARC
  5
AA9
  8
0
 10
-9.5655024778164197
 20
32.125025117620432
 30
0.0
 40
22.274431003009799
 50
342.31956325492939
 51
358.51054521201689
  0
ARC
  5
AAA
  8
0
 10
-1.8347103500719879
 20
29.795869763418121
 30
0.0
 40
14.20200218806059
 50
323.0988000364714
 51
341.80008038805352
  0
ARC
  5
AAB
  8
0
 10
4.6317373222723219
 20
24.916833078300758
 30
0.0
 40
6.101439867078569
 50
294.95777933066063
 51
323.27661162219232
  0
ARC
  5
AAC
  8
0
 10
5.2279551472137866
 20
23.56041371426106
 30
0.0
 40
4.6202194914348151
 50
269.25006440781209
 51
295.35212694292682
  0
LINE
  5
AAD
  8
0
 10
5.1674835358950189
 20
37.001135127800012
 30
0.0
 11
7.2087432662107771
 21
37.001135127800012
 31
0.0
  0
LINE
  5
AAE
  8
0
 10
7.2082624354900391
 20
36.946037384699999
 30
0.0
 11
7.2176961918900391
 21
38.027038796300012
 31
0.0
  0
ARC
  5
AAF
  8
0
 10
7.7176674396262399
 20
38.022675613322143
 30
0.0
 40
0.4999902858342273
 50
127.9126715906726
 51
179.5000000000349
  0
ARC
  5
AB0
  8
0
 10
7.7740502065183872
 20
37.892137987643743
 30
0.0
 40
0.638622787066561
 50
109.4860716289256
 51
124.7056498798721
  0
ARC
  5
AB1
  8
0
 10
7.7105785305172372
 20
38.084386471986441
 30
0.0
 40
0.4362341890071673
 50
87.138901567398548
 51
110.05001281338549
  0
ARC
  5
AB2
  8
0
 10
7.729537501691917
 20
-160.2777262063978
 30
0.0
 40
198.7978031116364
 50
89.838812031538012
 51
89.999188515778499
  0
ARC
  5
AB3
  8
0
 10
8.2821337720107824
 20
38.16262826162253
 30
0.0
 40
0.3567243779348916
 50
68.76125173319852
 51
88.928136084658846
  0
ARC
  5
AB4
  8
0
 10
8.2000955565555671
 20
37.890771235526628
 30
0.0
 40
0.6402140065966444
 50
55.303566892542641
 51
70.731908609749425
  0
ARC
  5
AB5
  8
0
 10
8.257289959737653
 20
38.022670834383412
 30
0.0
 40
0.4999999995628122
 50
0.4999716685900113
 51
52.086790442170951
  0
ARC
  5
AB6
  8
0
 10
-531.3979767583877
 20
32.772631007646382
 30
0.0
 40
540.18080338624759
 50
0.4426683604289245
 51
0.5573316430434553
  0
LINE
  5
AB7
  8
0
 10
8.76670463629004
 20
36.946037385899999
 30
0.0
 11
8.6903915011400397
 21
36.946054765750013
 31
0.0
  0
ARC
  5
AB8
  8
0
 10
8.6905556370828467
 20
36.978604453278827
 30
0.0
 40
0.03255010136439
 50
187.14249558120881
 51
269.7110811871529
  0
ARC
  5
AB9
  8
0
 10
8.6436014406856732
 20
36.963455124294889
 30
0.0
 40
0.0183868359789454
 50
37.14316967850845
 51
78.053445335084305
  0
ARC
  5
ABA
  8
0
 10
8.6386790402308637
 20
36.950515908488647
 30
0.0
 40
0.0321358937348964
 50
74.239849852806003
 51
90.235963461972673
  0
LINE
  5
ABB
  8
0
 10
8.6385466940900386
 20
36.9826515297
 30
0.0
 11
7.3364203990900387
 21
36.982655363200003
 31
0.0
  0
ARC
  5
ABC
  8
0
 10
7.3350222062422388
 20
36.957345190839568
 30
0.0
 40
0.0253487612512261
 50
86.838109845151564
 51
136.20270288204929
  0
ARC
  5
ABD
  8
0
 10
7.284259359703503
 20
36.9787259095989
 30
0.0
 40
0.0326921953707306
 50
269.18686907408551
 51
353.26049306075208
  0
ARC
  5
ABE
  8
0
 10
7.0595137574406541
 20
-37203.461141313659
 30
0.0
 40
37240.407178995418
 50
89.999654934161484
 51
89.999771144514654
  0
ARC
  5
ABF
  8
0
 10
8.2724856063191741
 20
37.068703573222862
 30
0.0
 40
0.1249948712801719
 50
286.467631363919
 51
316.49288915564102
  0
ARC
  5
AC0
  8
0
 10
7.6921741809578608
 20
37.045164808752027
 30
0.0
 40
0.0995054066881292
 50
218.9181630505951
 51
255.46064929992019
  0
LINE
  5
AC1
  8
0
 10
8.6774025716097665
 20
36.948830203204437
 30
0.0
 11
7.2975378195031153
 21
36.948851804700041
 31
0.0
  0
LINE
  5
AC2
  8
0
 10
8.7532904095300683
 20
36.946040440908142
 30
0.0
 11
8.7608417735900392
 21
36.839777144499998
 31
0.0
  0
LINE
  5
AC3
  8
0
 10
8.7608417735900392
 20
36.839777144499998
 30
0.0
 11
8.7643592438348303
 21
36.467976543593132
 31
0.0
  0
LINE
  5
AC4
  8
0
 10
5.1674835358950189
 20
36.429148240825327
 30
0.0
 11
9.2554107379900401
 21
36.473277448499999
 31
0.0
  0
LINE
  5
AC5
  8
0
 10
8.7871922231230872
 20
36.468223025791808
 30
0.0
 11
8.7906216831900394
 21
36.851751114899997
 31
0.0
  0
LINE
  5
AC6
  8
0
 10
8.7906216831900394
 20
36.851751114899997
 30
0.0
 11
8.7956440905900397
 21
36.9255153581
 31
0.0
  0
LINE
  5
AC7
  8
0
 10
8.7956440905900397
 20
36.9255153581
 30
0.0
 11
9.2250576391182086
 21
36.925515434399202
 31
0.0
  0
ARC
  5
AC8
  8
0
 10
9.2250576497787513
 20
36.865517667372572
 30
0.0
 40
0.0599977670266237
 50
359.91742138746599
 51
90.000010180449905
  0
ARC
  5
AC9
  8
0
 10
2.1466626603214389
 20
36.811069287314822
 30
0.0
 40
7.1385996857305534
 50
357.32320181506338
 51
0.4363233813713248
  0
ARC
  5
ACA
  8
0
 10
9.2552168810514406
 20
36.533241689623118
 30
0.0
 40
0.0598509543404831
 50
291.8305182434213
 51
356.18255033190047
  0
ARC
  5
ACB
  8
0
 10
15.25725602377269
 20
36.55850831362752
 30
0.0
 40
5.9423929786157608
 50
177.6446047088092
 51
180.28203901927321
  0
ARC
  5
ACC
  8
0
 10
9.6999201161320787
 20
36.792697252686402
 30
0.0
 40
0.3801688531952171
 50
173.54619100592751
 51
178.4881157644856
  0
ARC
  5
ACD
  8
0
 10
8.8036719923431264
 20
36.894079973456641
 30
0.0
 40
0.5217952012249097
 50
353.54619100592771
 51
358.11824315164409
  0
ARC
  5
ACE
  8
0
 10
9.3852353443033323
 20
36.868247691858151
 30
0.0
 40
0.0606762304714949
 50
90.566466087269617
 51
171.75808363021119
  0
ARC
  5
ACF
  8
0
 10
9.5783630128400397
 20
763.98227306315573
 30
0.0
 40
727.05337791616455
 50
269.98473321044952
 51
270.01526678955048
  0
ARC
  5
AD0
  8
0
 10
9.7718367719599861
 20
36.740240394615377
 30
0.0
 40
0.1886807329644444
 50
38.469108856407303
 51
89.922933617373857
  0
ARC
  5
AD1
  8
0
 10
0.9773752049812127
 20
30.257913470180618
 30
0.0
 40
11.113901916086331
 50
17.249018762531449
 51
36.42885664612831
  0
ARC
  5
AD2
  8
0
 10
3.6822353050679189
 20
30.50480814757293
 30
0.0
 40
8.4764183287664743
 50
9.0032269041445101
 51
21.07952636903752
  0
ARC
  5
AD3
  8
0
 10
-21.899881641678039
 20
26.451521928972682
 30
0.0
 40
34.377650667149183
 50
6.2569668682174209
 51
9.0032269041445101
  0
ARC
  5
AD4
  8
0
 10
-0.3675718198698785
 20
29.425700201228171
 30
0.0
 40
12.66414313990836
 50
353.2700221464375
 51
3.4974478521390671
  0
ARC
  5
AD5
  8
0
 10
76.432063162120386
 20
17.206483661592141
 30
0.0
 40
65.113781874228522
 50
170.51050313035921
 51
171.809936908037
  0
ARC
  5
AD6
  8
0
 10
9.2552545387386118
 20
36.531508253326741
 30
0.0
 40
0.0582310143220624
 50
270.15369075580497
 51
292.43038036938287
  0
ARC
  5
AD7
  8
0
 10
9.4431422156749338
 20
36.777566041660059
 30
0.0
 40
0.2767561500484537
 50
242.3996803310414
 51
274.67711212867277
  0
ARC
  5
AD8
  8
0
 10
-61.522766205809589
 20
36.538356429024311
 30
0.0
 40
70.988484670119377
 50
359.95784957666899
 51
359.97043949904872
  0
ARC
  5
AD9
  8
0
 10
-0.4656271573366216
 20
29.275489532000108
 30
0.0
 40
12.272922244596471
 50
14.45170345645737
 51
35.981539610468232
  0
ARC
  5
ADA
  8
0
 10
0.4878447890285269
 20
29.313902731888611
 30
0.0
 40
11.341810032062771
 50
350.22095518070807
 51
15.465913597758741
  0
ARC
  5
ADB
  8
0
 10
-2.3375548670354021
 20
29.8008698775241
 30
0.0
 40
14.208867795243449
 50
333.82550307050911
 51
350.22095518070807
  0
ARC
  5
ADC
  8
0
 10
1.6076184794649599
 20
27.614122291418951
 30
0.0
 40
9.7062098231141931
 50
314.88420786318011
 51
335.13765328188163
  0
ARC
  5
ADD
  8
0
 10
4.8777300820773943
 20
24.51323163478742
 30
0.0
 40
5.203075427898443
 50
287.8161889766883
 51
313.46615479981642
  0
ARC
  5
ADE
  8
0
 10
5.2306018096087907
 20
23.45694863411514
 30
0.0
 40
4.0895023743242183
 50
269.11564929937219
 51
287.63735725920401
  0
ATTDEF
  5
BD9
  8
DEFPOINTS
 10
5.1635770877482372
 20
39.991085798393406
 30
0.0
 40
0.001
  1
PREMIUM MATERIALS
  3

  2
MATERIAL
 70
     0
1001
ACDBATTR
1070
     0
1070
     1
  0
ATTDEF
  5
BDA
  8
DEFPOINTS
 10
5.1635770877482372
 20
39.992752465060072
 30
0.0
 40
0.001
  1
TOILET
  3

  2
PRODUCT
 70
     0
1001
ACDBATTR
1070
     0
1070
     1
  0
ATTDEF
  5
BDB
  8
DEFPOINTS
 10
5.1635770877482372
 20
39.994419131726737
 30
0.0
 40
0.001
  1
VEIL
  3

  2
TRADENAME
 70
     0
1001
ACDBATTR
1070
     0
1070
     1
  0
ATTDEF
  5
BDC
  8
DEFPOINTS
 10
5.1635770877482372
 20
39.996085798393402
 30
0.0
 40
0.001
  1
K-6299
  3

  2
MODELNUMBER
 70
     0
1001
ACDBATTR
1070
     0
1070
     1
  0
ENDSEC
  0
EOF
