  0
SECTION
  2
HEADER
  9
$ACADVER
  1
AC1009
  9
$INSBASE
 10
65.975167336115859
 20
12.41833011217703
 30
0.0
  9
$EXTMIN
 10
64.322167336115854
 20
11.11083011217703
 30
0.0
  9
$EXTMAX
 10
73.282667336115864
 20
20.224875802577031
 30
0.0
  9
$LIMMIN
 10
0.0
 20
0.0
  9
$LIMMAX
 10
11.692913385800001
 20
8.2677165353999982
  9
$ORTHOMODE
 70
     1
  9
$REGENMODE
 70
     1
  9
$FILLMODE
 70
     1
  9
$QTEXTMODE
 70
     0
  9
$MIRRTEXT
 70
     0
  9
$DRAGMODE
 70
     2
  9
$LTSCALE
 40
0.6431102362
  9
$OSMODE
 70
  3071
  9
$ATTMODE
 70
     1
  9
$TEXTSIZE
 40
0.2
  9
$TRACEWID
 40
0.05
  9
$TEXTSTYLE
  7
STANDARD
  9
$CLAYER
  8
0
  9
$CELTYPE
  6
BYLAYER
  9
$CECOLOR
 62
   256
  9
$DIMSCALE
 40
1.0
  9
$DIMASZ
 40
0.1875
  9
$DIMEXO
 40
0.0625
  9
$DIMDLI
 40
0.4443307087
  9
$DIMRND
 40
0.0
  9
$DIMDLE
 40
0.0
  9
$DIMEXE
 40
0.125
  9
$DIMTP
 40
0.01
  9
$DIMTM
 40
0.01
  9
$DIMTXT
 40
1.0
  9
$DIMCEN
 40
0.1052362205
  9
$DIMTSZ
 40
0.0
  9
$DIMTOL
 70
     1
  9
$DIMLIM
 70
     0
  9
$DIMTIH
 70
     0
  9
$DIMTOH
 70
     1
  9
$DIMSE1
 70
     0
  9
$DIMSE2
 70
     0
  9
$DIMTAD
 70
     0
  9
$DIMZIN
 70
     0
  9
$DIMBLK
  1

  9
$DIMASO
 70
     1
  9
$DIMSHO
 70
     1
  9
$DIMPOST
  1
\X
  9
$DIMAPOST
  1

  9
$DIMALT
 70
     1
  9
$DIMALTD
 70
     2
  9
$DIMALTF
 40
25.399999999999999
  9
$DIMLFAC
 40
1.0
  9
$DIMTOFL
 70
     0
  9
$DIMTVP
 40
0.0
  9
$DIMTIX
 70
     0
  9
$DIMSOXD
 70
     0
  9
$DIMSAH
 70
     0
  9
$DIMBLK1
  1

  9
$DIMBLK2
  1

  9
$DIMSTYLE
  2
STANDARD
  9
$DIMCLRD
 70
     0
  9
$DIMCLRE
 70
     0
  9
$DIMCLRT
 70
     0
  9
$DIMTFAC
 40
1.0
  9
$DIMGAP
 40
0.09
  9
$LUNITS
 70
     2
  9
$LUPREC
 70
     4
  9
$SKETCHINC
 40
0.1
  9
$FILLETRAD
 40
0.0
  9
$AUNITS
 70
     0
  9
$AUPREC
 70
     0
  9
$MENU
  1
.
  9
$ELEVATION
 40
0.0
  9
$PELEVATION
 40
0.0
  9
$THICKNESS
 40
0.0
  9
$LIMCHECK
 70
     0
  9
$BLIPMODE
 70
     0
  9
$CHAMFERA
 40
0.0
  9
$CHAMFERB
 40
0.0
  9
$SKPOLY
 70
     0
  9
$TDCREATE
 40
2458172.5207663891
  9
$TDUPDATE
 40
2458365.646034502
  9
$TDINDWG
 40
0.0509684259
  9
$TDUSRTIMER
 40
0.0509684259
  9
$USRTIMER
 70
     1
  9
$ANGBASE
 50
0.0
  9
$ANGDIR
 70
     0
  9
$PDMODE
 70
     0
  9
$PDSIZE
 40
0.3125
  9
$PLINEWID
 40
0.0
  9
$COORDS
 70
     1
  9
$SPLFRAME
 70
     0
  9
$SPLINETYPE
 70
     6
  9
$SPLINESEGS
 70
     8
  9
$ATTDIA
 70
     1
  9
$ATTREQ
 70
     1
  9
$HANDLING
 70
     1
  9
$HANDSEED
  5
F7C
  9
$SURFTAB1
 70
     6
  9
$SURFTAB2
 70
     6
  9
$SURFTYPE
 70
     6
  9
$SURFU
 70
     6
  9
$SURFV
 70
     6
  9
$UCSNAME
  2

  9
$UCSORG
 10
0.0
 20
0.0
 30
0.0
  9
$UCSXDIR
 10
1.0
 20
0.0
 30
0.0
  9
$UCSYDIR
 10
0.0
 20
1.0
 30
0.0
  9
$PUCSNAME
  2

  9
$PUCSORG
 10
0.0
 20
0.0
 30
0.0
  9
$PUCSXDIR
 10
1.0
 20
0.0
 30
0.0
  9
$PUCSYDIR
 10
0.0
 20
1.0
 30
0.0
  9
$USERI1
 70
     0
  9
$USERI2
 70
     0
  9
$USERI3
 70
     0
  9
$USERI4
 70
     0
  9
$USERI5
 70
     0
  9
$USERR1
 40
0.0
  9
$USERR2
 40
0.0
  9
$USERR3
 40
0.0
  9
$USERR4
 40
0.0
  9
$USERR5
 40
0.0
  9
$WORLDVIEW
 70
     1
  9
$SHADEDGE
 70
     3
  9
$SHADEDIF
 70
    70
  9
$TILEMODE
 70
     1
  9
$MAXACTVP
 70
    64
  9
$PLIMCHECK
 70
     0
  9
$PEXTMIN
 10
1.0000000000000000E+020
 20
1.0000000000000000E+020
 30
1.0000000000000000E+020
  9
$PEXTMAX
 10
-1.0000000000000000E+020
 20
-1.0000000000000000E+020
 30
-1.0000000000000000E+020
  9
$PLIMMIN
 10
0.0
 20
0.0
  9
$PLIMMAX
 10
12.0
 20
9.0
  9
$UNITMODE
 70
     0
  9
$VISRETAIN
 70
     1
  9
$PLINEGEN
 70
     0
  9
$PSLTSCALE
 70
     1
  0
ENDSEC
  0
SECTION
  2
TABLES
  0
TABLE
  2
VPORT
 70
     1
  0
VPORT
  2
*ACTIVE
 70
     0
 10
0.0
 20
0.0
 11
1.0
 21
1.0
 12
0.0
 22
0.0
 13
0.0
 23
0.0
 14
1.0
 24
1.0
 15
0.0
 25
0.0
 16
-0.0000000000000142
 26
0.0
 36
35.938768574314821
 17
68.802417336115866
 27
15.668593434386141
 37
0.0
 40
12.78072532923554
 41
2.0984340044742731
 42
50.0
 43
0.0
 44
0.0
 50
0.0
 51
0.0
 71
     0
 72
   100
 73
     1
 74
     1
 75
     0
 76
     0
 77
     0
 78
     0
  0
ENDTAB
  0
TABLE
  2
LTYPE
 70
     2
  0
LTYPE
  2
CONTINUOUS
 70
     0
  3
Solid line
 72
    65
 73
     0
 40
0.0
  0
LTYPE
  2
PHANTOM2
 70
     0
  3
___ _ _ ___ _ _ ___ _ _ ___ _ _
 72
    65
 73
     6
 40
1.25
 49
0.625
 49
-0.125
 49
0.125
 49
-0.125
 49
0.125
 49
-0.125
  0
ENDTAB
  0
TABLE
  2
LAYER
 70
     2
  0
LAYER
  2
0
 70
     0
 62
   255
  6
CONTINUOUS
  0
LAYER
  2
DEFPOINTS
 70
     0
 62
     7
  6
CONTINUOUS
  0
ENDTAB
  0
TABLE
  2
STYLE
 70
     1
  0
STYLE
  2
STANDARD
 70
     0
 40
0.0
 41
0.8
 50
0.0
 71
     0
 42
0.2
  3
txt
  4

  0
ENDTAB
  0
TABLE
  2
VIEW
 70
     0
  0
ENDTAB
  0
TABLE
  2
UCS
 70
     0
  0
ENDTAB
  0
TABLE
  2
APPID
 70
    10
  0
APPID
  2
ACAD
 70
     0
  0
APPID
  2
ACAD_MLEADERVER
 70
     0
  0
APPID
  2
ACAD_EXEMPT_FROM_CAD_STANDARDS
 70
     0
  0
APPID
  2
ACAD_DSTYLE_DIMJAG
 70
     0
  0
APPID
  2
ACAD_DSTYLE_DIMTALN
 70
     0
  0
APPID
  2
ACAD_NAV_VCDISPLAY
 70
     0
  0
APPID
  2
ACAECLAYERSTANDARD
 70
     0
  0
APPID
  2
ACCMTRANSPARENCY
 70
     0
  0
APPID
  2
DCO15
 70
     0
  0
APPID
  2
ACDBATTR
 70
     0
  0
ENDTAB
  0
TABLE
  2
DIMSTYLE
 70
     1
  0
DIMSTYLE
  2
STANDARD
 70
     0
  3

  4

  5

  6

  7

 40
1.0
 41
0.1875
 42
0.0625
 43
0.38
 44
0.125
 45
0.0
 46
0.0
 47
0.01
 48
0.01
140
0.15625
141
0.09
142
0.0
143
25.399999999999999
144
1.0
145
0.0
146
1.0
147
0.09
 71
     1
 72
     0
 73
     1
 74
     1
 75
     0
 76
     0
 77
     0
 78
     4
170
     0
171
     2
172
     0
173
     0
174
     0
175
     0
176
     0
177
     0
178
     0
  0
ENDTAB
  0
ENDSEC
  0
SECTION
  2
BLOCKS
  0
BLOCK
  8
0
  2
$MODEL_SPACE
 70
     0
 10
0.0
 20
0.0
 30
0.0
  3
$MODEL_SPACE
  1

  0
ENDBLK
  5
21
  8
0
  0
BLOCK
 67
     1
  8
0
  2
$PAPER_SPACE
 70
     0
 10
0.0
 20
0.0
 30
0.0
  3
$PAPER_SPACE
  1

  0
ENDBLK
  5
1D
 67
     1
  8
0
  0
ENDSEC
  0
SECTION
  2
ENTITIES
  0
ATTDEF
  5
829
  8
DEFPOINTS
 10
65.970152961576488
 20
12.416462117936961
 30
0.0
 40
0.001
  1
K-6228-C11
  3

  2
MODELNUMBER
 70
     0
1001
ACDBATTR
1070
     0
1070
     1
  0
ATTDEF
  5
82A
  8
DEFPOINTS
 10
65.970152961576488
 20
12.41479545127029
 30
0.0
 40
0.001
  1
KARBON
  3

  2
TRADENAME
 70
     0
1001
ACDBATTR
1070
     0
1070
     1
  0
ATTDEF
  5
82B
  8
DEFPOINTS
 10
65.970152961576488
 20
12.41312878460363
 30
0.0
 40
0.001
  1
KITCHEN SINK FAUCET
  3

  2
PRODUCT
 70
     0
1001
ACDBATTR
1070
     0
1070
     1
  0
ATTDEF
  5
82C
  8
DEFPOINTS
 10
65.970152961576488
 20
12.411462117936971
 30
0.0
 40
0.001
  1
METAL
  3

  2
MATERIAL
 70
     0
1001
ACDBATTR
1070
     0
1070
     1
  0
LINE
  5
D47
  8
0
 10
64.322167336115854
 20
15.65510417277703
 30
0.0
 11
64.322167336115854
 21
12.45510417277703
 31
0.0
  0
LINE
  5
D48
  8
0
 10
64.347167336115859
 20
16.945604172777031
 30
0.0
 11
64.347167336115859
 21
16.030604172777029
 31
0.0
  0
LINE
  5
D49
  8
0
 10
64.409667336115859
 20
16.015694629391731
 30
0.0
 11
64.409667336115859
 21
15.70310417277703
 31
0.0
  0
LINE
  5
D4A
  8
0
 10
64.435167336115853
 20
20.224875802577031
 30
0.0
 11
64.435167336115853
 21
19.309875802577029
 31
0.0
  0
LINE
  5
D4B
  8
0
 10
64.497667336115853
 20
19.309875802577029
 30
0.0
 11
64.497667336115853
 21
16.945604172777031
 31
0.0
  0
LINE
  5
D4C
  8
0
 10
64.583667336115852
 20
12.430651172777029
 30
0.0
 11
64.583667336115852
 21
12.43015117277703
 31
0.0
  0
LINE
  5
D4D
  8
0
 10
65.537667336115859
 20
11.829330112177029
 30
0.0
 11
66.412667336115859
 21
11.829330112177029
 31
0.0
  0
LINE
  5
D4E
  8
0
 10
65.110667336115853
 20
12.430651172777029
 30
0.0
 11
65.110667336115853
 21
12.43015117277703
 31
0.0
  0
LINE
  5
D4F
  8
0
 10
65.284667095615859
 20
16.015604172777032
 30
0.0
 11
65.284667336115859
 21
15.70310417277703
 31
0.0
  0
LINE
  5
D50
  8
0
 10
65.372167336115851
 20
15.65510417277703
 30
0.0
 11
65.372167336115851
 21
12.45510417277703
 31
0.0
  0
LINE
  5
D51
  8
0
 10
65.372667334689751
 20
19.309875810765071
 30
0.0
 11
65.372667336115853
 21
16.945604172777031
 31
0.0
  0
LINE
  5
D52
  8
0
 10
65.372667336115853
 20
16.030604172777029
 30
0.0
 11
65.372667336115853
 21
15.09036888077703
 31
0.0
  0
LINE
  5
D53
  8
0
 10
65.372667336115853
 20
14.967501458877029
 30
0.0
 11
65.372667336115853
 21
15.09036888077703
 31
0.0
  0
LINE
  5
D54
  8
0
 10
65.435167336115853
 20
14.006830112177029
 30
0.0
 11
65.435167336115853
 21
14.92183011217703
 31
0.0
  0
LINE
  5
D55
  8
0
 10
65.435167336115853
 20
16.030604172777029
 30
0.0
 11
65.435167336115853
 21
16.945604172777031
 31
0.0
  0
LINE
  5
D56
  8
0
 10
65.435167336115853
 20
19.309875802577029
 30
0.0
 11
65.435167336115853
 21
20.224875802577031
 31
0.0
  0
LINE
  5
D57
  8
0
 10
65.372667336115853
 20
14.967501458877029
 30
0.0
 11
65.372665945915855
 21
14.80914200867703
 31
0.0
  0
LINE
  5
D58
  8
0
 10
65.537667336115859
 20
13.281330112177031
 30
0.0
 11
65.469985850515855
 21
13.32040603607703
 31
0.0
  0
LINE
  5
D59
  8
0
 10
65.469985850515855
 20
17.11112987767704
 30
0.0
 11
65.469985850515855
 21
16.973963543177032
 31
0.0
  0
LINE
  5
D5A
  8
0
 10
65.469985850515855
 20
13.32040603607703
 30
0.0
 11
65.469985850515855
 21
13.57225418827703
 31
0.0
  0
LINE
  5
D5B
  8
0
 10
65.537667340811865
 20
19.520980426424629
 30
0.0
 11
65.537667336115859
 21
17.22609777995633
 31
0.0
  0
LINE
  5
D5C
  8
0
 10
65.537667336115859
 20
14.01183011217703
 30
0.0
 11
65.537667336115859
 21
13.611330112177029
 31
0.0
  0
LINE
  5
D5D
  8
0
 10
65.537667336115859
 20
11.829330112177029
 30
0.0
 11
65.537667336115859
 21
13.006330112177031
 31
0.0
  0
LINE
  5
D5E
  8
0
 10
65.545167336115853
 20
13.006330112177031
 30
0.0
 11
65.545167336115853
 21
13.281330112177031
 31
0.0
  0
LINE
  5
D5F
  8
0
 10
65.72257659331585
 20
17.478048251177029
 30
0.0
 11
65.72257659331585
 21
17.340881916577029
 31
0.0
  0
LINE
  5
D60
  8
0
 10
65.72257659331585
 20
13.32040603607703
 30
0.0
 11
65.72257659331585
 21
13.57225418827703
 31
0.0
  0
LINE
  5
D61
  8
0
 10
64.583667336115852
 20
12.43015117277703
 30
0.0
 11
65.110667190215835
 21
12.43015117277703
 31
0.0
  0
LINE
  5
D62
  8
0
 10
64.569888062015849
 20
12.430651172777029
 30
0.0
 11
64.590998535915858
 21
12.430651172777029
 31
0.0
  0
LINE
  5
D63
  8
0
 10
64.662619588415851
 20
12.430651172777029
 30
0.0
 11
64.689220337215858
 21
12.430651172777029
 31
0.0
  0
LINE
  5
D64
  8
0
 10
64.773415924215854
 20
12.43065118367703
 30
0.0
 11
64.802167336115858
 21
12.430651172777029
 31
0.0
  0
LINE
  5
D65
  8
0
 10
64.892167336115861
 20
12.430651172777029
 30
0.0
 11
64.920918738115859
 21
12.430651172777029
 31
0.0
  0
LINE
  5
D66
  8
0
 10
65.005114334915859
 20
12.430651172777029
 30
0.0
 11
65.031715083815854
 21
12.430651172777029
 31
0.0
  0
LINE
  5
D67
  8
0
 10
65.10333613631586
 20
12.430651172777029
 30
0.0
 11
65.124446610115854
 21
12.430651172777029
 31
0.0
  0
LINE
  5
D68
  8
0
 10
65.176482350615856
 20
12.430651172777029
 30
0.0
 11
65.190036109115852
 21
12.430651172777029
 31
0.0
  0
LINE
  5
D69
  8
0
 10
64.322167336115854
 20
12.45510417277703
 30
0.0
 11
65.372167336115851
 21
12.45510417277703
 31
0.0
  0
LINE
  5
D6A
  8
0
 10
66.412667336115859
 20
13.611330112177029
 30
0.0
 11
66.480348821615848
 21
13.57225418827703
 31
0.0
  0
LINE
  5
D6B
  8
0
 10
66.227758078815853
 20
17.478048251177029
 30
0.0
 11
66.227758078815853
 21
17.340881916577029
 31
0.0
  0
LINE
  5
D6C
  8
0
 10
66.227758078815853
 20
13.32040603607703
 30
0.0
 11
66.227758078815853
 21
13.57225418827703
 31
0.0
  0
LINE
  5
D6D
  8
0
 10
66.412667336115859
 20
13.006330112177031
 30
0.0
 11
65.537667336115859
 21
13.006330112177031
 31
0.0
  0
LINE
  5
D6E
  8
0
 10
66.42766733611586
 20
14.026830112177031
 30
0.0
 11
65.975167345015862
 21
14.46433012137703
 31
0.0
  0
LINE
  5
D6F
  8
0
 10
66.405167336115852
 20
13.006330112177031
 30
0.0
 11
66.405167336115852
 21
13.281330112177031
 31
0.0
  0
LINE
  5
D70
  8
0
 10
66.412667022215857
 20
19.520927111477029
 30
0.0
 11
66.412667332529722
 21
17.227405741338242
 31
0.0
  0
LINE
  5
D71
  8
0
 10
66.412667336115859
 20
14.01183011217703
 30
0.0
 11
66.412667336115859
 21
13.611330112177029
 31
0.0
  0
LINE
  5
D72
  8
0
 10
66.412667336115859
 20
11.829330112177029
 30
0.0
 11
66.412667336115859
 21
13.006330112177031
 31
0.0
  0
LINE
  5
D73
  8
0
 10
66.475167336115859
 20
14.026830112177031
 30
0.0
 11
66.475167336115859
 21
14.901830112177031
 31
0.0
  0
LINE
  5
D74
  8
0
 10
66.475167336115859
 20
16.050604172777032
 30
0.0
 11
66.475167336115859
 21
16.925604172777032
 31
0.0
  0
LINE
  5
D75
  8
0
 10
66.475167336115859
 20
19.329875802577028
 30
0.0
 11
66.475167336115859
 21
20.204875802577039
 31
0.0
  0
LINE
  5
D76
  8
0
 10
66.480348821615848
 20
17.11112987767704
 30
0.0
 11
66.480348821615848
 21
16.973963543177032
 31
0.0
  0
LINE
  5
D77
  8
0
 10
66.480348821615848
 20
13.32040603607703
 30
0.0
 11
66.480348821615848
 21
13.57225418827703
 31
0.0
  0
LINE
  5
D78
  8
0
 10
64.409667336115859
 20
15.70310417277703
 30
0.0
 11
64.322167336115854
 21
15.65510417277703
 31
0.0
  0
LINE
  5
D79
  8
0
 10
65.537667336115859
 20
13.281330112177031
 30
0.0
 11
66.412667336115859
 21
13.281330112177031
 31
0.0
  0
LINE
  5
D7A
  8
0
 10
65.537667336115859
 20
13.611330112177029
 30
0.0
 11
66.412667336115859
 21
13.611330112177029
 31
0.0
  0
LINE
  5
D7B
  8
0
 10
65.435167336115853
 20
14.006830112177029
 30
0.0
 11
65.372167336115851
 21
14.006830112177029
 31
0.0
  0
LINE
  5
D7C
  8
0
 10
65.284667336115859
 20
15.70310417277703
 30
0.0
 11
65.372167336115851
 21
15.65510417277703
 31
0.0
  0
LINE
  5
D7D
  8
0
 10
65.435167336115853
 20
14.026830112177031
 30
0.0
 11
65.522667336115859
 21
14.026830112177031
 31
0.0
  0
LINE
  5
D7E
  8
0
 10
66.42766733611586
 20
14.026830112177031
 30
0.0
 11
66.475167336115859
 21
14.026830112177031
 31
0.0
  0
LINE
  5
D7F
  8
0
 10
65.975167345015862
 20
14.46433012137703
 30
0.0
 11
65.522667336115859
 21
14.02683011217702
 31
0.0
  0
LINE
  5
D80
  8
0
 10
65.435167336115853
 20
14.901830112177031
 30
0.0
 11
66.475167336115859
 21
14.901830112177031
 31
0.0
  0
LINE
  5
D81
  8
0
 10
65.435167336115853
 20
14.92183011217703
 30
0.0
 11
65.372666935177932
 21
14.92183011059325
 31
0.0
  0
LINE
  5
D82
  8
0
 10
65.372167336115851
 20
15.65510417277703
 30
0.0
 11
64.322167336115854
 21
15.65510417277703
 31
0.0
  0
LINE
  5
D83
  8
0
 10
64.409667336115859
 20
15.70310417277703
 30
0.0
 11
65.284667336115859
 21
15.70310417277703
 31
0.0
  0
LINE
  5
D84
  8
0
 10
65.537667336115859
 20
13.611330112177029
 30
0.0
 11
65.469985850515855
 21
13.57225418827703
 31
0.0
  0
LINE
  5
D85
  8
0
 10
65.435167336115853
 20
16.030604172777029
 30
0.0
 11
65.29966733611586
 21
16.030604172777029
 31
0.0
  0
LINE
  5
D86
  8
0
 10
64.394667336115859
 20
16.030604172777029
 30
0.0
 11
64.347167336115859
 21
16.030604172777029
 31
0.0
  0
LINE
  5
D87
  8
0
 10
65.435167336115853
 20
16.050604172777032
 30
0.0
 11
66.475167336115859
 21
16.050604172777032
 31
0.0
  0
LINE
  5
D88
  8
0
 10
66.412667336115859
 20
13.281330112177031
 30
0.0
 11
66.480348821615848
 21
13.32040603607703
 31
0.0
  0
LINE
  5
D89
  8
0
 10
65.435167336115853
 20
16.925604172777032
 30
0.0
 11
65.72867872001585
 21
16.92560417047704
 31
0.0
  0
LINE
  5
D8A
  8
0
 10
66.221616686015835
 20
16.925604172777032
 30
0.0
 11
66.475167336115859
 21
16.925604172777032
 31
0.0
  0
LINE
  5
D8B
  8
0
 10
65.435167336115853
 20
16.945604172777031
 30
0.0
 11
64.347167336115859
 21
16.945604172777031
 31
0.0
  0
LINE
  5
D8C
  8
0
 10
64.617496143615853
 20
19.309875802577029
 30
0.0
 11
64.435167336115853
 21
19.309875802577029
 31
0.0
  0
LINE
  5
D8D
  8
0
 10
65.435167336115853
 20
19.32987580236729
 30
0.0
 11
65.537667340420811
 21
19.32987580236729
 31
0.0
  0
LINE
  5
D8E
  8
0
 10
66.412667048065146
 20
19.329875802715879
 30
0.0
 11
66.475167336115859
 21
19.329875802577028
 31
0.0
  0
LINE
  5
D8F
  8
0
 10
65.435167336115853
 20
19.309875802577029
 30
0.0
 11
65.252736725215854
 21
19.309875826477029
 31
0.0
  0
LINE
  5
D90
  8
0
 10
65.435167336115853
 20
20.204875802577039
 30
0.0
 11
66.475167336115859
 21
20.204875802577039
 31
0.0
  0
LINE
  5
D91
  8
0
 10
65.435167336115853
 20
20.224875802577031
 30
0.0
 11
64.435167336115853
 21
20.224875802577031
 31
0.0
  0
ARC
  5
D92
  8
0
 10
65.975167336115859
 20
12.41833011217703
 30
0.0
 40
0.4555
 50
163.83892163481229
 51
196.16107836518771
  0
ARC
  5
D93
  8
0
 10
65.975167336115859
 20
12.41833011217703
 30
0.0
 40
0.4555
 50
343.83892163481232
 51
16.16107836518767
  0
ARC
  5
D94
  8
0
 10
65.171330019656864
 20
14.80974579510897
 30
0.0
 40
0.2013368316047054
 50
355.96317263940449
 51
359.82817616699998
  0
ARC
  5
D95
  8
0
 10
62.938838806547501
 20
18.977544564100899
 30
0.0
 40
4.0689839143479363
 50
329.7158900920968
 51
330.50133511202012
  0
CIRCLE
  5
D96
  8
0
 10
71.975167336115845
 20
12.41833011217703
 30
0.0
 40
1.3075000000000001
  0
CIRCLE
  5
D97
  8
0
 10
71.975167336115845
 20
12.41833011217703
 30
0.0
 40
0.265
  0
ARC
  5
D98
  8
0
 10
68.88299054529837
 20
18.903676803809841
 30
0.0
 40
3.9207645064646619
 50
209.4838230242899
 51
210.2989613122663
  0
ARC
  5
D99
  8
0
 10
65.975167336065851
 20
12.775406036283091
 30
0.0
 40
0.8359240758939526
 50
72.412046222917851
 51
107.58795377708169
  0
ARC
  5
D9A
  8
0
 10
65.975167336065851
 20
14.117254188071181
 30
0.0
 40
0.8359240758941526
 50
252.4120462229225
 51
287.5879537770769
  0
ARC
  5
D9B
  8
0
 10
66.361472208231575
 20
13.52894240553027
 30
0.0
 40
0.2477234058181478
 50
237.33188866192469
 51
268.28386387072811
  0
ARC
  5
D9C
  8
0
 10
66.329704700729991
 20
13.58366099813467
 30
0.0
 40
0.3033097858715523
 50
274.60447836395451
 51
299.77976910339169
  0
ARC
  5
D9D
  8
0
 10
66.361472208231575
 20
13.363717818823799
 30
0.0
 40
0.2477234058181478
 50
91.716136129271916
 51
122.66811133807531
  0
ARC
  5
D9E
  8
0
 10
66.329704700729991
 20
13.30899922621939
 30
0.0
 40
0.3033097858715523
 50
60.220230896608228
 51
85.395521636045515
  0
ARC
  5
D9F
  8
0
 10
65.642959407158926
 20
13.65583086900787
 30
0.0
 40
0.3773985556999864
 50
242.72052073700169
 51
262.89523179565441
  0
ARC
  5
DA0
  8
0
 10
65.571932472429978
 20
13.58366099813467
 30
0.0
 40
0.3033097858715523
 50
274.60447836395451
 51
299.77976910339169
  0
ARC
  5
DA1
  8
0
 10
65.618142281141743
 20
13.317039567533349
 30
0.0
 40
0.2951013903341445
 50
94.248353053480798
 51
120.1358944138686
  0
ARC
  5
DA2
  8
0
 10
65.571932472429978
 20
13.30899922621939
 30
0.0
 40
0.3033097858715523
 50
60.220230896608228
 51
85.395521636045515
  0
ARC
  5
DA3
  8
0
 10
65.522667596003416
 20
14.01183037206459
 30
0.0
 40
0.014999740114681
 50
359.99900728546288
 51
90.000992714597359
  0
ARC
  5
DA4
  8
0
 10
66.427666952856157
 20
14.01183049543673
 30
0.0
 40
0.0149996167451957
 50
89.998536018365144
 51
180.00146398162559
  0
ARC
  5
DA5
  8
0
 10
65.083544690038963
 20
12.627505534143131
 30
0.0
 40
0.2010587144463743
 50
281.73776701886732
 51
300.9665612387206
  0
ARC
  5
DA6
  8
0
 10
65.179681735883264
 20
12.51846435307209
 30
0.0
 40
0.0878714441648803
 50
248.33209518461621
 51
267.91340860856809
  0
ARC
  5
DA7
  8
0
 10
65.176011317808189
 20
12.463297614927029
 30
0.0
 40
0.0326498400755483
 50
270.82662359460892
 51
318.9268665692253
  0
ARC
  5
DA8
  8
0
 10
65.192019131600006
 20
12.447124407950181
 30
0.0
 40
0.0100957809709494
 50
328.47723813105358
 51
52.223459506250848
  0
ARC
  5
DA9
  8
0
 10
65.176525677892272
 20
12.550449187860959
 30
0.0
 40
0.1205574392971928
 50
276.43444487958391
 51
307.73330293758409
  0
ARC
  5
DAA
  8
0
 10
65.220905821319874
 20
12.500808734303391
 30
0.0
 40
0.0701670918653358
 50
268.96767710036141
 51
319.35521677934031
  0
ARC
  5
DAB
  8
0
 10
65.215631065811621
 20
12.476193748064651
 30
0.0
 40
0.0457169743764454
 50
252.50960211752931
 51
332.52850079872218
  0
ARC
  5
DAC
  8
0
 10
64.610967552246322
 20
12.62798437862015
 30
0.0
 40
0.2015636838468632
 50
239.0587776676644
 51
258.24050318313567
  0
ARC
  5
DAD
  8
0
 10
64.511025337509466
 20
12.53291727471577
 30
0.0
 40
0.1026788045773833
 50
229.2732872139371
 51
290.58795455129382
  0
ARC
  5
DAE
  8
0
 10
64.518218801105448
 20
12.460483781364839
 30
0.0
 40
0.0298923233714592
 50
210.87114083727931
 51
276.6875628256692
  0
ARC
  5
DAF
  8
0
 10
64.501261639595867
 20
12.44764621134755
 30
0.0
 40
0.0090523120780482
 50
124.5255372798006
 51
196.03486447165449
  0
ARC
  5
DB0
  8
0
 10
64.4776194100602
 20
12.48584660210202
 30
0.0
 40
0.0553194416046091
 50
239.8750947293851
 51
284.09354095219823
  0
ARC
  5
DB1
  8
0
 10
64.460597525659139
 20
12.45791867042259
 30
0.0
 40
0.0226316028981978
 50
187.14387849619729
 51
241.6630902463522
  0
ARC
  5
DB2
  8
0
 10
64.472943819530201
 20
12.50015602808649
 30
0.0
 40
0.0693741475981919
 50
220.4966879975689
 51
269.45539218502449
  0
ARC
  5
DB3
  8
0
 10
64.817693164233674
 20
12.88575404184523
 30
0.0
 40
0.4807977073063454
 50
243.59831380052211
 51
251.18376413484719
  0
ARC
  5
DB4
  8
0
 10
64.59082436338656
 20
12.44524685024523
 30
0.0
 40
0.0145967166453881
 50
199.27144582246291
 51
270.6836871539486
  0
ARC
  5
DB5
  8
0
 10
64.594126270445059
 20
12.43891122261833
 30
0.0
 40
0.0171480321642516
 50
109.2126573609271
 51
174.9211110348881
  0
ARC
  5
DB6
  8
0
 10
64.569063157371801
 20
12.59569980304637
 30
0.0
 40
0.1664998834403678
 50
277.57038925683509
 51
292.5282760883178
  0
ARC
  5
DB7
  8
0
 10
64.714377108858045
 20
12.423798880406711
 30
0.0
 40
0.0323664433643499
 50
104.71202581871709
 51
160.7806003808584
  0
ARC
  5
DB8
  8
0
 10
64.689951107773041
 20
12.437433917525119
 30
0.0
 40
0.0068219976491499
 50
205.90545230524739
 51
263.85069283745429
  0
ARC
  5
DB9
  8
0
 10
64.763793167129833
 20
12.235174576297201
 30
0.0
 40
0.2092180841436034
 50
94.033535944462329
 51
110.8814712442322
  0
ARC
  5
DBA
  8
0
 10
64.580233551079317
 20
12.10408376482904
 30
0.0
 40
0.3794281333055112
 50
59.393378976480811
 51
67.687989506790956
  0
ARC
  5
DBB
  8
0
 10
64.856731117408813
 20
12.38945843292657
 30
0.0
 40
0.0683670099197949
 50
106.2200182314763
 51
142.94914514724189
  0
ARC
  5
DBC
  8
0
 10
64.83762587244675
 20
12.38948920421887
 30
0.0
 40
0.0683306586734792
 50
37.041537603838087
 51
73.79239330347923
  0
ARC
  5
DBD
  8
0
 10
64.864294882149622
 20
12.31089307853132
 30
0.0
 40
0.1349141694320606
 50
97.293462099356987
 51
117.41917105371211
  0
ARC
  5
DBE
  8
0
 10
64.831979750841938
 20
12.31710008082662
 30
0.0
 40
0.1285161309106168
 50
62.074241151814292
 51
83.21312569511629
  0
ARC
  5
DBF
  8
0
 10
65.096320088638166
 20
12.13981340514262
 30
0.0
 40
0.3396354528720845
 50
111.82539576677171
 51
121.093758645931
  0
ARC
  5
DC0
  8
0
 10
64.925406035125206
 20
12.220691914559341
 30
0.0
 40
0.2245802822307348
 50
69.211385959051171
 51
84.758858441072903
  0
ARC
  5
DC1
  8
0
 10
64.977019687677327
 20
12.41852130595972
 30
0.0
 40
0.0382463130164166
 50
37.316740283125498
 51
73.039682054187153
  0
ARC
  5
DC2
  8
0
 10
65.00299808398816
 20
12.43686760177928
 30
0.0
 40
0.0065667729921342
 50
288.80004852168418
 51
47.472645450272537
  0
ARC
  5
DC3
  8
0
 10
64.861062770149942
 20
12.923097370040431
 30
0.0
 40
0.5211770038659744
 50
289.11324810397173
 51
296.10952511498277
  0
ARC
  5
DC4
  8
0
 10
65.104090997820336
 20
12.44292938899998
 30
0.0
 40
0.0123013986809753
 50
266.4818986082725
 51
81.772346202990576
  0
ARC
  5
DC5
  8
0
 10
65.120455838549745
 20
12.57443287164539
 30
0.0
 40
0.1447973105207774
 50
246.06226234232281
 51
263.20991215164099
  0
ARC
  5
DC6
  8
0
 10
64.39466802713342
 20
16.015604593585628
 30
0.0
 40
0.0149995792073243
 50
0.3439231595960692
 51
90.002639566736562
  0
ARC
  5
DC7
  8
0
 10
65.299666734534625
 20
16.015604533865979
 30
0.0
 40
0.0149996389231157
 50
89.997702073649165
 51
180.00137929138569
  0
ARC
  5
DC8
  8
0
 10
67.060565818398814
 20
13.43436179414911
 30
0.0
 40
3.700073238419995
 50
129.52669112634851
 51
135.7617367994562
  0
ARC
  5
DC9
  8
0
 10
62.43867066292043
 20
13.225709983774211
 30
0.0
 40
3.985373919815645
 50
44.429670333729142
 51
50.16889490256731
  0
ARC
  5
DCA
  8
0
 10
64.847630564831618
 20
16.16221410869046
 30
0.0
 40
0.1898687371091469
 50
40.777461923913847
 51
138.37593447670631
  0
ARC
  5
DCB
  8
0
 10
64.891222157685334
 20
19.246433305551509
 30
0.0
 40
0.4073458283306986
 50
194.9515747890762
 51
278.04510137646128
  0
ARC
  5
DCC
  8
0
 10
64.991895873905221
 20
19.232090764173599
 30
0.0
 40
0.3914372810170174
 50
263.59535632604229
 51
346.59413750177742
  0
ARC
  5
DCD
  8
0
 10
64.895139500191306
 20
19.376995537390471
 30
0.0
 40
0.413165764898055
 50
195.8424053221141
 51
275.64076746348297
  0
ARC
  5
DCE
  8
0
 10
64.990561156164873
 20
19.354701162664689
 30
0.0
 40
0.392714533815922
 50
261.97703375927608
 51
346.65232332851127
  0
ARC
  5
DCF
  8
0
 10
65.708281505010518
 20
16.38868137369753
 30
0.0
 40
0.5373100930389252
 50
60.217605911082153
 51
87.824430946818552
  0
ARC
  5
DD0
  8
0
 10
66.246439582183541
 20
16.373376805429452
 30
0.0
 40
0.5527849866103395
 50
92.573741403262247
 51
119.3890567066278
  0
ARC
  5
DD1
  8
0
 10
67.405518223980451
 20
16.049089925494592
 30
0.0
 40
2.2077623125602028
 50
139.66595586156171
 51
151.24611996799621
  0
ARC
  5
DD2
  8
0
 10
65.975167336065851
 20
15.989740431111141
 30
0.0
 40
1.5095900935658899
 50
80.36772948451501
 51
99.632270515484976
  0
ARC
  5
DD3
  8
0
 10
64.669397007337054
 20
16.13485258622757
 30
0.0
 40
2.057343875835929
 50
28.328939519436869
 51
40.758984651004972
  0
ARC
  5
DD4
  8
0
 10
65.975167336065851
 20
18.82918973619805
 30
0.0
 40
1.5095900931272921
 50
260.36772948169022
 51
279.63227051831018
  0
ARC
  5
DD5
  8
0
 10
63.918194154836733
 20
18.31263677583221
 30
0.0
 40
2.0494154022008111
 50
319.21687628881352
 51
331.69519953538099
  0
ARC
  5
DD6
  8
0
 10
68.032326392092216
 20
18.312764734371189
 30
0.0
 40
2.049639726587237
 50
208.3054860313203
 51
220.782438153708
  0
ARC
  5
DD7
  8
0
 10
65.868042051960799
 20
16.92694954795104
 30
0.0
 40
0.3303774551993257
 50
138.36330237129599
 51
180.23332261681429
  0
ARC
  5
DD8
  8
0
 10
65.964568310678629
 20
16.832863354726818
 30
0.0
 40
0.4650710141485028
 50
88.694102688492777
 51
137.6013107310429
  0
ARC
  5
DD9
  8
0
 10
65.983980280059853
 20
16.828957467461581
 30
0.0
 40
0.4689389268002408
 50
42.25631613705584
 51
91.076837957458608
  0
ARC
  5
DDA
  8
0
 10
66.08203464518877
 20
16.92679878296023
 30
0.0
 40
0.3306348490452479
 50
359.79298531059578
 51
41.133295712543671
  0
ARC
  5
DDB
  8
0
 10
65.880664224013813
 20
17.271468633148089
 30
0.0
 40
0.3372649759521284
 50
140.52348615728519
 51
185.73132147422101
  0
ARC
  5
DDC
  8
0
 10
65.965688847994585
 20
17.184465999776961
 30
0.0
 40
0.4583944286431415
 50
89.143248801939336
 51
138.88578440036761
  0
ARC
  5
DDD
  8
0
 10
65.983179026070431
 20
17.179984138173289
 30
0.0
 40
0.4629472383903054
 50
43.200993897722199
 51
91.316460316645419
  0
ARC
  5
DDE
  8
0
 10
66.070912312668341
 20
17.272283285957851
 30
0.0
 40
0.3358868655173355
 50
354.36001921432671
 51
41.968725330471543
  0
ARC
  5
DDF
  8
0
 10
65.952742760221597
 20
17.321881136835788
 30
0.0
 40
0.419620482100552
 50
86.195757987797876
 51
171.5594298017061
  0
ARC
  5
DE0
  8
0
 10
66.003239893798906
 20
17.326298587022428
 30
0.0
 40
0.4148974779965859
 50
9.3141134009086866
 51
93.130299631390514
  0
ARC
  5
DE1
  8
0
 10
64.510995363863969
 20
20.379252871771389
 30
0.0
 40
1.0746672658113621
 50
275.68741401523812
 51
288.87868809186421
  0
ARC
  5
DE2
  8
0
 10
65.329140548790136
 20
20.209559677001891
 30
0.0
 40
0.902922242029734
 50
250.5328213532764
 51
265.1459190124433
  0
ARC
  5
DE3
  8
0
 10
64.936163908433599
 20
19.06113740012951
 30
0.0
 40
0.3110538665803847
 50
72.784287655986205
 51
104.4166134708024
  0
ARC
  5
DE4
  8
0
 10
66.37804750342967
 20
19.384204898716359
 30
0.0
 40
0.8514378208074845
 50
118.2406547653671
 51
170.75591603044481
  0
ARC
  5
DE5
  8
0
 10
65.571568687413716
 20
19.383705048539529
 30
0.0
 40
0.8522184598820635
 50
9.2659589205782513
 51
61.732663555171719
  0
ARC
  5
DE6
  8
0
 10
65.946856673555459
 20
19.349050957772839
 30
0.0
 40
0.4115070114529696
 50
86.052711794039951
 51
173.91613389370701
  0
ARC
  5
DE7
  8
0
 10
66.000739401323884
 20
19.344519657006469
 30
0.0
 40
0.4158480993642366
 50
7.8737332963886919
 51
93.523218918885235
  0
ARC
  5
DE8
  8
0
 10
65.948567728569756
 20
19.25411670799614
 30
0.0
 40
0.4148259736229805
 50
86.309901740702244
 51
172.1113996006514
  0
ARC
  5
DE9
  8
0
 10
65.999039380674233
 20
19.252251992986562
 30
0.0
 40
0.4165096781913382
 50
6.7440895987235461
 51
93.272103461380908
  0
ARC
  5
DEA
  8
0
 10
65.975167336115859
 20
12.41833011217703
 30
0.0
 40
1.3075000000000001
 50
109.5487042565733
 51
117.4636301043859
  0
ARC
  5
DEB
  8
0
 10
65.975167336115859
 20
12.41833011217703
 30
0.0
 40
1.3075000000000001
 50
179.48198385543421
 51
70.451295743426712
  0
ENDSEC
  0
EOF
