  0
SECTION
  2
HEADER
  9
$ACADVER
  1
AC1009
  9
$INSBASE
 10
0.0
 20
0.0
 30
0.0
  9
$EXTMIN
 10
-0.2589611205882888
 20
-21.25183275461497
 30
0.0
  9
$EXTMAX
 10
32.25880583237796
 20
0.2659341983513954
 30
8.689999999999999
  9
$LIMMIN
 10
0.0
 20
0.0
  9
$LIMMAX
 10
12.0
 20
9.0
  9
$ORTHOMODE
 70
     1
  9
$REGENMODE
 70
     1
  9
$FILLMODE
 70
     1
  9
$QTEXTMODE
 70
     0
  9
$MIRRTEXT
 70
     1
  9
$DRAGMODE
 70
     2
  9
$LTSCALE
 40
1.0
  9
$OSMODE
 70
     0
  9
$ATTMODE
 70
     1
  9
$TEXTSIZE
 40
0.2
  9
$TRACEWID
 40
0.05
  9
$TEXTSTYLE
  7
STANDARD
  9
$CLAYER
  8
0
  9
$CELTYPE
  6
BYLAYER
  9
$CECOLOR
 62
   256
  9
$DIMSCALE
 40
1.0
  9
$DIMASZ
 40
0.18
  9
$DIMEXO
 40
0.0625
  9
$DIMDLI
 40
0.38
  9
$DIMRND
 40
0.0
  9
$DIMDLE
 40
0.0
  9
$DIMEXE
 40
0.18
  9
$DIMTP
 40
0.0
  9
$DIMTM
 40
0.0
  9
$DIMTXT
 40
0.18
  9
$DIMCEN
 40
0.09
  9
$DIMTSZ
 40
0.0
  9
$DIMTOL
 70
     0
  9
$DIMLIM
 70
     0
  9
$DIMTIH
 70
     1
  9
$DIMTOH
 70
     1
  9
$DIMSE1
 70
     0
  9
$DIMSE2
 70
     0
  9
$DIMTAD
 70
     0
  9
$DIMZIN
 70
     0
  9
$DIMBLK
  1

  9
$DIMASO
 70
     1
  9
$DIMSHO
 70
     1
  9
$DIMPOST
  1

  9
$DIMAPOST
  1

  9
$DIMALT
 70
     0
  9
$DIMALTD
 70
     2
  9
$DIMALTF
 40
25.4
  9
$DIMLFAC
 40
1.0
  9
$DIMTOFL
 70
     0
  9
$DIMTVP
 40
0.0
  9
$DIMTIX
 70
     0
  9
$DIMSOXD
 70
     0
  9
$DIMSAH
 70
     0
  9
$DIMBLK1
  1

  9
$DIMBLK2
  1

  9
$DIMSTYLE
  2
*UNNAMED
  9
$DIMCLRD
 70
     0
  9
$DIMCLRE
 70
     0
  9
$DIMCLRT
 70
     0
  9
$DIMTFAC
 40
1.0
  9
$DIMGAP
 40
0.09
  9
$LUNITS
 70
     2
  9
$LUPREC
 70
     4
  9
$SKETCHINC
 40
0.1
  9
$FILLETRAD
 40
0.0
  9
$AUNITS
 70
     0
  9
$AUPREC
 70
     0
  9
$MENU
  1
acad
  9
$ELEVATION
 40
0.0
  9
$PELEVATION
 40
0.0
  9
$THICKNESS
 40
0.0
  9
$LIMCHECK
 70
     0
  9
$BLIPMODE
 70
     0
  9
$CHAMFERA
 40
0.0
  9
$CHAMFERB
 40
0.0
  9
$SKPOLY
 70
     0
  9
$TDCREATE
 40
2449707.692928935
  9
$TDUPDATE
 40
2449757.611951967
  9
$TDINDWG
 40
0.0001621528
  9
$TDUSRTIMER
 40
0.0001621528
  9
$USRTIMER
 70
     1
  9
$ANGBASE
 50
0.0
  9
$ANGDIR
 70
     0
  9
$PDMODE
 70
     3
  9
$PDSIZE
 40
0.0
  9
$PLINEWID
 40
0.0
  9
$COORDS
 70
     1
  9
$SPLFRAME
 70
     0
  9
$SPLINETYPE
 70
     6
  9
$SPLINESEGS
 70
     8
  9
$ATTDIA
 70
     0
  9
$ATTREQ
 70
     1
  9
$HANDLING
 70
     1
  9
$HANDSEED
  5
3EC5
  9
$SURFTAB1
 70
     6
  9
$SURFTAB2
 70
     4
  9
$SURFTYPE
 70
     6
  9
$SURFU
 70
     6
  9
$SURFV
 70
     6
  9
$UCSNAME
  2

  9
$UCSORG
 10
0.0
 20
0.0
 30
0.0
  9
$UCSXDIR
 10
1.0
 20
0.0
 30
0.0
  9
$UCSYDIR
 10
0.0
 20
1.0
 30
0.0
  9
$PUCSNAME
  2

  9
$PUCSORG
 10
0.0
 20
0.0
 30
0.0
  9
$PUCSXDIR
 10
1.0
 20
0.0
 30
0.0
  9
$PUCSYDIR
 10
0.0
 20
1.0
 30
0.0
  9
$USERI1
 70
     0
  9
$USERI2
 70
     0
  9
$USERI3
 70
     0
  9
$USERI4
 70
     0
  9
$USERI5
 70
     0
  9
$USERR1
 40
0.0
  9
$USERR2
 40
0.0
  9
$USERR3
 40
0.0
  9
$USERR4
 40
0.0
  9
$USERR5
 40
0.0
  9
$WORLDVIEW
 70
     1
  9
$SHADEDGE
 70
     3
  9
$SHADEDIF
 70
    70
  9
$TILEMODE
 70
     1
  9
$MAXACTVP
 70
    16
  9
$PINSBASE
 10
0.0
 20
0.0
 30
2.138549813206619
  9
$PLIMCHECK
 70
     0
  9
$PEXTMIN
 10
1.000000000000000E+20
 20
1.000000000000000E+20
 30
1.000000000000000E+20
  9
$PEXTMAX
 10
-1.000000000000000E+20
 20
-1.000000000000000E+20
 30
-1.000000000000000E+20
  9
$PLIMMIN
 10
0.0
 20
0.0
  9
$PLIMMAX
 10
12.0
 20
9.0
  9
$UNITMODE
 70
     0
  9
$VISRETAIN
 70
     0
  9
$PLINEGEN
 70
     0
  9
$PSLTSCALE
 70
     1
  9
$TREEDEPTH
 70
  3020
  9
$DWGCODEPAGE
  3
ascii
  0
ENDSEC
  0
SECTION
  2
TABLES
  0
TABLE
  2
VPORT
 70
     1
  0
VPORT
  2
*ACTIVE
 70
     0
 10
0.0
 20
0.0
 11
1.0
 21
1.0
 12
23.11754312469525
 22
-0.0361690402856176
 13
0.0
 23
0.0
 14
1.0
 24
1.0
 15
0.0
 25
0.0
 16
-0.241844762647975
 26
-0.6644630243886748
 36
0.7071067811865475
 17
0.0
 27
0.0
 37
0.0
 40
27.83514649939345
 41
1.661211129296235
 42
50.0
 43
0.0
 44
0.0
 50
0.0
 51
0.0
 71
     0
 72
   100
 73
     1
 74
     0
 75
     0
 76
     0
 77
     0
 78
     0
  0
ENDTAB
  0
TABLE
  2
LTYPE
 70
     1
  0
LTYPE
  2
CONTINUOUS
 70
    64
  3
Solid line
 72
    65
 73
     0
 40
0.0
  0
ENDTAB
  0
TABLE
  2
LAYER
 70
     5
  0
LAYER
  2
0
 70
    64
 62
     7
  6
CONTINUOUS
  0
LAYER
  2
RK-SINKB
 70
    64
 62
     7
  6
CONTINUOUS
  0
LAYER
  2
RK-DRAIN
 70
    64
 62
     7
  6
CONTINUOUS
  0
LAYER
  2
CNTRCUTR
 70
    64
 62
     7
  6
CONTINUOUS
  0
LAYER
  2
FK-FOOTP
 70
    64
 62
     7
  6
CONTINUOUS
  0
ENDTAB
  0
TABLE
  2
STYLE
 70
     1
  0
STYLE
  2
STANDARD
 70
     0
 40
0.0
 41
1.0
 50
0.0
 71
     0
 42
0.2
  3
txt
  4

  0
ENDTAB
  0
TABLE
  2
VIEW
 70
     0
  0
ENDTAB
  0
TABLE
  2
UCS
 70
     0
  0
ENDTAB
  0
TABLE
  2
APPID
 70
     3
  0
APPID
  2
ACAD
 70
    64
  0
APPID
  2
CDKT-SIZ
 70
    64
  0
APPID
  2
CDKT-STR2
 70
    64
  0
ENDTAB
  0
TABLE
  2
DIMSTYLE
 70
     0
  0
ENDTAB
  0
ENDSEC
  0
SECTION
  2
BLOCKS
  0
BLOCK
  8
0
  5
175E
  2
05949PLN
 70
    64
 10
0.0
 20
0.0
 30
0.0
  3
05949PLN
  0
ARC
  8
FK-FOOTP
  5
175F
 10
5.750000000000007
 20
19.25
 30
0.0
 40
0.5
 50
0.0
 51
90.0
  0
ARC
  8
FK-FOOTP
  5
1760
 10
1.754119133503088
 20
17.62
 30
0.0
 40
0.5
 50
176.0680610763842
 51
270.0
  0
ARC
  8
FK-FOOTP
  5
1761
 10
5.249999999999995
 20
16.62
 30
0.0
 40
0.5
 50
359.9999999999996
 51
90.0
  0
LINE
  8
FK-FOOTP
  5
1762
 10
6.250000000000007
 20
19.24999999999999
 30
0.0
 11
6.249999999999996
 21
16.62
 31
0.0
  0
LINE
  8
FK-FOOTP
  5
1763
 10
5.249999999999995
 20
17.12
 30
0.0
 11
1.754119133503088
 21
17.12
 31
0.0
  0
CIRCLE
  8
FK-FOOTP
  5
1764
 10
7.999999999999943
 20
18.37999999999999
 30
0.0
 40
0.00005
  0
LINE
  8
FK-FOOTP
  5
1765
 10
3.499999999999943
 20
1.5
 30
0.0
 11
28.49999999999994
 21
1.5
 31
0.0
  0
CIRCLE
  8
FK-FOOTP
  5
1766
 10
23.99999999999994
 20
18.37999999999999
 30
0.0
 40
0.00005
  0
CIRCLE
  8
FK-FOOTP
  5
1767
 10
19.99999999999994
 20
18.37999999999999
 30
0.0
 40
0.00005
  0
CIRCLE
  8
FK-FOOTP
  5
1768
 10
15.99999999999994
 20
18.37999999999999
 30
0.0
 40
0.00005
  0
CIRCLE
  8
FK-FOOTP
  5
1769
 10
11.99999999999994
 20
18.37999999999999
 30
0.0
 40
0.00005
  0
LINE
  8
FK-FOOTP
  5
176A
 10
1.25
 20
0.0
 30
0.0
 11
30.74999999999988
 21
0.0
 31
0.0
  0
LINE
  8
FK-FOOTP
  5
176B
 10
3.5
 20
19.75
 30
0.0
 11
28.49999999999988
 21
19.75
 31
0.0
  0
LINE
  8
FK-FOOTP
  5
176C
 10
30.74999999999988
 20
21.0
 30
0.0
 11
1.25
 21
21.0
 31
0.0
  0
LINE
  8
FK-FOOTP
  5
176D
 10
31.99999999999988
 20
19.75
 30
0.0
 11
31.99999999999988
 21
1.25
 31
0.0
  0
LINE
  8
FK-FOOTP
  5
176E
 10
30.74999999999988
 20
17.5
 30
0.0
 11
30.74999999999994
 21
3.75
 31
0.0
  0
ARC
  8
FK-FOOTP
  5
176F
 10
30.74999999999988
 20
19.75
 30
0.0
 40
1.25
 50
0.000000000000007
 51
90.0
  0
ARC
  8
FK-FOOTP
  5
1770
 10
30.74999999999988
 20
1.25
 30
0.0
 40
1.25
 50
270.0
 51
0.000000000000007
  0
LINE
  8
FK-FOOTP
  5
1771
 10
19.49999999999988
 20
16.62
 30
0.0
 11
28.49999999999988
 21
16.62
 31
0.0
  0
ARC
  8
FK-FOOTP
  5
1772
 10
28.49999999999988
 20
14.37
 30
0.0
 40
2.25
 50
0.000000000000007
 51
90.0
  0
ARC
  8
FK-FOOTP
  5
1773
 10
28.49999999999994
 20
3.75
 30
0.0
 40
2.25
 50
270.0
 51
0.000000000000007
  0
ARC
  8
FK-FOOTP
  5
1774
 10
28.49999999999988
 20
17.5
 30
0.0
 40
2.25
 50
0.0000000000003124
 51
90.0
  0
LINE
  8
FK-FOOTP
  5
1775
 10
17.24999999999988
 20
14.37
 30
0.0
 11
17.25
 21
3.75
 31
0.0
  0
ARC
  8
FK-FOOTP
  5
1776
 10
19.49999999999988
 20
14.37
 30
0.0
 40
2.25
 50
90.0
 51
180.0000000000004
  0
ARC
  8
FK-FOOTP
  5
1777
 10
19.5
 20
3.75
 30
0.0
 40
2.25
 50
180.0000000000005
 51
270.0
  0
CIRCLE
  8
FK-FOOTP
  5
1778
 10
23.99999999999988
 20
9.0
 30
0.0
 40
1.81
  0
CIRCLE
  8
FK-FOOTP
  5
1779
 10
8.0
 20
9.0
 30
0.0
 40
1.81
  0
ARC
  8
FK-FOOTP
  5
177A
 10
12.49999999999988
 20
3.75
 30
0.0
 40
2.25
 50
270.0
 51
359.9999999999994
  0
ARC
  8
FK-FOOTP
  5
177B
 10
12.5
 20
14.37
 30
0.0
 40
2.25
 50
359.9999999999996
 51
90.0
  0
LINE
  8
FK-FOOTP
  5
177C
 10
14.75
 20
14.37
 30
0.0
 11
14.74999999999988
 21
3.75
 31
0.0
  0
ARC
  8
FK-FOOTP
  5
177D
 10
3.5
 20
17.5
 30
0.0
 40
2.25
 50
90.0
 51
179.9999999999996
  0
ARC
  8
FK-FOOTP
  5
177E
 10
3.499999999999943
 20
3.75
 30
0.0
 40
2.25
 50
180.0
 51
270.0
  0
ARC
  8
FK-FOOTP
  5
177F
 10
3.5
 20
14.37
 30
0.0
 40
2.25
 50
90.0
 51
180.0
  0
LINE
  8
FK-FOOTP
  5
1780
 10
12.5
 20
16.62
 30
0.0
 11
3.5
 21
16.62
 31
0.0
  0
ARC
  8
FK-FOOTP
  5
1781
 10
1.25
 20
1.25
 30
0.0
 40
1.25
 50
180.0
 51
270.0
  0
ARC
  8
FK-FOOTP
  5
1782
 10
1.25
 20
19.75
 30
0.0
 40
1.25
 50
90.0
 51
180.0
  0
LINE
  8
FK-FOOTP
  5
1783
 10
1.25
 20
17.5
 30
0.0
 11
1.249999999999943
 21
3.75
 31
0.0
  0
LINE
  8
FK-FOOTP
  5
1784
 10
0.0
 20
19.75
 30
0.0
 11
0.0
 21
1.25
 31
0.0
  0
ENDBLK
  8
0
  5
1785
  0
ENDSEC
  0
SECTION
  2
ENTITIES
  0
POLYLINE
  8
CNTRCUTR
  5
34F6
 66
     1
 10
0.0
 20
0.0
 30
8.679999999999999
 70
     1
1001
CDKT-SIZ
1002
{
1010
32.0
1020
-21.0
1030
8.679999999999999
1002
}
1001
CDKT-STR2
1070
     2
1010
23.97397840523177
1020
-2.649304418742969
1030
8.689999999999999
1040
4.712388980384689
1070
     2
1010
20.05630905018547
1020
-2.614647758935052
1030
8.689999999999999
1040
4.712388980384689
1070
     2
1010
12.01295263257105
1020
-2.614647758935052
1030
8.689999999999999
1040
4.712388980384689
1070
     2
1010
7.956604805843543
1020
-2.614647758935052
1030
8.689999999999999
1040
4.712388980384689
1070
    30
1010
15.99996122345796
1020
-2.579991099127136
1030
8.689999999999999
1040
4.712388980384689
  0
VERTEX
  8
CNTRCUTR
  5
34F7
 10
1.500000000000001
 20
-21.0
 30
8.679999999999999
  0
VERTEX
  8
CNTRCUTR
  5
34F8
 10
30.5
 20
-21.0
 30
8.679999999999999
  0
VERTEX
  8
CNTRCUTR
  5
34F9
 10
31.074025
 20
-20.88582
 30
8.679999999999999
  0
VERTEX
  8
CNTRCUTR
  5
34FA
 10
31.560659
 20
-20.560661
 30
8.679999999999999
  0
VERTEX
  8
CNTRCUTR
  5
34FB
 10
31.885818
 20
-20.074026
 30
8.679999999999999
  0
VERTEX
  8
CNTRCUTR
  5
34FC
 10
32.0
 20
-19.5
 30
8.679999999999999
  0
VERTEX
  8
CNTRCUTR
  5
34FD
 10
32.0
 20
-1.5
 30
8.679999999999999
  0
VERTEX
  8
CNTRCUTR
  5
34FE
 10
31.885818
 20
-0.9259760000000021
 30
8.679999999999999
  0
VERTEX
  8
CNTRCUTR
  5
34FF
 10
31.560659
 20
-0.4393400000000014
 30
8.679999999999999
  0
VERTEX
  8
CNTRCUTR
  5
3500
 10
31.074025
 20
-0.1141810000000021
 30
8.679999999999999
  0
VERTEX
  8
CNTRCUTR
  5
3501
 10
30.5
 20
0.0
 30
8.679999999999999
  0
VERTEX
  8
CNTRCUTR
  5
3502
 10
1.500000000000001
 20
0.0
 30
8.679999999999999
  0
VERTEX
  8
CNTRCUTR
  5
3503
 10
0.9259750000000011
 20
-0.1141810000000021
 30
8.679999999999999
  0
VERTEX
  8
CNTRCUTR
  5
3504
 10
0.4393409999999989
 20
-0.4393400000000014
 30
8.679999999999999
  0
VERTEX
  8
CNTRCUTR
  5
3505
 10
0.1141819999999996
 20
-0.9259760000000021
 30
8.679999999999999
  0
VERTEX
  8
CNTRCUTR
  5
3506
 10
0.0
 20
-1.5
 30
8.679999999999999
  0
VERTEX
  8
CNTRCUTR
  5
3507
 10
0.0
 20
-19.5
 30
8.679999999999999
  0
VERTEX
  8
CNTRCUTR
  5
3508
 10
0.1141819999999996
 20
-20.074026
 30
8.679999999999999
  0
VERTEX
  8
CNTRCUTR
  5
3509
 10
0.4393409999999989
 20
-20.560661
 30
8.679999999999999
  0
VERTEX
  8
CNTRCUTR
  5
350A
 10
0.9259750000000011
 20
-20.88582
 30
8.679999999999999
  0
SEQEND
  8
CNTRCUTR
  5
350B
  0
POLYLINE
  8
RK-SINKB
  5
350C
 66
     1
 10
0.0
 20
0.0
 30
0.0
 70
    64
 71
     6
 72
     3
  0
VERTEX
  8
RK-SINKB
  5
350D
 10
16.0
 20
-19.493713
 30
8.354676999999998
 70
   192
  0
VERTEX
  8
RK-SINKB
  5
350E
 10
16.94
 20
-17.25
 30
7.120044
 70
   192
  0
VERTEX
  8
RK-SINKB
  5
350F
 10
15.06
 20
-17.25
 30
7.120044
 70
   192
  0
VERTEX
  8
RK-SINKB
  5
3510
 10
16.0
 20
-4.380001000000003
 30
8.06
 70
   192
  0
VERTEX
  8
RK-SINKB
  5
3511
 10
15.06
 20
-6.630000999999996
 30
7.120044
 70
   192
  0
VERTEX
  8
RK-SINKB
  5
3512
 10
16.94
 20
-6.630000999999996
 30
7.120044
 70
   192
  0
VERTEX
  8
RK-SINKB
  5
3513
 10
31.074025
 20
-20.88582
 30
8.299999999999998
 70
   192
  0
VERTEX
  8
RK-SINKB
  5
3514
 10
31.383884
 20
-20.383884
 30
8.299999999999998
 70
   192
  0
VERTEX
  8
RK-SINKB
  5
3515
 10
31.885818
 20
-20.074026
 30
8.299999999999998
 70
   192
  0
VERTEX
  8
RK-SINKB
  5
3516
 10
32.0
 20
-1.5
 30
8.299999999999998
 70
   192
  0
VERTEX
  8
RK-SINKB
  5
3517
 10
31.75
 20
-19.5
 30
8.299999999999998
 70
   192
  0
VERTEX
  8
RK-SINKB
  5
3518
 10
31.560659
 20
-0.4393400000000014
 30
8.299999999999998
 70
   192
  0
VERTEX
  8
RK-SINKB
  5
3519
 10
31.75
 20
-1.5
 30
8.299999999999998
 70
   192
  0
VERTEX
  8
RK-SINKB
  5
351A
 10
16.0
 20
-21.0
 30
8.299999999999998
 70
   192
  0
VERTEX
  8
RK-SINKB
  5
351B
 10
30.5
 20
-20.75
 30
8.299999999999998
 70
   192
  0
VERTEX
  8
RK-SINKB
  5
351C
 10
32.0
 20
-19.5
 30
8.299999999999998
 70
   192
  0
VERTEX
  8
RK-SINKB
  5
351D
 10
31.885818
 20
-0.9259760000000021
 30
8.299999999999998
 70
   192
  0
VERTEX
  8
RK-SINKB
  5
351E
 10
31.074025
 20
-0.1141810000000021
 30
8.299999999999998
 70
   192
  0
VERTEX
  8
RK-SINKB
  5
351F
 10
31.65485
 20
-1.021646000000004
 30
8.299999999999998
 70
   192
  0
VERTEX
  8
RK-SINKB
  5
3520
 10
30.5
 20
0.0
 30
8.299999999999998
 70
   192
  0
VERTEX
  8
RK-SINKB
  5
3521
 10
31.383884
 20
-0.6161170000000063
 30
8.299999999999998
 70
   192
  0
VERTEX
  8
RK-SINKB
  5
3522
 10
16.0
 20
0.0
 30
8.299999999999998
 70
   192
  0
VERTEX
  8
RK-SINKB
  5
3523
 10
30.5
 20
-0.25
 30
8.299999999999998
 70
   192
  0
VERTEX
  8
RK-SINKB
  5
3524
 10
30.5
 20
-21.0
 30
8.299999999999998
 70
   192
  0
VERTEX
  8
RK-SINKB
  5
3525
 10
31.560659
 20
-20.560661
 30
8.299999999999998
 70
   192
  0
VERTEX
  8
RK-SINKB
  5
3526
 10
30.31019399999999
 20
-19.060194
 30
8.679999999999999
 70
   192
  0
VERTEX
  8
RK-SINKB
  5
3527
 10
29.47967
 20
-19.615132
 30
8.679999999999999
 70
   192
  0
VERTEX
  8
RK-SINKB
  5
3528
 10
30.5
 20
-21.0
 30
8.679999999999999
 70
   192
  0
VERTEX
  8
RK-SINKB
  5
3529
 10
30.865132
 20
-18.22967
 30
8.679999999999999
 70
   192
  0
VERTEX
  8
RK-SINKB
  5
352A
 10
28.5
 20
-19.81
 30
8.679999999999999
 70
   192
  0
VERTEX
  8
RK-SINKB
  5
352B
 10
31.885818
 20
-20.074026
 30
8.679999999999999
 70
   192
  0
VERTEX
  8
RK-SINKB
  5
352C
 10
31.05999999999999
 20
-17.25
 30
8.679999999999999
 70
   192
  0
VERTEX
  8
RK-SINKB
  5
352D
 10
31.885818
 20
-0.9259760000000021
 30
8.679999999999999
 70
   192
  0
VERTEX
  8
RK-SINKB
  5
352E
 10
31.074025
 20
-0.1141810000000021
 30
8.679999999999999
 70
   192
  0
VERTEX
  8
RK-SINKB
  5
352F
 10
16.0
 20
-19.81
 30
8.679999999999999
 70
   192
  0
VERTEX
  8
RK-SINKB
  5
3530
 10
31.560659
 20
-20.560661
 30
8.679999999999999
 70
   192
  0
VERTEX
  8
RK-SINKB
  5
3531
 10
32.0
 20
-19.5
 30
8.679999999999999
 70
   192
  0
VERTEX
  8
RK-SINKB
  5
3532
 10
32.0
 20
-1.5
 30
8.679999999999999
 70
   192
  0
VERTEX
  8
RK-SINKB
  5
3533
 10
31.560659
 20
-0.4393400000000014
 30
8.679999999999999
 70
   192
  0
VERTEX
  8
RK-SINKB
  5
3534
 10
30.5
 20
0.0
 30
8.679999999999999
 70
   192
  0
VERTEX
  8
RK-SINKB
  5
3535
 10
31.07105296900305
 20
-3.745424153364364
 30
8.679999999999999
 70
   192
  0
VERTEX
  8
RK-SINKB
  5
3536
 10
30.865132
 20
-2.770330000000001
 30
8.679999999999999
 70
   192
  0
VERTEX
  8
RK-SINKB
  5
3537
 10
30.31019399999999
 20
-1.939808000000002
 30
8.679999999999999
 70
   192
  0
VERTEX
  8
RK-SINKB
  5
3538
 10
29.47967
 20
-1.384868000000004
 30
8.679999999999999
 70
   192
  0
VERTEX
  8
RK-SINKB
  5
3539
 10
28.5
 20
-1.190000000000001
 30
8.679999999999999
 70
   192
  0
VERTEX
  8
RK-SINKB
  5
353A
 10
16.0
 20
0.0
 30
8.679999999999999
 70
   192
  0
VERTEX
  8
RK-SINKB
  5
353B
 10
16.0
 20
-1.190000000000001
 30
8.679999999999999
 70
   192
  0
VERTEX
  8
RK-SINKB
  5
353C
 10
16.0
 20
-21.0
 30
8.679999999999999
 70
   192
  0
VERTEX
  8
RK-SINKB
  5
353D
 10
31.074025
 20
-20.88582
 30
8.679999999999999
 70
   192
  0
VERTEX
  8
RK-SINKB
  5
353E
 10
28.5
 20
-4.069999000000002
 30
8.369999999999999
 70
   192
  0
VERTEX
  8
RK-SINKB
  5
353F
 10
30.09099
 20
-2.159010000000005
 30
8.369999999999999
 70
   192
  0
VERTEX
  8
RK-SINKB
  5
3540
 10
16.0
 20
-1.5
 30
8.369999999999999
 70
   192
  0
VERTEX
  8
RK-SINKB
  5
3541
 10
28.5
 20
-1.5
 30
8.369999999999999
 70
   192
  0
VERTEX
  8
RK-SINKB
  5
3542
 10
30.75
 20
-3.750000000000003
 30
8.369999999999999
 70
   192
  0
VERTEX
  8
RK-SINKB
  5
3543
 10
16.0
 20
-4.069999000000002
 30
8.369999999999999
 70
   192
  0
VERTEX
  8
RK-SINKB
  5
3544
 10
29.361038
 20
-1.671272000000005
 30
8.369999999999999
 70
   192
  0
VERTEX
  8
RK-SINKB
  5
3545
 10
30.578729
 20
-2.888963000000003
 30
8.369999999999999
 70
   192
  0
VERTEX
  8
RK-SINKB
  5
3546
 10
29.47967
 20
-4.264869000000004
 30
8.369999999999999
 70
   192
  0
VERTEX
  8
RK-SINKB
  5
3547
 10
30.31019399999999
 20
-4.819807000000004
 30
8.369999999999999
 70
   192
  0
VERTEX
  8
RK-SINKB
  5
3548
 10
30.75
 20
-5.408893000000002
 30
8.369999999999999
 70
   192
  0
VERTEX
  8
RK-SINKB
  5
3549
 10
19.5
 20
-19.5
 30
2.5
 70
   192
  0
VERTEX
  8
RK-SINKB
  5
354A
 10
19.49999899999999
 20
-19.5
 30
8.369999999999999
 70
   192
  0
VERTEX
  8
RK-SINKB
  5
354B
 10
28.5
 20
-19.5
 30
2.5
 70
   192
  0
VERTEX
  8
RK-SINKB
  5
354C
 10
28.5
 20
-19.5
 30
8.369999999999999
 70
   192
  0
VERTEX
  8
RK-SINKB
  5
354D
 10
30.75
 20
-6.630001000000003
 30
8.06
 70
   192
  0
VERTEX
  8
RK-SINKB
  5
354E
 10
30.75
 20
-17.25
 30
2.5
 70
   192
  0
VERTEX
  8
RK-SINKB
  5
354F
 10
30.75
 20
-6.630001000000003
 30
8.369999999999999
 70
   192
  0
VERTEX
  8
RK-SINKB
  5
3550
 10
30.75
 20
-17.25
 30
8.369999999999999
 70
   192
  0
VERTEX
  8
RK-SINKB
  5
3551
 10
30.75
 20
-6.630001000000003
 30
2.5
 70
   192
  0
VERTEX
  8
RK-SINKB
  5
3552
 10
29.361038
 20
-19.328729
 30
8.369999999999999
 70
   192
  0
VERTEX
  8
RK-SINKB
  5
3553
 10
29.361038
 20
-19.328729
 30
2.5
 70
   192
  0
VERTEX
  8
RK-SINKB
  5
3554
 10
30.09099
 20
-18.840991
 30
8.369999999999999
 70
   192
  0
VERTEX
  8
RK-SINKB
  5
3555
 10
30.09099
 20
-18.840991
 30
2.5
 70
   192
  0
VERTEX
  8
RK-SINKB
  5
3556
 10
30.578729
 20
-18.111038
 30
2.5
 70
   192
  0
VERTEX
  8
RK-SINKB
  5
3557
 10
30.578729
 20
-18.111038
 30
8.369999999999999
 70
   192
  0
VERTEX
  8
RK-SINKB
  5
3558
 10
30.75553199999999
 20
-5.650331000000004
 30
8.369999999999999
 70
   192
  0
VERTEX
  8
RK-SINKB
  5
3559
 10
28.96193999999999
 20
-6.438659000000004
 30
0.75
 70
   192
  0
VERTEX
  8
RK-SINKB
  5
355A
 10
19.5
 20
-6.130001000000003
 30
0.75
 70
   192
  0
VERTEX
  8
RK-SINKB
  5
355B
 10
24.0
 20
-9.750000000000003
 30
0.75
 70
   192
  0
VERTEX
  8
RK-SINKB
  5
355C
 10
23.13896199999999
 20
-9.921272000000005
 30
0.75
 70
   192
  0
VERTEX
  8
RK-SINKB
  5
355D
 10
22.40901
 20
-10.40901
 30
0.75
 70
   192
  0
VERTEX
  8
RK-SINKB
  5
355E
 10
24.861038
 20
-9.921272000000005
 30
0.75
 70
   192
  0
VERTEX
  8
RK-SINKB
  5
355F
 10
25.59098999999999
 20
-10.40901
 30
0.75
 70
   192
  0
VERTEX
  8
RK-SINKB
  5
3560
 10
26.078729
 20
-11.138963
 30
0.75
 70
   192
  0
VERTEX
  8
RK-SINKB
  5
3561
 10
21.92127099999999
 20
-11.138963
 30
0.75
 70
   192
  0
VERTEX
  8
RK-SINKB
  5
3562
 10
19.146447
 20
-6.276447000000004
 30
0.75
 70
   192
  0
VERTEX
  8
RK-SINKB
  5
3563
 10
28.69134199999999
 20
-6.168060000000004
 30
0.75
 70
   192
  0
VERTEX
  8
RK-SINKB
  5
3564
 10
29.0
 20
-17.25
 30
0.75
 70
   192
  0
VERTEX
  8
RK-SINKB
  5
3565
 10
28.85355399999999
 20
-17.603554
 30
0.75
 70
   192
  0
VERTEX
  8
RK-SINKB
  5
3566
 10
28.5
 20
-17.75
 30
0.75
 70
   192
  0
VERTEX
  8
RK-SINKB
  5
3567
 10
26.25
 20
-12.0
 30
0.75
 70
   192
  0
VERTEX
  8
RK-SINKB
  5
3568
 10
26.078729
 20
-12.861038
 30
0.75
 70
   192
  0
VERTEX
  8
RK-SINKB
  5
3569
 10
25.59098999999999
 20
-13.590991
 30
0.75
 70
   192
  0
VERTEX
  8
RK-SINKB
  5
356A
 10
24.861038
 20
-14.078729
 30
0.75
 70
   192
  0
VERTEX
  8
RK-SINKB
  5
356B
 10
19.0
 20
-6.630001000000003
 30
0.75
 70
   192
  0
VERTEX
  8
RK-SINKB
  5
356C
 10
28.5
 20
-6.130001000000003
 30
0.75
 70
   192
  0
VERTEX
  8
RK-SINKB
  5
356D
 10
29.0
 20
-6.630001000000003
 30
0.75
 70
   192
  0
VERTEX
  8
RK-SINKB
  5
356E
 10
19.5
 20
-17.75
 30
0.75
 70
   192
  0
VERTEX
  8
RK-SINKB
  5
356F
 10
19.308658
 20
-17.71194
 30
0.75
 70
   192
  0
VERTEX
  8
RK-SINKB
  5
3570
 10
19.146447
 20
-17.603554
 30
0.75
 70
   192
  0
VERTEX
  8
RK-SINKB
  5
3571
 10
19.03806
 20
-17.441342
 30
0.75
 70
   192
  0
VERTEX
  8
RK-SINKB
  5
3572
 10
19.0
 20
-17.25
 30
0.75
 70
   192
  0
VERTEX
  8
RK-SINKB
  5
3573
 10
24.0
 20
-14.25
 30
0.75
 70
   192
  0
VERTEX
  8
RK-SINKB
  5
3574
 10
23.13896199999999
 20
-14.078729
 30
0.75
 70
   192
  0
VERTEX
  8
RK-SINKB
  5
3575
 10
22.40901
 20
-13.590991
 30
0.75
 70
   192
  0
VERTEX
  8
RK-SINKB
  5
3576
 10
21.92127099999999
 20
-12.861038
 30
0.75
 70
   192
  0
VERTEX
  8
RK-SINKB
  5
3577
 10
21.75
 20
-12.0
 30
0.75
 70
   192
  0
VERTEX
  8
RK-SINKB
  5
3578
 10
17.25
 20
-17.25
 30
6.810043999999999
 70
   192
  0
VERTEX
  8
RK-SINKB
  5
3579
 10
17.25
 20
-17.25
 30
2.5
 70
   192
  0
VERTEX
  8
RK-SINKB
  5
357A
 10
17.25
 20
-6.630001000000003
 30
6.810043999999999
 70
   192
  0
VERTEX
  8
RK-SINKB
  5
357B
 10
17.25
 20
-6.630001000000003
 30
2.5
 70
   192
  0
VERTEX
  8
RK-SINKB
  5
357C
 10
30.578729
 20
-5.768963000000002
 30
2.5
 70
   192
  0
VERTEX
  8
RK-SINKB
  5
357D
 10
30.578729
 20
-5.768963000000002
 30
8.06
 70
   192
  0
VERTEX
  8
RK-SINKB
  5
357E
 10
30.09099
 20
-5.039011000000002
 30
8.06
 70
   192
  0
VERTEX
  8
RK-SINKB
  5
357F
 10
30.09099
 20
-5.039011000000002
 30
2.5
 70
   192
  0
VERTEX
  8
RK-SINKB
  5
3580
 10
29.361038
 20
-4.551271000000003
 30
8.06
 70
   192
  0
VERTEX
  8
RK-SINKB
  5
3581
 10
29.361038
 20
-4.551271000000003
 30
2.5
 70
   192
  0
VERTEX
  8
RK-SINKB
  5
3582
 10
28.5
 20
-4.380001000000003
 30
8.06
 70
   192
  0
VERTEX
  8
RK-SINKB
  5
3583
 10
28.5
 20
-4.380001000000003
 30
2.5
 70
   192
  0
VERTEX
  8
RK-SINKB
  5
3584
 10
19.5
 20
-18.419696
 30
0.8832110000000001
 70
   192
  0
VERTEX
  8
RK-SINKB
  5
3585
 10
28.5
 20
-18.419696
 30
0.8832110000000001
 70
   192
  0
VERTEX
  8
RK-SINKB
  5
3586
 10
19.5
 20
-18.987437
 30
1.262563
 70
   192
  0
VERTEX
  8
RK-SINKB
  5
3587
 10
28.5
 20
-18.987437
 30
1.262563
 70
   192
  0
VERTEX
  8
RK-SINKB
  5
3588
 10
19.5
 20
-19.36679
 30
1.830303999999999
 70
   192
  0
VERTEX
  8
RK-SINKB
  5
3589
 10
28.5
 20
-19.36679
 30
1.830303999999999
 70
   192
  0
VERTEX
  8
RK-SINKB
  5
358A
 10
18.330304
 20
-6.630001000000003
 30
0.8832110000000001
 70
   192
  0
VERTEX
  8
RK-SINKB
  5
358B
 10
18.330304
 20
-17.25
 30
0.8832110000000001
 70
   192
  0
VERTEX
  8
RK-SINKB
  5
358C
 10
17.762563
 20
-6.630001000000003
 30
1.262563
 70
   192
  0
VERTEX
  8
RK-SINKB
  5
358D
 10
17.762563
 20
-17.25
 30
1.262563
 70
   192
  0
VERTEX
  8
RK-SINKB
  5
358E
 10
17.383211
 20
-17.25
 30
1.830303999999999
 70
   192
  0
VERTEX
  8
RK-SINKB
  5
358F
 10
17.383211
 20
-6.630001000000003
 30
1.830303999999999
 70
   192
  0
VERTEX
  8
RK-SINKB
  5
3590
 10
18.658592
 20
-17.25
 30
0.7836259999999991
 70
   192
  0
VERTEX
  8
RK-SINKB
  5
3591
 10
18.419342
 20
-17.697624
 30
0.8832110000000001
 70
   192
  0
VERTEX
  8
RK-SINKB
  5
3592
 10
19.05237699999999
 20
-18.330659
 30
0.8832110000000001
 70
   192
  0
VERTEX
  8
RK-SINKB
  5
3593
 10
18.6729
 20
-18.0771
 30
0.8832110000000001
 70
   192
  0
VERTEX
  8
RK-SINKB
  5
3594
 10
17.894818
 20
-17.914889
 30
1.262563
 70
   192
  0
VERTEX
  8
RK-SINKB
  5
3595
 10
18.271447
 20
-18.478554
 30
1.262563
 70
   192
  0
VERTEX
  8
RK-SINKB
  5
3596
 10
18.835112
 20
-18.855183
 30
1.262563
 70
   192
  0
VERTEX
  8
RK-SINKB
  5
3597
 10
17.544342
 20
-18.060061
 30
1.830303999999999
 70
   192
  0
VERTEX
  8
RK-SINKB
  5
3598
 10
18.003204
 20
-18.746796
 30
1.830303999999999
 70
   192
  0
VERTEX
  8
RK-SINKB
  5
3599
 10
18.68993999999999
 20
-19.205659
 30
1.830303999999999
 70
   192
  0
VERTEX
  8
RK-SINKB
  5
359A
 10
17.421271
 20
-18.111038
 30
2.5
 70
   192
  0
VERTEX
  8
RK-SINKB
  5
359B
 10
17.90901
 20
-18.840991
 30
2.5
 70
   192
  0
VERTEX
  8
RK-SINKB
  5
359C
 10
18.638962
 20
-19.328729
 30
2.5
 70
   192
  0
VERTEX
  8
RK-SINKB
  5
359D
 10
28.5
 20
-18.091409
 30
0.7836259999999991
 70
   192
  0
VERTEX
  8
RK-SINKB
  5
359E
 10
28.69134199999999
 20
-17.71194
 30
0.75
 70
   192
  0
VERTEX
  8
RK-SINKB
  5
359F
 10
28.947623
 20
-18.330659
 30
0.8832110000000001
 70
   192
  0
VERTEX
  8
RK-SINKB
  5
35A0
 10
29.669696
 20
-17.25
 30
0.8832110000000001
 70
   192
  0
VERTEX
  8
RK-SINKB
  5
35A1
 10
28.96193999999999
 20
-17.441342
 30
0.75
 70
   192
  0
VERTEX
  8
RK-SINKB
  5
35A2
 10
29.58065799999999
 20
-17.697624
 30
0.8832110000000001
 70
   192
  0
VERTEX
  8
RK-SINKB
  5
35A3
 10
29.341408
 20
-17.25
 30
0.7836259999999991
 70
   192
  0
VERTEX
  8
RK-SINKB
  5
35A4
 10
28.5
 20
-18.722248
 30
1.044927999999999
 70
   192
  0
VERTEX
  8
RK-SINKB
  5
35A5
 10
30.237437
 20
-17.25
 30
1.262563
 70
   192
  0
VERTEX
  8
RK-SINKB
  5
35A6
 10
29.972248
 20
-17.25
 30
1.044927999999999
 70
   192
  0
VERTEX
  8
RK-SINKB
  5
35A7
 10
28.5
 20
-19.205072
 30
1.527752
 70
   192
  0
VERTEX
  8
RK-SINKB
  5
35A8
 10
30.455072
 20
-17.25
 30
1.527752
 70
   192
  0
VERTEX
  8
RK-SINKB
  5
35A9
 10
30.616789
 20
-17.25
 30
1.830303999999999
 70
   192
  0
VERTEX
  8
RK-SINKB
  5
35AA
 10
28.5
 20
-19.466375
 30
2.158591999999999
 70
   192
  0
VERTEX
  8
RK-SINKB
  5
35AB
 10
29.31006
 20
-19.205659
 30
1.830303999999999
 70
   192
  0
VERTEX
  8
RK-SINKB
  5
35AC
 10
30.455658
 20
-18.060061
 30
1.830303999999999
 70
   192
  0
VERTEX
  8
RK-SINKB
  5
35AD
 10
29.3271
 20
-18.0771
 30
0.8832110000000001
 70
   192
  0
VERTEX
  8
RK-SINKB
  5
35AE
 10
29.16488799999999
 20
-18.855183
 30
1.262563
 70
   192
  0
VERTEX
  8
RK-SINKB
  5
35AF
 10
29.728554
 20
-18.478554
 30
1.262563
 70
   192
  0
VERTEX
  8
RK-SINKB
  5
35B0
 10
30.105183
 20
-17.914889
 30
1.262563
 70
   192
  0
VERTEX
  8
RK-SINKB
  5
35B1
 10
29.996796
 20
-18.746796
 30
1.830303999999999
 70
   192
  0
VERTEX
  8
RK-SINKB
  5
35B2
 10
19.5
 20
-5.460304000000004
 30
0.8832110000000001
 70
   192
  0
VERTEX
  8
RK-SINKB
  5
35B3
 10
28.5
 20
-5.460304000000004
 30
0.8832110000000001
 70
   192
  0
VERTEX
  8
RK-SINKB
  5
35B4
 10
28.5
 20
-4.892565000000004
 30
1.262563
 70
   192
  0
VERTEX
  8
RK-SINKB
  5
35B5
 10
19.5
 20
-4.892565000000004
 30
1.262563
 70
   192
  0
VERTEX
  8
RK-SINKB
  5
35B6
 10
28.5
 20
-4.513212000000002
 30
1.830303999999999
 70
   192
  0
VERTEX
  8
RK-SINKB
  5
35B7
 10
19.5
 20
-4.513212000000002
 30
1.830303999999999
 70
   192
  0
VERTEX
  8
RK-SINKB
  5
35B8
 10
19.5
 20
-4.380001000000003
 30
2.5
 70
   192
  0
VERTEX
  8
RK-SINKB
  5
35B9
 10
29.669696
 20
-6.630001000000003
 30
0.8832110000000001
 70
   192
  0
VERTEX
  8
RK-SINKB
  5
35BA
 10
30.237437
 20
-6.630001000000003
 30
1.262563
 70
   192
  0
VERTEX
  8
RK-SINKB
  5
35BB
 10
30.616789
 20
-6.630001000000003
 30
1.830303999999999
 70
   192
  0
VERTEX
  8
RK-SINKB
  5
35BC
 10
29.341408
 20
-6.630001000000003
 30
0.7836259999999991
 70
   192
  0
VERTEX
  8
RK-SINKB
  5
35BD
 10
29.58065799999999
 20
-6.182377000000002
 30
0.8832110000000001
 70
   192
  0
VERTEX
  8
RK-SINKB
  5
35BE
 10
28.947623
 20
-5.549343000000003
 30
0.8832110000000001
 70
   192
  0
VERTEX
  8
RK-SINKB
  5
35BF
 10
28.5
 20
-5.788591000000003
 30
0.7836259999999991
 70
   192
  0
VERTEX
  8
RK-SINKB
  5
35C0
 10
29.972248
 20
-6.630001000000003
 30
1.044927999999999
 70
   192
  0
VERTEX
  8
RK-SINKB
  5
35C1
 10
28.5
 20
-5.157753000000003
 30
1.044927999999999
 70
   192
  0
VERTEX
  8
RK-SINKB
  5
35C2
 10
30.455072
 20
-6.630001000000003
 30
1.527752
 70
   192
  0
VERTEX
  8
RK-SINKB
  5
35C3
 10
28.5
 20
-4.674928000000004
 30
1.527752
 70
   192
  0
VERTEX
  8
RK-SINKB
  5
35C4
 10
30.716374
 20
-6.630001000000003
 30
2.158591999999999
 70
   192
  0
VERTEX
  8
RK-SINKB
  5
35C5
 10
30.455658
 20
-5.819940000000002
 30
1.830303999999999
 70
   192
  0
VERTEX
  8
RK-SINKB
  5
35C6
 10
29.31006
 20
-4.674343000000003
 30
1.830303999999999
 70
   192
  0
VERTEX
  8
RK-SINKB
  5
35C7
 10
29.3271
 20
-5.802900000000004
 30
0.8832110000000001
 70
   192
  0
VERTEX
  8
RK-SINKB
  5
35C8
 10
28.85355399999999
 20
-6.276447000000004
 30
0.75
 70
   192
  0
VERTEX
  8
RK-SINKB
  5
35C9
 10
30.105183
 20
-5.965112000000001
 30
1.262563
 70
   192
  0
VERTEX
  8
RK-SINKB
  5
35CA
 10
29.728554
 20
-5.401447000000004
 30
1.262563
 70
   192
  0
VERTEX
  8
RK-SINKB
  5
35CB
 10
29.16488799999999
 20
-5.024818000000003
 30
1.262563
 70
   192
  0
VERTEX
  8
RK-SINKB
  5
35CC
 10
29.996796
 20
-5.133205000000003
 30
1.830303999999999
 70
   192
  0
VERTEX
  8
RK-SINKB
  5
35CD
 10
19.5
 20
-5.788591000000003
 30
0.7836259999999991
 70
   192
  0
VERTEX
  8
RK-SINKB
  5
35CE
 10
19.05237699999999
 20
-5.549343000000003
 30
0.8832110000000001
 70
   192
  0
VERTEX
  8
RK-SINKB
  5
35CF
 10
19.308658
 20
-6.168060000000004
 30
0.75
 70
   192
  0
VERTEX
  8
RK-SINKB
  5
35D0
 10
19.03806
 20
-6.438659000000004
 30
0.75
 70
   192
  0
VERTEX
  8
RK-SINKB
  5
35D1
 10
18.419342
 20
-6.182377000000002
 30
0.8832110000000001
 70
   192
  0
VERTEX
  8
RK-SINKB
  5
35D2
 10
18.658592
 20
-6.630001000000003
 30
0.7836259999999991
 70
   192
  0
VERTEX
  8
RK-SINKB
  5
35D3
 10
19.5
 20
-5.157753000000003
 30
1.044927999999999
 70
   192
  0
VERTEX
  8
RK-SINKB
  5
35D4
 10
18.027752
 20
-6.630001000000003
 30
1.044927999999999
 70
   192
  0
VERTEX
  8
RK-SINKB
  5
35D5
 10
19.5
 20
-4.674928000000004
 30
1.527752
 70
   192
  0
VERTEX
  8
RK-SINKB
  5
35D6
 10
17.54492799999999
 20
-6.630001000000003
 30
1.527752
 70
   192
  0
VERTEX
  8
RK-SINKB
  5
35D7
 10
18.638962
 20
-4.551271000000003
 30
2.5
 70
   192
  0
VERTEX
  8
RK-SINKB
  5
35D8
 10
18.68993999999999
 20
-4.674343000000003
 30
1.830303999999999
 70
   192
  0
VERTEX
  8
RK-SINKB
  5
35D9
 10
18.6729
 20
-5.802900000000004
 30
0.8832110000000001
 70
   192
  0
VERTEX
  8
RK-SINKB
  5
35DA
 10
18.835112
 20
-5.024818000000003
 30
1.262563
 70
   192
  0
VERTEX
  8
RK-SINKB
  5
35DB
 10
18.271447
 20
-5.401447000000004
 30
1.262563
 70
   192
  0
VERTEX
  8
RK-SINKB
  5
35DC
 10
17.894818
 20
-5.965112000000001
 30
1.262563
 70
   192
  0
VERTEX
  8
RK-SINKB
  5
35DD
 10
18.003204
 20
-5.133205000000003
 30
1.830303999999999
 70
   192
  0
VERTEX
  8
RK-SINKB
  5
35DE
 10
17.544342
 20
-5.819940000000002
 30
1.830303999999999
 70
   192
  0
VERTEX
  8
RK-SINKB
  5
35DF
 10
17.90901
 20
-5.039011000000002
 30
2.5
 70
   192
  0
VERTEX
  8
RK-SINKB
  5
35E0
 10
17.421271
 20
-5.768963000000002
 30
2.5
 70
   192
  0
VERTEX
  8
RK-SINKB
  5
35E1
 10
28.5
 20
-1.476404000000005
 30
8.488631999999999
 70
   192
  0
VERTEX
  8
RK-SINKB
  5
35E2
 10
16.0
 20
-1.476404000000005
 30
8.488631999999999
 70
   192
  0
VERTEX
  8
RK-SINKB
  5
35E3
 10
28.5
 20
-1.409204000000006
 30
8.589202999999999
 70
   192
  0
VERTEX
  8
RK-SINKB
  5
35E4
 10
16.0
 20
-1.409204000000006
 30
8.589202999999999
 70
   192
  0
VERTEX
  8
RK-SINKB
  5
35E5
 10
16.0
 20
-1.308632000000002
 30
8.656402999999999
 70
   192
  0
VERTEX
  8
RK-SINKB
  5
35E6
 10
28.5
 20
-1.308632000000002
 30
8.656402999999999
 70
   192
  0
VERTEX
  8
RK-SINKB
  5
35E7
 10
28.5
 20
-1.250478000000004
 30
8.674042999999999
 70
   192
  0
VERTEX
  8
RK-SINKB
  5
35E8
 10
28.5
 20
-1.243000000000002
 30
8.675435999999999
 70
   192
  0
VERTEX
  8
RK-SINKB
  5
35E9
 10
28.5
 20
-1.278572000000004
 30
8.667078
 70
   192
  0
VERTEX
  8
RK-SINKB
  5
35EA
 10
30.370807
 20
-2.499967000000005
 30
8.369999999999999
 70
   192
  0
VERTEX
  8
RK-SINKB
  5
35EB
 10
29.750033
 20
-1.879194000000001
 30
8.369999999999999
 70
   192
  0
VERTEX
  8
RK-SINKB
  5
35EC
 10
28.938953
 20
-1.543234000000001
 30
8.369999999999999
 70
   192
  0
VERTEX
  8
RK-SINKB
  5
35ED
 10
31.010811
 20
-3.250568000000001
 30
8.679999999999999
 70
   192
  0
VERTEX
  8
RK-SINKB
  5
35EE
 10
30.628562
 20
-2.327741000000003
 30
8.679999999999999
 70
   192
  0
VERTEX
  8
RK-SINKB
  5
35EF
 10
29.92226
 20
-1.621439000000002
 30
8.679999999999999
 70
   192
  0
VERTEX
  8
RK-SINKB
  5
35F0
 10
28.99943099999999
 20
-1.239191000000005
 30
8.679999999999999
 70
   192
  0
VERTEX
  8
RK-SINKB
  5
35F1
 10
30.941368
 20
-3.750000000000003
 30
8.656402999999999
 70
   192
  0
VERTEX
  8
RK-SINKB
  5
35F2
 10
30.75553
 20
-2.815729000000004
 30
8.656402999999999
 70
   192
  0
VERTEX
  8
RK-SINKB
  5
35F3
 10
29.434271
 20
-1.494470000000003
 30
8.656402999999999
 70
   192
  0
VERTEX
  8
RK-SINKB
  5
35F4
 10
29.395784
 20
-1.587387000000006
 30
8.589202999999999
 70
   192
  0
VERTEX
  8
RK-SINKB
  5
35F5
 10
30.77359799999999
 20
-3.750000000000003
 30
8.488631999999999
 70
   192
  0
VERTEX
  8
RK-SINKB
  5
35F6
 10
30.60052999999999
 20
-2.879932000000003
 30
8.488631999999999
 70
   192
  0
VERTEX
  8
RK-SINKB
  5
35F7
 10
29.370068
 20
-1.649468999999999
 30
8.488631999999999
 70
   192
  0
VERTEX
  8
RK-SINKB
  5
35F8
 10
30.22630799999999
 20
-2.023693000000005
 30
8.656402999999999
 70
   192
  0
VERTEX
  8
RK-SINKB
  5
35F9
 10
30.662615
 20
-2.854215000000003
 30
8.589202999999999
 70
   192
  0
VERTEX
  8
RK-SINKB
  5
35FA
 10
30.840797
 20
-3.750000000000003
 30
8.589202999999999
 70
   192
  0
VERTEX
  8
RK-SINKB
  5
35FB
 10
30.155194
 20
-2.094806000000001
 30
8.589202999999999
 70
   192
  0
VERTEX
  8
RK-SINKB
  5
35FC
 10
30.10767599999999
 20
-2.142324000000005
 30
8.488631999999999
 70
   192
  0
VERTEX
  8
RK-SINKB
  5
35FD
 10
29.750033
 20
-19.120807
 30
8.369999999999999
 70
   192
  0
VERTEX
  8
RK-SINKB
  5
35FE
 10
30.370807
 20
-18.500034
 30
8.369999999999999
 70
   192
  0
VERTEX
  8
RK-SINKB
  5
35FF
 10
30.70676699999999
 20
-17.688954
 30
8.369999999999999
 70
   192
  0
VERTEX
  8
RK-SINKB
  5
3600
 10
28.99943099999999
 20
-19.760811
 30
8.679999999999999
 70
   192
  0
VERTEX
  8
RK-SINKB
  5
3601
 10
29.92226
 20
-19.378563
 30
8.679999999999999
 70
   192
  0
VERTEX
  8
RK-SINKB
  5
3602
 10
30.628562
 20
-18.67226
 30
8.679999999999999
 70
   192
  0
VERTEX
  8
RK-SINKB
  5
3603
 10
29.434271
 20
-19.505531
 30
8.656402999999999
 70
   192
  0
VERTEX
  8
RK-SINKB
  5
3604
 10
28.5
 20
-19.691369
 30
8.656402999999999
 70
   192
  0
VERTEX
  8
RK-SINKB
  5
3605
 10
30.840797
 20
-17.25
 30
8.589202999999999
 70
   192
  0
VERTEX
  8
RK-SINKB
  5
3606
 10
30.60052999999999
 20
-18.120069
 30
8.488631999999999
 70
   192
  0
VERTEX
  8
RK-SINKB
  5
3607
 10
30.662615
 20
-18.145785
 30
8.589202999999999
 70
   192
  0
VERTEX
  8
RK-SINKB
  5
3608
 10
30.77359799999999
 20
-17.25
 30
8.488631999999999
 70
   192
  0
VERTEX
  8
RK-SINKB
  5
3609
 10
30.22630799999999
 20
-18.976308
 30
8.656402999999999
 70
   192
  0
VERTEX
  8
RK-SINKB
  5
360A
 10
30.75553
 20
-18.184272
 30
8.656402999999999
 70
   192
  0
VERTEX
  8
RK-SINKB
  5
360B
 10
29.395784
 20
-19.412615
 30
8.589202999999999
 70
   192
  0
VERTEX
  8
RK-SINKB
  5
360C
 10
28.5
 20
-19.590797
 30
8.589202999999999
 70
   192
  0
VERTEX
  8
RK-SINKB
  5
360D
 10
30.155194
 20
-18.905194
 30
8.589202999999999
 70
   192
  0
VERTEX
  8
RK-SINKB
  5
360E
 10
29.370068
 20
-19.350531
 30
8.488631999999999
 70
   192
  0
VERTEX
  8
RK-SINKB
  5
360F
 10
28.5
 20
-19.523598
 30
8.488631999999999
 70
   192
  0
VERTEX
  8
RK-SINKB
  5
3610
 10
30.10767599999999
 20
-18.857677
 30
8.488631999999999
 70
   192
  0
VERTEX
  8
RK-SINKB
  5
3611
 10
16.0
 20
-4.289203000000004
 30
8.279202999999998
 70
   192
  0
VERTEX
  8
RK-SINKB
  5
3612
 10
28.5
 20
-4.188633000000002
 30
8.346403
 70
   192
  0
VERTEX
  8
RK-SINKB
  5
3613
 10
16.0
 20
-4.188633000000002
 30
8.346403
 70
   192
  0
VERTEX
  8
RK-SINKB
  5
3614
 10
28.5
 20
-4.289203000000004
 30
8.279202999999998
 70
   192
  0
VERTEX
  8
RK-SINKB
  5
3615
 10
16.0
 20
-4.356403000000003
 30
8.178632
 70
   192
  0
VERTEX
  8
RK-SINKB
  5
3616
 10
28.5
 20
-4.356403000000003
 30
8.178632
 70
   192
  0
VERTEX
  8
RK-SINKB
  5
3617
 10
16.0
 20
-4.380001000000003
 30
8.06
 70
   192
  0
VERTEX
  8
RK-SINKB
  5
3618
 10
30.70676699999999
 20
-6.191047000000004
 30
8.06
 70
   192
  0
VERTEX
  8
RK-SINKB
  5
3619
 10
30.370807
 20
-5.379966000000003
 30
8.06
 70
   192
  0
VERTEX
  8
RK-SINKB
  5
361A
 10
29.750033
 20
-4.759193000000003
 30
8.06
 70
   192
  0
VERTEX
  8
RK-SINKB
  5
361B
 10
29.92226
 20
-4.501438000000003
 30
8.369999999999999
 70
   192
  0
VERTEX
  8
RK-SINKB
  5
361C
 10
28.99943099999999
 20
-4.119190000000003
 30
8.369999999999999
 70
   192
  0
VERTEX
  8
RK-SINKB
  5
361D
 10
30.75553
 20
-5.695728000000002
 30
8.346403
 70
   192
  0
VERTEX
  8
RK-SINKB
  5
361E
 10
30.749968
 20
-6.630001000000003
 30
8.346403
 70
   192
  0
VERTEX
  8
RK-SINKB
  5
361F
 10
30.22630799999999
 20
-4.903694000000005
 30
8.346403
 70
   192
  0
VERTEX
  8
RK-SINKB
  5
3620
 10
29.434271
 20
-4.374470000000002
 30
8.346403
 70
   192
  0
VERTEX
  8
RK-SINKB
  5
3621
 10
29.395784
 20
-4.467386000000001
 30
8.279202999999998
 70
   192
  0
VERTEX
  8
RK-SINKB
  5
3622
 10
29.370068
 20
-4.529470000000003
 30
8.178632
 70
   192
  0
VERTEX
  8
RK-SINKB
  5
3623
 10
30.60052999999999
 20
-5.759931000000001
 30
8.178632
 70
   192
  0
VERTEX
  8
RK-SINKB
  5
3624
 10
30.749998
 20
-6.630001000000003
 30
8.178632
 70
   192
  0
VERTEX
  8
RK-SINKB
  5
3625
 10
30.662615
 20
-5.734216000000003
 30
8.279202999999998
 70
   192
  0
VERTEX
  8
RK-SINKB
  5
3626
 10
30.749997
 20
-6.630001000000003
 30
8.279202999999998
 70
   192
  0
VERTEX
  8
RK-SINKB
  5
3627
 10
30.155194
 20
-4.974807000000005
 30
8.279202999999998
 70
   192
  0
VERTEX
  8
RK-SINKB
  5
3628
 10
30.10767599999999
 20
-5.022323000000003
 30
8.178632
 70
   192
  0
VERTEX
  8
RK-SINKB
  5
3629
 10
17.226403
 20
-6.630001000000003
 30
6.928675999999999
 70
   192
  0
VERTEX
  8
RK-SINKB
  5
362A
 10
17.226403
 20
-17.25
 30
6.928675999999999
 70
   192
  0
VERTEX
  8
RK-SINKB
  5
362B
 10
17.159203
 20
-6.630001000000003
 30
7.029246999999999
 70
   192
  0
VERTEX
  8
RK-SINKB
  5
362C
 10
17.159203
 20
-17.25
 30
7.029246999999999
 70
   192
  0
VERTEX
  8
RK-SINKB
  5
362D
 10
17.058632
 20
-6.630001000000003
 30
7.096446999999999
 70
   192
  0
VERTEX
  8
RK-SINKB
  5
362E
 10
17.058632
 20
-17.25
 30
7.096446999999999
 70
   192
  0
VERTEX
  8
RK-SINKB
  5
362F
 10
16.94
 20
-6.630001000000003
 30
7.120044
 70
   192
  0
VERTEX
  8
RK-SINKB
  5
3630
 10
30.941368
 20
-17.25
 30
8.656402999999999
 70
   192
  0
VERTEX
  8
RK-SINKB
  5
3631
 10
16.0
 20
-19.691369
 30
8.656402999999999
 70
   192
  0
VERTEX
  8
RK-SINKB
  5
3632
 10
16.0
 20
-19.57212816094068
 30
8.607872839059327
 70
   192
  0
VERTEX
  8
RK-SINKB
  5
3633
 10
16.0
 20
-19.523598
 30
8.488631999999999
 70
   192
  0
VERTEX
  8
RK-SINKB
  5
3634
 10
17.52175800466234
 20
-18.13023181304517
 30
6.961895549322369
 70
   192
  0
VERTEX
  8
RK-SINKB
  5
3635
 10
18.0063600364775
 20
-18.84663110334034
 30
7.302007344975447
 70
   192
  0
VERTEX
  8
RK-SINKB
  5
3636
 10
18.6702481477087
 20
-19.29510316104801
 30
7.778239220542795
 70
   192
  0
VERTEX
  8
RK-SINKB
  5
3637
 10
19.49999899999999
 20
-19.5
 30
8.15
 70
   192
  0
VERTEX
  8
RK-SINKB
  5
3638
 10
19.49999899999999
 20
-4.380000999999996
 30
8.15
 70
   192
  0
VERTEX
  8
RK-SINKB
  5
3639
 10
18.6702481477087
 20
-4.584897838951984
 30
7.778239220542795
 70
   192
  0
VERTEX
  8
RK-SINKB
  5
363A
 10
18.0063600364775
 20
-5.03336989665966
 30
7.302007344975447
 70
   192
  0
VERTEX
  8
RK-SINKB
  5
363B
 10
17.52175800466234
 20
-5.749769186954825
 30
6.961895549322369
 70
   192
  0
VERTEX
  8
RK-SINKB
  5
363C
 10
18.39038850404264
 20
-4.567867419641583
 30
8.10937808004475
 70
   192
  0
VERTEX
  8
RK-SINKB
  5
363D
 10
19.279999
 20
-4.380000999999996
 30
8.369999999999999
 70
   192
  0
VERTEX
  8
RK-SINKB
  5
363E
 10
17.71421213728119
 20
-5.018004852726125
 30
7.625291721211425
 70
   192
  0
VERTEX
  8
RK-SINKB
  5
363F
 10
17.21761102925799
 20
-5.738175605346516
 30
7.27565655332596
 70
   192
  0
VERTEX
  8
RK-SINKB
  5
3640
 10
17.71421213728119
 20
-18.86199614727387
 30
7.625291721211425
 70
   192
  0
VERTEX
  8
RK-SINKB
  5
3641
 10
19.279999
 20
-19.5
 30
8.369999999999999
 70
   192
  0
VERTEX
  8
RK-SINKB
  5
3642
 10
18.39038850404264
 20
-19.31213358035842
 30
8.10937808004475
 70
   192
  0
VERTEX
  8
RK-SINKB
  5
3643
 10
17.21761102925799
 20
-18.14182539465348
 30
7.27565655332596
 70
   192
  0
VERTEX
  8
RK-SINKB
  5
3644
 10
17.29640796755662
 20
-18.14096661083064
 30
7.261062982130207
 70
   192
  0
VERTEX
  8
RK-SINKB
  5
3645
 10
17.01908799487535
 20
-17.25
 30
7.104312667686005
 70
   192
  0
VERTEX
  8
RK-SINKB
  5
3646
 10
17.79243375688156
 20
-18.86085799587139
 30
7.613108693851763
 70
   192
  0
VERTEX
  8
RK-SINKB
  5
3647
 10
18.46801338425421
 20
-19.31087206781691
 30
8.0997292179261
 70
   192
  0
VERTEX
  8
RK-SINKB
  5
3648
 10
19.35333233333333
 20
-19.5
 30
8.369999999999999
 70
   192
  0
VERTEX
  8
RK-SINKB
  5
3649
 10
17.37103741852127
 20
-18.13881965127355
 30
7.232225678579902
 70
   192
  0
VERTEX
  8
RK-SINKB
  5
364A
 10
17.09215566232222
 20
-17.25
 30
7.074047002902893
 70
   192
  0
VERTEX
  8
RK-SINKB
  5
364B
 10
17.87066164601172
 20
-18.85801261736517
 30
7.587182458453544
 70
   192
  0
VERTEX
  8
RK-SINKB
  5
364C
 10
18.54978615982354
 20
-19.30771828646312
 30
8.077023104192265
 70
   192
  0
VERTEX
  8
RK-SINKB
  5
364D
 10
19.42666566666666
 20
-19.5
 30
8.369999999999999
 70
   192
  0
VERTEX
  8
RK-SINKB
  5
364E
 10
17.44104329821016
 20
-18.13602860384932
 30
7.190134832574165
 70
   192
  0
VERTEX
  8
RK-SINKB
  5
364F
 10
17.94738758687935
 20
-18.8543136253071
 30
7.550751033093436
 70
   192
  0
VERTEX
  8
RK-SINKB
  5
3650
 10
18.63316254462567
 20
-19.30361837070321
 30
8.046652869043771
 70
   192
  0
VERTEX
  8
RK-SINKB
  5
3651
 10
19.49999899999999
 20
-19.5
 30
8.369999999999999
 70
   192
  0
VERTEX
  8
RK-SINKB
  5
3652
 10
17.48081965584941
 20
-18.1332375564251
 30
7.117814464518783
 70
   192
  0
VERTEX
  8
RK-SINKB
  5
3653
 10
17.20400300290289
 20
-17.25
 30
6.962199662322218
 70
   192
  0
VERTEX
  8
RK-SINKB
  5
3654
 10
17.97632319369287
 20
-18.85061463324903
 30
7.466529273679217
 70
   192
  0
VERTEX
  8
RK-SINKB
  5
3655
 10
18.65118778336923
 20
-19.2995184549433
 30
7.950931487836704
 70
   192
  0
VERTEX
  8
RK-SINKB
  5
3656
 10
19.49999899999999
 20
-19.5
 30
8.296666666666666
 70
   192
  0
VERTEX
  8
RK-SINKB
  5
3657
 10
17.5078765837332
 20
-18.13109059686801
 30
7.041404637887607
 70
   192
  0
VERTEX
  8
RK-SINKB
  5
3658
 10
17.234268667686
 20
-17.25
 30
6.889131994875356
 70
   192
  0
VERTEX
  8
RK-SINKB
  5
3659
 10
17.99648341482448
 20
-18.84776925474282
 30
7.382535370282456
 70
   192
  0
VERTEX
  8
RK-SINKB
  5
365A
 10
18.66439774602234
 20
-19.29636467358952
 30
7.859662561186659
 70
   192
  0
VERTEX
  8
RK-SINKB
  5
365B
 10
19.49999899999999
 20
-19.5
 30
8.223333333333332
 70
   192
  0
VERTEX
  8
RK-SINKB
  5
365C
 10
17.29640796755662
 20
-5.739034389169354
 30
7.261062982130207
 70
   192
  0
VERTEX
  8
RK-SINKB
  5
365D
 10
17.01908799487535
 20
-6.630000999999996
 30
7.104312667686005
 70
   192
  0
VERTEX
  8
RK-SINKB
  5
365E
 10
17.79243375688156
 20
-5.019143004128611
 30
7.613108693851763
 70
   192
  0
VERTEX
  8
RK-SINKB
  5
365F
 10
18.46801338425421
 20
-4.569128932183094
 30
8.0997292179261
 70
   192
  0
VERTEX
  8
RK-SINKB
  5
3660
 10
19.35333233333333
 20
-4.380000999999996
 30
8.369999999999999
 70
   192
  0
VERTEX
  8
RK-SINKB
  5
3661
 10
17.37103741852127
 20
-5.741181348726446
 30
7.232225678579902
 70
   192
  0
VERTEX
  8
RK-SINKB
  5
3662
 10
17.09215566232222
 20
-6.630000999999996
 30
7.074047002902893
 70
   192
  0
VERTEX
  8
RK-SINKB
  5
3663
 10
17.87066164601172
 20
-5.02198838263482
 30
7.587182458453544
 70
   192
  0
VERTEX
  8
RK-SINKB
  5
3664
 10
18.54978615982354
 20
-4.572282713536871
 30
8.077023104192265
 70
   192
  0
VERTEX
  8
RK-SINKB
  5
3665
 10
19.42666566666666
 20
-4.380000999999996
 30
8.369999999999999
 70
   192
  0
VERTEX
  8
RK-SINKB
  5
3666
 10
17.44104329821016
 20
-5.74397239615067
 30
7.190134832574165
 70
   192
  0
VERTEX
  8
RK-SINKB
  5
3667
 10
17.159203
 20
-6.630000999999996
 30
7.029246999999999
 70
   192
  0
VERTEX
  8
RK-SINKB
  5
3668
 10
17.94738758687935
 20
-5.025687374692896
 30
7.550751033093436
 70
   192
  0
VERTEX
  8
RK-SINKB
  5
3669
 10
18.63316254462567
 20
-4.576382629296784
 30
8.046652869043771
 70
   192
  0
VERTEX
  8
RK-SINKB
  5
366A
 10
19.49999899999999
 20
-4.380000999999996
 30
8.369999999999999
 70
   192
  0
VERTEX
  8
RK-SINKB
  5
366B
 10
17.48081965584941
 20
-5.746763443574895
 30
7.117814464518783
 70
   192
  0
VERTEX
  8
RK-SINKB
  5
366C
 10
17.20400300290289
 20
-6.630000999999996
 30
6.962199662322218
 70
   192
  0
VERTEX
  8
RK-SINKB
  5
366D
 10
17.97632319369287
 20
-5.029386366750966
 30
7.466529273679217
 70
   192
  0
VERTEX
  8
RK-SINKB
  5
366E
 10
18.65118778336923
 20
-4.580482545056696
 30
7.950931487836704
 70
   192
  0
VERTEX
  8
RK-SINKB
  5
366F
 10
19.49999899999999
 20
-4.380000999999996
 30
8.296666666666666
 70
   192
  0
VERTEX
  8
RK-SINKB
  5
3670
 10
17.5078765837332
 20
-5.74891040313199
 30
7.041404637887607
 70
   192
  0
VERTEX
  8
RK-SINKB
  5
3671
 10
17.234268667686
 20
-6.630000999999996
 30
6.889131994875356
 70
   192
  0
VERTEX
  8
RK-SINKB
  5
3672
 10
17.99648341482448
 20
-5.032231745257178
 30
7.382535370282456
 70
   192
  0
VERTEX
  8
RK-SINKB
  5
3673
 10
18.66439774602234
 20
-4.583636326410474
 30
7.859662561186659
 70
   192
  0
VERTEX
  8
RK-SINKB
  5
3674
 10
19.49999899999999
 20
-4.380000999999996
 30
8.223333333333332
 70
   192
  0
VERTEX
  8
RK-SINKB
  5
3675
 10
17.25
 20
-6.630000999999996
 30
6.810043999999999
 70
   192
  0
VERTEX
  8
RK-SINKB
  5
3676
 10
13.33560225397765
 20
-4.583636326410474
 30
7.859662561186659
 70
   192
  0
VERTEX
  8
RK-SINKB
  5
3677
 10
12.500001
 20
-4.380000999999996
 30
8.223333333333332
 70
   192
  0
VERTEX
  8
RK-SINKB
  5
3678
 10
12.500001
 20
-4.380000999999996
 30
8.15
 70
   192
  0
VERTEX
  8
RK-SINKB
  5
3679
 10
13.32975185229129
 20
-4.584897838951984
 30
7.778239220542795
 70
   192
  0
VERTEX
  8
RK-SINKB
  5
367A
 10
14.00351658517551
 20
-5.032231745257178
 30
7.382535370282456
 70
   192
  0
VERTEX
  8
RK-SINKB
  5
367B
 10
13.99363996352249
 20
-5.03336989665966
 30
7.302007344975447
 70
   192
  0
VERTEX
  8
RK-SINKB
  5
367C
 10
14.4921234162668
 20
-5.74891040313199
 30
7.041404637887607
 70
   192
  0
VERTEX
  8
RK-SINKB
  5
367D
 10
14.47824199533765
 20
-5.749769186954825
 30
6.961895549322369
 70
   192
  0
VERTEX
  8
RK-SINKB
  5
367E
 10
14.76573133231399
 20
-6.630000999999996
 30
6.889131994875356
 70
   192
  0
VERTEX
  8
RK-SINKB
  5
367F
 10
14.75
 20
-6.630000999999996
 30
6.810043999999999
 70
   192
  0
VERTEX
  8
RK-SINKB
  5
3680
 10
13.34881221663077
 20
-4.580482545056696
 30
7.950931487836704
 70
   192
  0
VERTEX
  8
RK-SINKB
  5
3681
 10
12.500001
 20
-4.380000999999996
 30
8.296666666666666
 70
   192
  0
VERTEX
  8
RK-SINKB
  5
3682
 10
14.02367680630713
 20
-5.029386366750966
 30
7.466529273679217
 70
   192
  0
VERTEX
  8
RK-SINKB
  5
3683
 10
14.51918034415058
 20
-5.746763443574895
 30
7.117814464518783
 70
   192
  0
VERTEX
  8
RK-SINKB
  5
3684
 10
14.7959969970971
 20
-6.630000999999996
 30
6.962199662322218
 70
   192
  0
VERTEX
  8
RK-SINKB
  5
3685
 10
13.36683745537432
 20
-4.576382629296784
 30
8.046652869043771
 70
   192
  0
VERTEX
  8
RK-SINKB
  5
3686
 10
12.500001
 20
-4.380000999999996
 30
8.369999999999999
 70
   192
  0
VERTEX
  8
RK-SINKB
  5
3687
 10
14.05261241312065
 20
-5.025687374692896
 30
7.550751033093436
 70
   192
  0
VERTEX
  8
RK-SINKB
  5
3688
 10
14.55895670178983
 20
-5.74397239615067
 30
7.190134832574165
 70
   192
  0
VERTEX
  8
RK-SINKB
  5
3689
 10
14.840797
 20
-6.630000999999996
 30
7.029246999999999
 70
   192
  0
VERTEX
  8
RK-SINKB
  5
368A
 10
13.45021384017646
 20
-4.572282713536871
 30
8.077023104192265
 70
   192
  0
VERTEX
  8
RK-SINKB
  5
368B
 10
12.57333433333333
 20
-4.380000999999996
 30
8.369999999999999
 70
   192
  0
VERTEX
  8
RK-SINKB
  5
368C
 10
14.12933835398828
 20
-5.02198838263482
 30
7.587182458453544
 70
   192
  0
VERTEX
  8
RK-SINKB
  5
368D
 10
14.62896258147872
 20
-5.741181348726446
 30
7.232225678579902
 70
   192
  0
VERTEX
  8
RK-SINKB
  5
368E
 10
14.90784433767778
 20
-6.630000999999996
 30
7.074047002902893
 70
   192
  0
VERTEX
  8
RK-SINKB
  5
368F
 10
13.53198661574578
 20
-4.569128932183094
 30
8.0997292179261
 70
   192
  0
VERTEX
  8
RK-SINKB
  5
3690
 10
12.64666766666666
 20
-4.380000999999996
 30
8.369999999999999
 70
   192
  0
VERTEX
  8
RK-SINKB
  5
3691
 10
14.20756624311843
 20
-5.019143004128611
 30
7.613108693851763
 70
   192
  0
VERTEX
  8
RK-SINKB
  5
3692
 10
14.70359203244337
 20
-5.739034389169354
 30
7.261062982130207
 70
   192
  0
VERTEX
  8
RK-SINKB
  5
3693
 10
14.98091200512464
 20
-6.630000999999996
 30
7.104312667686005
 70
   192
  0
VERTEX
  8
RK-SINKB
  5
3694
 10
13.60961149595736
 20
-4.567867419641583
 30
8.10937808004475
 70
   192
  0
VERTEX
  8
RK-SINKB
  5
3695
 10
12.720001
 20
-4.380000999999996
 30
8.369999999999999
 70
   192
  0
VERTEX
  8
RK-SINKB
  5
3696
 10
14.2857878627188
 20
-5.018004852726125
 30
7.625291721211425
 70
   192
  0
VERTEX
  8
RK-SINKB
  5
3697
 10
14.782388970742
 20
-5.738175605346516
 30
7.27565655332596
 70
   192
  0
VERTEX
  8
RK-SINKB
  5
3698
 10
12.500001
 20
-19.5
 30
8.15
 70
   192
  0
VERTEX
  8
RK-SINKB
  5
3699
 10
12.500001
 20
-19.5
 30
8.223333333333332
 70
   192
  0
VERTEX
  8
RK-SINKB
  5
369A
 10
13.33560225397765
 20
-19.29636467358952
 30
7.859662561186659
 70
   192
  0
VERTEX
  8
RK-SINKB
  5
369B
 10
13.32975185229129
 20
-19.29510316104801
 30
7.778239220542795
 70
   192
  0
VERTEX
  8
RK-SINKB
  5
369C
 10
14.00351658517551
 20
-18.84776925474282
 30
7.382535370282456
 70
   192
  0
VERTEX
  8
RK-SINKB
  5
369D
 10
13.99363996352249
 20
-18.84663110334034
 30
7.302007344975447
 70
   192
  0
VERTEX
  8
RK-SINKB
  5
369E
 10
14.4921234162668
 20
-18.13109059686801
 30
7.041404637887607
 70
   192
  0
VERTEX
  8
RK-SINKB
  5
369F
 10
14.47824199533765
 20
-18.13023181304517
 30
6.961895549322369
 70
   192
  0
VERTEX
  8
RK-SINKB
  5
36A0
 10
14.76573133231399
 20
-17.25
 30
6.889131994875356
 70
   192
  0
VERTEX
  8
RK-SINKB
  5
36A1
 10
14.75
 20
-17.25
 30
6.810043999999999
 70
   192
  0
VERTEX
  8
RK-SINKB
  5
36A2
 10
12.500001
 20
-19.5
 30
8.296666666666666
 70
   192
  0
VERTEX
  8
RK-SINKB
  5
36A3
 10
13.34881221663077
 20
-19.2995184549433
 30
7.950931487836704
 70
   192
  0
VERTEX
  8
RK-SINKB
  5
36A4
 10
14.02367680630713
 20
-18.85061463324903
 30
7.466529273679217
 70
   192
  0
VERTEX
  8
RK-SINKB
  5
36A5
 10
14.51918034415058
 20
-18.1332375564251
 30
7.117814464518783
 70
   192
  0
VERTEX
  8
RK-SINKB
  5
36A6
 10
14.7959969970971
 20
-17.25
 30
6.962199662322218
 70
   192
  0
VERTEX
  8
RK-SINKB
  5
36A7
 10
12.500001
 20
-19.5
 30
8.369999999999999
 70
   192
  0
VERTEX
  8
RK-SINKB
  5
36A8
 10
13.36683745537432
 20
-19.30361837070321
 30
8.046652869043771
 70
   192
  0
VERTEX
  8
RK-SINKB
  5
36A9
 10
14.05261241312065
 20
-18.8543136253071
 30
7.550751033093436
 70
   192
  0
VERTEX
  8
RK-SINKB
  5
36AA
 10
14.55895670178983
 20
-18.13602860384932
 30
7.190134832574165
 70
   192
  0
VERTEX
  8
RK-SINKB
  5
36AB
 10
14.840797
 20
-17.25
 30
7.029246999999999
 70
   192
  0
VERTEX
  8
RK-SINKB
  5
36AC
 10
12.57333433333333
 20
-19.5
 30
8.369999999999999
 70
   192
  0
VERTEX
  8
RK-SINKB
  5
36AD
 10
13.45021384017646
 20
-19.30771828646312
 30
8.077023104192265
 70
   192
  0
VERTEX
  8
RK-SINKB
  5
36AE
 10
14.12933835398828
 20
-18.85801261736517
 30
7.587182458453544
 70
   192
  0
VERTEX
  8
RK-SINKB
  5
36AF
 10
14.62896258147872
 20
-18.13881965127355
 30
7.232225678579902
 70
   192
  0
VERTEX
  8
RK-SINKB
  5
36B0
 10
14.90784433767778
 20
-17.25
 30
7.074047002902893
 70
   192
  0
VERTEX
  8
RK-SINKB
  5
36B1
 10
12.64666766666666
 20
-19.5
 30
8.369999999999999
 70
   192
  0
VERTEX
  8
RK-SINKB
  5
36B2
 10
13.53198661574578
 20
-19.31087206781691
 30
8.0997292179261
 70
   192
  0
VERTEX
  8
RK-SINKB
  5
36B3
 10
14.20756624311843
 20
-18.86085799587139
 30
7.613108693851763
 70
   192
  0
VERTEX
  8
RK-SINKB
  5
36B4
 10
14.70359203244337
 20
-18.14096661083064
 30
7.261062982130207
 70
   192
  0
VERTEX
  8
RK-SINKB
  5
36B5
 10
14.98091200512464
 20
-17.25
 30
7.104312667686005
 70
   192
  0
VERTEX
  8
RK-SINKB
  5
36B6
 10
12.720001
 20
-19.5
 30
8.369999999999999
 70
   192
  0
VERTEX
  8
RK-SINKB
  5
36B7
 10
13.60961149595736
 20
-19.31213358035842
 30
8.10937808004475
 70
   192
  0
VERTEX
  8
RK-SINKB
  5
36B8
 10
14.2857878627188
 20
-18.86199614727387
 30
7.625291721211425
 70
   192
  0
VERTEX
  8
RK-SINKB
  5
36B9
 10
14.782388970742
 20
-18.14182539465348
 30
7.27565655332596
 70
   192
  0
VERTEX
  8
RK-SINKB
  5
36BA
 10
14.578729
 20
-5.768963000000002
 30
2.5
 70
   192
  0
VERTEX
  8
RK-SINKB
  5
36BB
 10
14.75
 20
-6.630001000000003
 30
2.5
 70
   192
  0
VERTEX
  8
RK-SINKB
  5
36BC
 10
14.75
 20
-6.630001000000003
 30
6.810043999999999
 70
   192
  0
VERTEX
  8
RK-SINKB
  5
36BD
 10
14.09099
 20
-5.039011000000002
 30
2.5
 70
   192
  0
VERTEX
  8
RK-SINKB
  5
36BE
 10
13.361038
 20
-4.551271000000003
 30
2.5
 70
   192
  0
VERTEX
  8
RK-SINKB
  5
36BF
 10
12.5
 20
-4.380001000000003
 30
2.5
 70
   192
  0
VERTEX
  8
RK-SINKB
  5
36C0
 10
3.500000000000001
 20
-4.380001000000003
 30
8.06
 70
   192
  0
VERTEX
  8
RK-SINKB
  5
36C1
 10
3.500000000000001
 20
-4.380001000000003
 30
2.5
 70
   192
  0
VERTEX
  8
RK-SINKB
  5
36C2
 10
13.361038
 20
-19.328729
 30
2.5
 70
   192
  0
VERTEX
  8
RK-SINKB
  5
36C3
 10
12.5
 20
-19.5
 30
2.5
 70
   192
  0
VERTEX
  8
RK-SINKB
  5
36C4
 10
14.09099
 20
-18.840991
 30
2.5
 70
   192
  0
VERTEX
  8
RK-SINKB
  5
36C5
 10
14.578729
 20
-18.111038
 30
2.5
 70
   192
  0
VERTEX
  8
RK-SINKB
  5
36C6
 10
14.75
 20
-17.25
 30
2.5
 70
   192
  0
VERTEX
  8
RK-SINKB
  5
36C7
 10
13.31006
 20
-19.205659
 30
1.830303999999999
 70
   192
  0
VERTEX
  8
RK-SINKB
  5
36C8
 10
12.5
 20
-19.36679
 30
1.830303999999999
 70
   192
  0
VERTEX
  8
RK-SINKB
  5
36C9
 10
14.616789
 20
-17.25
 30
1.830303999999999
 70
   192
  0
VERTEX
  8
RK-SINKB
  5
36CA
 10
14.45565799999999
 20
-18.060061
 30
1.830303999999999
 70
   192
  0
VERTEX
  8
RK-SINKB
  5
36CB
 10
3.500000000000001
 20
-19.5
 30
8.369999999999999
 70
   192
  0
VERTEX
  8
RK-SINKB
  5
36CC
 10
3.500000000000001
 20
-19.523598
 30
8.488631999999999
 70
   192
  0
VERTEX
  8
RK-SINKB
  5
36CD
 10
3.500000000000001
 20
-19.590797
 30
8.589202999999999
 70
   192
  0
VERTEX
  8
RK-SINKB
  5
36CE
 10
3.500000000000001
 20
-19.691369
 30
8.656402999999999
 70
   192
  0
VERTEX
  8
RK-SINKB
  5
36CF
 10
3.500000000000001
 20
-19.81
 30
8.679999999999999
 70
   192
  0
VERTEX
  8
RK-SINKB
  5
36D0
 10
3.500000000000001
 20
-4.069999000000002
 30
8.369999999999999
 70
   192
  0
VERTEX
  8
RK-SINKB
  5
36D1
 10
3.500000000000001
 20
-4.188633000000002
 30
8.346403
 70
   192
  0
VERTEX
  8
RK-SINKB
  5
36D2
 10
16.0
 20
-4.188633000000002
 30
8.346403
 70
   192
  0
VERTEX
  8
RK-SINKB
  5
36D3
 10
16.0
 20
-4.069999000000002
 30
8.369999999999999
 70
   192
  0
VERTEX
  8
RK-SINKB
  5
36D4
 10
2.604215999999999
 20
-1.587387000000006
 30
8.589202999999999
 70
   192
  0
VERTEX
  8
RK-SINKB
  5
36D5
 10
2.629931999999998
 20
-1.649468999999999
 30
8.488631999999999
 70
   192
  0
VERTEX
  8
RK-SINKB
  5
36D6
 10
3.500000000000001
 20
-1.476404000000005
 30
8.488631999999999
 70
   192
  0
VERTEX
  8
RK-SINKB
  5
36D7
 10
3.500000000000001
 20
-1.409204000000006
 30
8.589202999999999
 70
   192
  0
VERTEX
  8
RK-SINKB
  5
36D8
 10
1.250000000000001
 20
-3.750000000000003
 30
8.369999999999999
 70
   192
  0
VERTEX
  8
RK-SINKB
  5
36D9
 10
1.226402
 20
-3.750000000000003
 30
8.488631999999999
 70
   192
  0
VERTEX
  8
RK-SINKB
  5
36DA
 10
1.226402
 20
-17.25
 30
8.488631999999999
 70
   192
  0
VERTEX
  8
RK-SINKB
  5
36DB
 10
1.250000000000001
 20
-17.25
 30
8.369999999999999
 70
   192
  0
VERTEX
  8
RK-SINKB
  5
36DC
 10
1.159203000000001
 20
-17.25
 30
8.589202999999999
 70
   192
  0
VERTEX
  8
RK-SINKB
  5
36DD
 10
1.159203000000001
 20
-3.750000000000003
 30
8.589202999999999
 70
   192
  0
VERTEX
  8
RK-SINKB
  5
36DE
 10
1.058631999999999
 20
-3.750000000000003
 30
8.656402999999999
 70
   192
  0
VERTEX
  8
RK-SINKB
  5
36DF
 10
1.058631999999999
 20
-17.25
 30
8.656402999999999
 70
   192
  0
VERTEX
  8
RK-SINKB
  5
36E0
 10
0.9400000000000012
 20
-17.25
 30
8.679999999999999
 70
   192
  0
VERTEX
  8
RK-SINKB
  5
36E1
 10
0.9289470309969409
 20
-3.745424153364364
 30
8.679999999999999
 70
   192
  0
VERTEX
  8
RK-SINKB
  5
36E2
 10
1.244469999999999
 20
-18.184272
 30
8.656402999999999
 70
   192
  0
VERTEX
  8
RK-SINKB
  5
36E3
 10
1.337384999999999
 20
-18.145785
 30
8.589202999999999
 70
   192
  0
VERTEX
  8
RK-SINKB
  5
36E4
 10
1.134868
 20
-18.22967
 30
8.679999999999999
 70
   192
  0
VERTEX
  8
RK-SINKB
  5
36E5
 10
2.629931999999998
 20
-4.529470000000003
 30
8.178632
 70
   192
  0
VERTEX
  8
RK-SINKB
  5
36E6
 10
2.638962000000001
 20
-4.551271000000003
 30
8.06
 70
   192
  0
VERTEX
  8
RK-SINKB
  5
36E7
 10
3.500000000000001
 20
-4.356403000000003
 30
8.178632
 70
   192
  0
VERTEX
  8
RK-SINKB
  5
36E8
 10
14.45565799999999
 20
-5.819940000000002
 30
1.830303999999999
 70
   192
  0
VERTEX
  8
RK-SINKB
  5
36E9
 10
14.616789
 20
-6.630001000000003
 30
1.830303999999999
 70
   192
  0
VERTEX
  8
RK-SINKB
  5
36EA
 10
14.941368
 20
-17.25
 30
7.096446999999999
 70
   192
  0
VERTEX
  8
RK-SINKB
  5
36EB
 10
15.06
 20
-6.630001000000003
 30
7.120044
 70
   192
  0
VERTEX
  8
RK-SINKB
  5
36EC
 10
14.941368
 20
-6.630001000000003
 30
7.096446999999999
 70
   192
  0
VERTEX
  8
RK-SINKB
  5
36ED
 10
14.840797
 20
-6.630001000000003
 30
7.029246999999999
 70
   192
  0
VERTEX
  8
RK-SINKB
  5
36EE
 10
14.773597
 20
-6.630001000000003
 30
6.928675999999999
 70
   192
  0
VERTEX
  8
RK-SINKB
  5
36EF
 10
14.773597
 20
-17.25
 30
6.928675999999999
 70
   192
  0
VERTEX
  8
RK-SINKB
  5
36F0
 10
1.892324
 20
-5.022323000000003
 30
8.178632
 70
   192
  0
VERTEX
  8
RK-SINKB
  5
36F1
 10
1.909009999999998
 20
-5.039011000000002
 30
8.06
 70
   192
  0
VERTEX
  8
RK-SINKB
  5
36F2
 10
1.399469999999999
 20
-5.759931000000001
 30
8.178632
 70
   192
  0
VERTEX
  8
RK-SINKB
  5
36F3
 10
1.421271
 20
-5.768963000000002
 30
8.06
 70
   192
  0
VERTEX
  8
RK-SINKB
  5
36F4
 10
1.844806000000001
 20
-4.974807000000005
 30
8.279202999999998
 70
   192
  0
VERTEX
  8
RK-SINKB
  5
36F5
 10
2.604215999999999
 20
-4.467386000000001
 30
8.279202999999998
 70
   192
  0
VERTEX
  8
RK-SINKB
  5
36F6
 10
1.337384999999999
 20
-5.734216000000003
 30
8.279202999999998
 70
   192
  0
VERTEX
  8
RK-SINKB
  5
36F7
 10
1.250003000000001
 20
-6.630001000000003
 30
8.279202999999998
 70
   192
  0
VERTEX
  8
RK-SINKB
  5
36F8
 10
1.250002
 20
-6.630001000000003
 30
8.178632
 70
   192
  0
VERTEX
  8
RK-SINKB
  5
36F9
 10
1.773692
 20
-4.903694000000005
 30
8.346403
 70
   192
  0
VERTEX
  8
RK-SINKB
  5
36FA
 10
2.565728999999999
 20
-4.374470000000002
 30
8.346403
 70
   192
  0
VERTEX
  8
RK-SINKB
  5
36FB
 10
1.244469999999999
 20
-5.695728000000002
 30
8.346403
 70
   192
  0
VERTEX
  8
RK-SINKB
  5
36FC
 10
1.250031999999999
 20
-6.630001000000003
 30
8.346403
 70
   192
  0
VERTEX
  8
RK-SINKB
  5
36FD
 10
1.689806
 20
-4.819807000000004
 30
8.369999999999999
 70
   192
  0
VERTEX
  8
RK-SINKB
  5
36FE
 10
2.520329999999999
 20
-4.264869000000004
 30
8.369999999999999
 70
   192
  0
VERTEX
  8
RK-SINKB
  5
36FF
 10
1.250000000000001
 20
-6.630001000000003
 30
8.06
 70
   192
  0
VERTEX
  8
RK-SINKB
  5
3700
 10
3.500000000000001
 20
-4.289203000000004
 30
8.279202999999998
 70
   192
  0
VERTEX
  8
RK-SINKB
  5
3701
 10
1.250000000000001
 20
-5.408893000000002
 30
8.369999999999999
 70
   192
  0
VERTEX
  8
RK-SINKB
  5
3702
 10
1.244468000000001
 20
-5.650331000000004
 30
8.369999999999999
 70
   192
  0
VERTEX
  8
RK-SINKB
  5
3703
 10
3.000569000000002
 20
-4.119190000000003
 30
8.369999999999999
 70
   192
  0
VERTEX
  8
RK-SINKB
  5
3704
 10
2.07774
 20
-4.501438000000003
 30
8.369999999999999
 70
   192
  0
VERTEX
  8
RK-SINKB
  5
3705
 10
2.249966999999999
 20
-4.759193000000003
 30
8.06
 70
   192
  0
VERTEX
  8
RK-SINKB
  5
3706
 10
1.629193
 20
-5.379966000000003
 30
8.06
 70
   192
  0
VERTEX
  8
RK-SINKB
  5
3707
 10
1.293233
 20
-6.191047000000004
 30
8.06
 70
   192
  0
VERTEX
  8
RK-SINKB
  5
3708
 10
16.0
 20
-4.356403000000003
 30
8.178632
 70
   192
  0
VERTEX
  8
RK-SINKB
  5
3709
 10
16.0
 20
-4.289203000000004
 30
8.279202999999998
 70
   192
  0
VERTEX
  8
RK-SINKB
  5
370A
 10
1.892324
 20
-18.857677
 30
8.488631999999999
 70
   192
  0
VERTEX
  8
RK-SINKB
  5
370B
 10
1.421271
 20
-18.111038
 30
8.369999999999999
 70
   192
  0
VERTEX
  8
RK-SINKB
  5
370C
 10
1.399469999999999
 20
-18.120069
 30
8.488631999999999
 70
   192
  0
VERTEX
  8
RK-SINKB
  5
370D
 10
1.909009999999998
 20
-18.840991
 30
8.369999999999999
 70
   192
  0
VERTEX
  8
RK-SINKB
  5
370E
 10
2.629931999999998
 20
-19.350531
 30
8.488631999999999
 70
   192
  0
VERTEX
  8
RK-SINKB
  5
370F
 10
2.638962000000001
 20
-19.328729
 30
8.369999999999999
 70
   192
  0
VERTEX
  8
RK-SINKB
  5
3710
 10
1.844806000000001
 20
-18.905194
 30
8.589202999999999
 70
   192
  0
VERTEX
  8
RK-SINKB
  5
3711
 10
2.604215999999999
 20
-19.412615
 30
8.589202999999999
 70
   192
  0
VERTEX
  8
RK-SINKB
  5
3712
 10
1.773692
 20
-18.976308
 30
8.656402999999999
 70
   192
  0
VERTEX
  8
RK-SINKB
  5
3713
 10
2.565728999999999
 20
-19.505531
 30
8.656402999999999
 70
   192
  0
VERTEX
  8
RK-SINKB
  5
3714
 10
1.689806
 20
-19.060194
 30
8.679999999999999
 70
   192
  0
VERTEX
  8
RK-SINKB
  5
3715
 10
2.520329999999999
 20
-19.615132
 30
8.679999999999999
 70
   192
  0
VERTEX
  8
RK-SINKB
  5
3716
 10
1.371437999999999
 20
-18.67226
 30
8.679999999999999
 70
   192
  0
VERTEX
  8
RK-SINKB
  5
3717
 10
2.07774
 20
-19.378563
 30
8.679999999999999
 70
   192
  0
VERTEX
  8
RK-SINKB
  5
3718
 10
3.000569000000002
 20
-19.760811
 30
8.679999999999999
 70
   192
  0
VERTEX
  8
RK-SINKB
  5
3719
 10
1.293233
 20
-17.688954
 30
8.369999999999999
 70
   192
  0
VERTEX
  8
RK-SINKB
  5
371A
 10
1.629193
 20
-18.500034
 30
8.369999999999999
 70
   192
  0
VERTEX
  8
RK-SINKB
  5
371B
 10
2.249966999999999
 20
-19.120807
 30
8.369999999999999
 70
   192
  0
VERTEX
  8
RK-SINKB
  5
371C
 10
1.892324
 20
-2.142324000000005
 30
8.488631999999999
 70
   192
  0
VERTEX
  8
RK-SINKB
  5
371D
 10
2.638962000000001
 20
-1.671272000000005
 30
8.369999999999999
 70
   192
  0
VERTEX
  8
RK-SINKB
  5
371E
 10
1.909009999999998
 20
-2.159010000000005
 30
8.369999999999999
 70
   192
  0
VERTEX
  8
RK-SINKB
  5
371F
 10
1.399469999999999
 20
-2.879932000000003
 30
8.488631999999999
 70
   192
  0
VERTEX
  8
RK-SINKB
  5
3720
 10
1.421271
 20
-2.888963000000003
 30
8.369999999999999
 70
   192
  0
VERTEX
  8
RK-SINKB
  5
3721
 10
1.844806000000001
 20
-2.094806000000001
 30
8.589202999999999
 70
   192
  0
VERTEX
  8
RK-SINKB
  5
3722
 10
1.337384999999999
 20
-2.854215000000003
 30
8.589202999999999
 70
   192
  0
VERTEX
  8
RK-SINKB
  5
3723
 10
1.773692
 20
-2.023693000000005
 30
8.656402999999999
 70
   192
  0
VERTEX
  8
RK-SINKB
  5
3724
 10
2.565728999999999
 20
-1.494470000000003
 30
8.656402999999999
 70
   192
  0
VERTEX
  8
RK-SINKB
  5
3725
 10
1.244469999999999
 20
-2.815729000000004
 30
8.656402999999999
 70
   192
  0
VERTEX
  8
RK-SINKB
  5
3726
 10
1.689806
 20
-1.939808000000002
 30
8.679999999999999
 70
   192
  0
VERTEX
  8
RK-SINKB
  5
3727
 10
2.520329999999999
 20
-1.384868000000004
 30
8.679999999999999
 70
   192
  0
VERTEX
  8
RK-SINKB
  5
3728
 10
1.134868
 20
-2.770330000000001
 30
8.679999999999999
 70
   192
  0
VERTEX
  8
RK-SINKB
  5
3729
 10
3.500000000000001
 20
-1.5
 30
8.369999999999999
 70
   192
  0
VERTEX
  8
RK-SINKB
  5
372A
 10
3.500000000000001
 20
-1.308632000000002
 30
8.656402999999999
 70
   192
  0
VERTEX
  8
RK-SINKB
  5
372B
 10
3.500000000000001
 20
-1.278572000000004
 30
8.667078
 70
   192
  0
VERTEX
  8
RK-SINKB
  5
372C
 10
3.500000000000001
 20
-1.250478000000004
 30
8.674042999999999
 70
   192
  0
VERTEX
  8
RK-SINKB
  5
372D
 10
3.500000000000001
 20
-1.243000000000002
 30
8.675435999999999
 70
   192
  0
VERTEX
  8
RK-SINKB
  5
372E
 10
3.500000000000001
 20
-1.190000000000001
 30
8.679999999999999
 70
   192
  0
VERTEX
  8
RK-SINKB
  5
372F
 10
3.000569000000002
 20
-1.239191000000005
 30
8.679999999999999
 70
   192
  0
VERTEX
  8
RK-SINKB
  5
3730
 10
2.07774
 20
-1.621439000000002
 30
8.679999999999999
 70
   192
  0
VERTEX
  8
RK-SINKB
  5
3731
 10
1.371437999999999
 20
-2.327741000000003
 30
8.679999999999999
 70
   192
  0
VERTEX
  8
RK-SINKB
  5
3732
 10
0.9891889999999996
 20
-3.250568000000001
 30
8.679999999999999
 70
   192
  0
VERTEX
  8
RK-SINKB
  5
3733
 10
3.061047000000002
 20
-1.543234000000001
 30
8.369999999999999
 70
   192
  0
VERTEX
  8
RK-SINKB
  5
3734
 10
2.249966999999999
 20
-1.879194000000001
 30
8.369999999999999
 70
   192
  0
VERTEX
  8
RK-SINKB
  5
3735
 10
1.629193
 20
-2.499967000000005
 30
8.369999999999999
 70
   192
  0
VERTEX
  8
RK-SINKB
  5
3736
 10
13.996796
 20
-5.133205000000003
 30
1.830303999999999
 70
   192
  0
VERTEX
  8
RK-SINKB
  5
3737
 10
13.31006
 20
-4.674343000000003
 30
1.830303999999999
 70
   192
  0
VERTEX
  8
RK-SINKB
  5
3738
 10
14.105182
 20
-5.965112000000001
 30
1.262563
 70
   192
  0
VERTEX
  8
RK-SINKB
  5
3739
 10
14.237437
 20
-6.630001000000003
 30
1.262563
 70
   192
  0
VERTEX
  8
RK-SINKB
  5
373A
 10
13.728553
 20
-5.401447000000004
 30
1.262563
 70
   192
  0
VERTEX
  8
RK-SINKB
  5
373B
 10
13.164888
 20
-5.024818000000003
 30
1.262563
 70
   192
  0
VERTEX
  8
RK-SINKB
  5
373C
 10
12.5
 20
-4.892565000000004
 30
1.262563
 70
   192
  0
VERTEX
  8
RK-SINKB
  5
373D
 10
12.5
 20
-4.513212000000002
 30
1.830303999999999
 70
   192
  0
VERTEX
  8
RK-SINKB
  5
373E
 10
13.580658
 20
-6.182377000000002
 30
0.8832110000000001
 70
   192
  0
VERTEX
  8
RK-SINKB
  5
373F
 10
13.669696
 20
-6.630001000000003
 30
0.8832110000000001
 70
   192
  0
VERTEX
  8
RK-SINKB
  5
3740
 10
13.3271
 20
-5.802900000000004
 30
0.8832110000000001
 70
   192
  0
VERTEX
  8
RK-SINKB
  5
3741
 10
12.947623
 20
-5.549343000000003
 30
0.8832110000000001
 70
   192
  0
VERTEX
  8
RK-SINKB
  5
3742
 10
12.5
 20
-5.460304000000004
 30
0.8832110000000001
 70
   192
  0
VERTEX
  8
RK-SINKB
  5
3743
 10
12.853553
 20
-6.276447000000004
 30
0.75
 70
   192
  0
VERTEX
  8
RK-SINKB
  5
3744
 10
12.96194
 20
-6.438659000000004
 30
0.75
 70
   192
  0
VERTEX
  8
RK-SINKB
  5
3745
 10
12.691342
 20
-6.168060000000004
 30
0.75
 70
   192
  0
VERTEX
  8
RK-SINKB
  5
3746
 10
14.45507199999999
 20
-6.630001000000003
 30
1.527752
 70
   192
  0
VERTEX
  8
RK-SINKB
  5
3747
 10
12.5
 20
-4.674928000000004
 30
1.527752
 70
   192
  0
VERTEX
  8
RK-SINKB
  5
3748
 10
13.972248
 20
-6.630001000000003
 30
1.044927999999999
 70
   192
  0
VERTEX
  8
RK-SINKB
  5
3749
 10
12.5
 20
-5.157753000000003
 30
1.044927999999999
 70
   192
  0
VERTEX
  8
RK-SINKB
  5
374A
 10
13.0
 20
-6.630001000000003
 30
0.75
 70
   192
  0
VERTEX
  8
RK-SINKB
  5
374B
 10
13.341408
 20
-6.630001000000003
 30
0.7836259999999991
 70
   192
  0
VERTEX
  8
RK-SINKB
  5
374C
 10
12.5
 20
-6.130001000000003
 30
0.75
 70
   192
  0
VERTEX
  8
RK-SINKB
  5
374D
 10
12.5
 20
-5.788591000000003
 30
0.7836259999999991
 70
   192
  0
VERTEX
  8
RK-SINKB
  5
374E
 10
2.003203999999998
 20
-5.133205000000003
 30
1.830303999999999
 70
   192
  0
VERTEX
  8
RK-SINKB
  5
374F
 10
2.689939999999999
 20
-4.674343000000003
 30
1.830303999999999
 70
   192
  0
VERTEX
  8
RK-SINKB
  5
3750
 10
2.638962000000001
 20
-4.551271000000003
 30
2.5
 70
   192
  0
VERTEX
  8
RK-SINKB
  5
3751
 10
1.909009999999998
 20
-5.039011000000002
 30
2.5
 70
   192
  0
VERTEX
  8
RK-SINKB
  5
3752
 10
1.544342
 20
-5.819940000000002
 30
1.830303999999999
 70
   192
  0
VERTEX
  8
RK-SINKB
  5
3753
 10
1.421271
 20
-5.768963000000002
 30
2.5
 70
   192
  0
VERTEX
  8
RK-SINKB
  5
3754
 10
2.835112
 20
-5.024818000000003
 30
1.262563
 70
   192
  0
VERTEX
  8
RK-SINKB
  5
3755
 10
3.500000000000001
 20
-4.892565000000004
 30
1.262563
 70
   192
  0
VERTEX
  8
RK-SINKB
  5
3756
 10
3.500000000000001
 20
-4.513212000000002
 30
1.830303999999999
 70
   192
  0
VERTEX
  8
RK-SINKB
  5
3757
 10
2.271446
 20
-5.401447000000004
 30
1.262563
 70
   192
  0
VERTEX
  8
RK-SINKB
  5
3758
 10
1.894816999999999
 20
-5.965112000000001
 30
1.262563
 70
   192
  0
VERTEX
  8
RK-SINKB
  5
3759
 10
1.762562999999998
 20
-6.630001000000003
 30
1.262563
 70
   192
  0
VERTEX
  8
RK-SINKB
  5
375A
 10
1.383210999999999
 20
-6.630001000000003
 30
1.830303999999999
 70
   192
  0
VERTEX
  8
RK-SINKB
  5
375B
 10
3.052376999999999
 20
-5.549343000000003
 30
0.8832110000000001
 70
   192
  0
VERTEX
  8
RK-SINKB
  5
375C
 10
3.500000000000001
 20
-5.460304000000004
 30
0.8832110000000001
 70
   192
  0
VERTEX
  8
RK-SINKB
  5
375D
 10
2.672900000000002
 20
-5.802900000000004
 30
0.8832110000000001
 70
   192
  0
VERTEX
  8
RK-SINKB
  5
375E
 10
2.419342
 20
-6.182377000000002
 30
0.8832110000000001
 70
   192
  0
VERTEX
  8
RK-SINKB
  5
375F
 10
2.330303999999999
 20
-6.630001000000003
 30
0.8832110000000001
 70
   192
  0
VERTEX
  8
RK-SINKB
  5
3760
 10
3.146446
 20
-6.276447000000004
 30
0.75
 70
   192
  0
VERTEX
  8
RK-SINKB
  5
3761
 10
3.308657999999999
 20
-6.168060000000004
 30
0.75
 70
   192
  0
VERTEX
  8
RK-SINKB
  5
3762
 10
3.038059999999999
 20
-6.438659000000004
 30
0.75
 70
   192
  0
VERTEX
  8
RK-SINKB
  5
3763
 10
1.250000000000001
 20
-6.630001000000003
 30
2.5
 70
   192
  0
VERTEX
  8
RK-SINKB
  5
3764
 10
1.283625999999999
 20
-6.630001000000003
 30
2.158591999999999
 70
   192
  0
VERTEX
  8
RK-SINKB
  5
3765
 10
3.500000000000001
 20
-4.674928000000004
 30
1.527752
 70
   192
  0
VERTEX
  8
RK-SINKB
  5
3766
 10
1.544928
 20
-6.630001000000003
 30
1.527752
 70
   192
  0
VERTEX
  8
RK-SINKB
  5
3767
 10
3.500000000000001
 20
-5.157753000000003
 30
1.044927999999999
 70
   192
  0
VERTEX
  8
RK-SINKB
  5
3768
 10
2.027751999999999
 20
-6.630001000000003
 30
1.044927999999999
 70
   192
  0
VERTEX
  8
RK-SINKB
  5
3769
 10
3.500000000000001
 20
-6.130001000000003
 30
0.75
 70
   192
  0
VERTEX
  8
RK-SINKB
  5
376A
 10
3.500000000000001
 20
-5.788591000000003
 30
0.7836259999999991
 70
   192
  0
VERTEX
  8
RK-SINKB
  5
376B
 10
3.000000000000001
 20
-6.630001000000003
 30
0.75
 70
   192
  0
VERTEX
  8
RK-SINKB
  5
376C
 10
2.658592
 20
-6.630001000000003
 30
0.7836259999999991
 70
   192
  0
VERTEX
  8
RK-SINKB
  5
376D
 10
1.250000000000001
 20
-17.25
 30
2.5
 70
   192
  0
VERTEX
  8
RK-SINKB
  5
376E
 10
1.383210999999999
 20
-17.25
 30
1.830303999999999
 70
   192
  0
VERTEX
  8
RK-SINKB
  5
376F
 10
1.762562999999998
 20
-17.25
 30
1.262563
 70
   192
  0
VERTEX
  8
RK-SINKB
  5
3770
 10
2.330303999999999
 20
-17.25
 30
0.8832110000000001
 70
   192
  0
VERTEX
  8
RK-SINKB
  5
3771
 10
3.000000000000001
 20
-17.25
 30
0.75
 70
   192
  0
VERTEX
  8
RK-SINKB
  5
3772
 10
2.003203999999998
 20
-18.746796
 30
1.830303999999999
 70
   192
  0
VERTEX
  8
RK-SINKB
  5
3773
 10
1.544342
 20
-18.060061
 30
1.830303999999999
 70
   192
  0
VERTEX
  8
RK-SINKB
  5
3774
 10
1.421271
 20
-18.111038
 30
2.5
 70
   192
  0
VERTEX
  8
RK-SINKB
  5
3775
 10
1.909009999999998
 20
-18.840991
 30
2.5
 70
   192
  0
VERTEX
  8
RK-SINKB
  5
3776
 10
2.689939999999999
 20
-19.205659
 30
1.830303999999999
 70
   192
  0
VERTEX
  8
RK-SINKB
  5
3777
 10
2.638962000000001
 20
-19.328729
 30
2.5
 70
   192
  0
VERTEX
  8
RK-SINKB
  5
3778
 10
1.894816999999999
 20
-17.914889
 30
1.262563
 70
   192
  0
VERTEX
  8
RK-SINKB
  5
3779
 10
2.271446
 20
-18.478554
 30
1.262563
 70
   192
  0
VERTEX
  8
RK-SINKB
  5
377A
 10
2.835112
 20
-18.855183
 30
1.262563
 70
   192
  0
VERTEX
  8
RK-SINKB
  5
377B
 10
3.500000000000001
 20
-18.987437
 30
1.262563
 70
   192
  0
VERTEX
  8
RK-SINKB
  5
377C
 10
3.500000000000001
 20
-19.36679
 30
1.830303999999999
 70
   192
  0
VERTEX
  8
RK-SINKB
  5
377D
 10
2.419342
 20
-17.697624
 30
0.8832110000000001
 70
   192
  0
VERTEX
  8
RK-SINKB
  5
377E
 10
2.672900000000002
 20
-18.0771
 30
0.8832110000000001
 70
   192
  0
VERTEX
  8
RK-SINKB
  5
377F
 10
3.052376999999999
 20
-18.330659
 30
0.8832110000000001
 70
   192
  0
VERTEX
  8
RK-SINKB
  5
3780
 10
3.500000000000001
 20
-18.419696
 30
0.8832110000000001
 70
   192
  0
VERTEX
  8
RK-SINKB
  5
3781
 10
3.146446
 20
-17.603554
 30
0.75
 70
   192
  0
VERTEX
  8
RK-SINKB
  5
3782
 10
3.038059999999999
 20
-17.441342
 30
0.75
 70
   192
  0
VERTEX
  8
RK-SINKB
  5
3783
 10
3.308657999999999
 20
-17.71194
 30
0.75
 70
   192
  0
VERTEX
  8
RK-SINKB
  5
3784
 10
3.500000000000001
 20
-19.5
 30
2.5
 70
   192
  0
VERTEX
  8
RK-SINKB
  5
3785
 10
3.500000000000001
 20
-19.466375
 30
2.158591999999999
 70
   192
  0
VERTEX
  8
RK-SINKB
  5
3786
 10
1.544928
 20
-17.25
 30
1.527752
 70
   192
  0
VERTEX
  8
RK-SINKB
  5
3787
 10
3.500000000000001
 20
-19.205072
 30
1.527752
 70
   192
  0
VERTEX
  8
RK-SINKB
  5
3788
 10
2.027751999999999
 20
-17.25
 30
1.044927999999999
 70
   192
  0
VERTEX
  8
RK-SINKB
  5
3789
 10
3.500000000000001
 20
-18.722248
 30
1.044927999999999
 70
   192
  0
VERTEX
  8
RK-SINKB
  5
378A
 10
2.658592
 20
-17.25
 30
0.7836259999999991
 70
   192
  0
VERTEX
  8
RK-SINKB
  5
378B
 10
3.500000000000001
 20
-17.75
 30
0.75
 70
   192
  0
VERTEX
  8
RK-SINKB
  5
378C
 10
3.500000000000001
 20
-18.091409
 30
0.7836259999999991
 70
   192
  0
VERTEX
  8
RK-SINKB
  5
378D
 10
13.996796
 20
-18.746796
 30
1.830303999999999
 70
   192
  0
VERTEX
  8
RK-SINKB
  5
378E
 10
13.164888
 20
-18.855183
 30
1.262563
 70
   192
  0
VERTEX
  8
RK-SINKB
  5
378F
 10
12.5
 20
-18.987437
 30
1.262563
 70
   192
  0
VERTEX
  8
RK-SINKB
  5
3790
 10
13.728553
 20
-18.478554
 30
1.262563
 70
   192
  0
VERTEX
  8
RK-SINKB
  5
3791
 10
14.105182
 20
-17.914889
 30
1.262563
 70
   192
  0
VERTEX
  8
RK-SINKB
  5
3792
 10
14.237437
 20
-17.25
 30
1.262563
 70
   192
  0
VERTEX
  8
RK-SINKB
  5
3793
 10
12.947623
 20
-18.330659
 30
0.8832110000000001
 70
   192
  0
VERTEX
  8
RK-SINKB
  5
3794
 10
12.5
 20
-18.419696
 30
0.8832110000000001
 70
   192
  0
VERTEX
  8
RK-SINKB
  5
3795
 10
13.3271
 20
-18.0771
 30
0.8832110000000001
 70
   192
  0
VERTEX
  8
RK-SINKB
  5
3796
 10
13.580658
 20
-17.697624
 30
0.8832110000000001
 70
   192
  0
VERTEX
  8
RK-SINKB
  5
3797
 10
13.669696
 20
-17.25
 30
0.8832110000000001
 70
   192
  0
VERTEX
  8
RK-SINKB
  5
3798
 10
12.853553
 20
-17.603554
 30
0.75
 70
   192
  0
VERTEX
  8
RK-SINKB
  5
3799
 10
12.691342
 20
-17.71194
 30
0.75
 70
   192
  0
VERTEX
  8
RK-SINKB
  5
379A
 10
12.96194
 20
-17.441342
 30
0.75
 70
   192
  0
VERTEX
  8
RK-SINKB
  5
379B
 10
12.5
 20
-17.75
 30
0.75
 70
   192
  0
VERTEX
  8
RK-SINKB
  5
379C
 10
13.0
 20
-17.25
 30
0.75
 70
   192
  0
VERTEX
  8
RK-SINKB
  5
379D
 10
13.341408
 20
-17.25
 30
0.7836259999999991
 70
   192
  0
VERTEX
  8
RK-SINKB
  5
379E
 10
10.078729
 20
-11.138963
 30
0.75
 70
   192
  0
VERTEX
  8
RK-SINKB
  5
379F
 10
10.25
 20
-12.0
 30
0.75
 70
   192
  0
VERTEX
  8
RK-SINKB
  5
37A0
 10
10.078729
 20
-12.861038
 30
0.75
 70
   192
  0
VERTEX
  8
RK-SINKB
  5
37A1
 10
9.590990000000001
 20
-13.590991
 30
0.75
 70
   192
  0
VERTEX
  8
RK-SINKB
  5
37A2
 10
8.861038
 20
-14.078729
 30
0.75
 70
   192
  0
VERTEX
  8
RK-SINKB
  5
37A3
 10
8.0
 20
-14.25
 30
0.75
 70
   192
  0
VERTEX
  8
RK-SINKB
  5
37A4
 10
7.138962000000001
 20
-14.078729
 30
0.75
 70
   192
  0
VERTEX
  8
RK-SINKB
  5
37A5
 10
6.40901
 20
-13.590991
 30
0.75
 70
   192
  0
VERTEX
  8
RK-SINKB
  5
37A6
 10
5.921271
 20
-12.861038
 30
0.75
 70
   192
  0
VERTEX
  8
RK-SINKB
  5
37A7
 10
5.75
 20
-12.0
 30
0.75
 70
   192
  0
VERTEX
  8
RK-SINKB
  5
37A8
 10
5.921271
 20
-11.138963
 30
0.75
 70
   192
  0
VERTEX
  8
RK-SINKB
  5
37A9
 10
9.590990000000001
 20
-10.40901
 30
0.75
 70
   192
  0
VERTEX
  8
RK-SINKB
  5
37AA
 10
6.40901
 20
-10.40901
 30
0.75
 70
   192
  0
VERTEX
  8
RK-SINKB
  5
37AB
 10
7.138962000000001
 20
-9.921272000000005
 30
0.75
 70
   192
  0
VERTEX
  8
RK-SINKB
  5
37AC
 10
8.0
 20
-9.750000000000003
 30
0.75
 70
   192
  0
VERTEX
  8
RK-SINKB
  5
37AD
 10
8.861038
 20
-9.921272000000005
 30
0.75
 70
   192
  0
VERTEX
  8
RK-SINKB
  5
37AE
 10
1.250000000000001
 20
-6.630001000000003
 30
8.369999999999999
 70
   192
  0
VERTEX
  8
RK-SINKB
  5
37AF
 10
12.500001
 20
-19.5
 30
8.369999999999999
 70
   192
  0
VERTEX
  8
RK-SINKB
  5
37B0
 10
1.500000000000001
 20
-21.0
 30
8.299999999999998
 70
   192
  0
VERTEX
  8
RK-SINKB
  5
37B1
 10
1.500000000000001
 20
-21.0
 30
8.679999999999999
 70
   192
  0
VERTEX
  8
RK-SINKB
  5
37B2
 10
0.9259750000000011
 20
-20.88582
 30
8.679999999999999
 70
   192
  0
VERTEX
  8
RK-SINKB
  5
37B3
 10
0.9259750000000011
 20
-20.88582
 30
8.299999999999998
 70
   192
  0
VERTEX
  8
RK-SINKB
  5
37B4
 10
0.4393409999999989
 20
-20.560661
 30
8.299999999999998
 70
   192
  0
VERTEX
  8
RK-SINKB
  5
37B5
 10
0.4393409999999989
 20
-20.560661
 30
8.679999999999999
 70
   192
  0
VERTEX
  8
RK-SINKB
  5
37B6
 10
0.1141819999999996
 20
-20.074026
 30
8.679999999999999
 70
   192
  0
VERTEX
  8
RK-SINKB
  5
37B7
 10
0.1141819999999996
 20
-20.074026
 30
8.299999999999998
 70
   192
  0
VERTEX
  8
RK-SINKB
  5
37B8
 10
0.0
 20
-19.5
 30
8.679999999999999
 70
   192
  0
VERTEX
  8
RK-SINKB
  5
37B9
 10
0.0
 20
-19.5
 30
8.299999999999998
 70
   192
  0
VERTEX
  8
RK-SINKB
  5
37BA
 10
0.0
 20
-1.5
 30
8.299999999999998
 70
   192
  0
VERTEX
  8
RK-SINKB
  5
37BB
 10
0.0
 20
-1.5
 30
8.679999999999999
 70
   192
  0
VERTEX
  8
RK-SINKB
  5
37BC
 10
0.1141819999999996
 20
-0.9259760000000021
 30
8.679999999999999
 70
   192
  0
VERTEX
  8
RK-SINKB
  5
37BD
 10
0.1141819999999996
 20
-0.9259760000000021
 30
8.299999999999998
 70
   192
  0
VERTEX
  8
RK-SINKB
  5
37BE
 10
0.4393409999999989
 20
-0.4393400000000014
 30
8.299999999999998
 70
   192
  0
VERTEX
  8
RK-SINKB
  5
37BF
 10
0.4393409999999989
 20
-0.4393400000000014
 30
8.679999999999999
 70
   192
  0
VERTEX
  8
RK-SINKB
  5
37C0
 10
0.9259750000000011
 20
-0.1141810000000021
 30
8.679999999999999
 70
   192
  0
VERTEX
  8
RK-SINKB
  5
37C1
 10
0.9259750000000011
 20
-0.1141810000000021
 30
8.299999999999998
 70
   192
  0
VERTEX
  8
RK-SINKB
  5
37C2
 10
1.500000000000001
 20
0.0
 30
8.679999999999999
 70
   192
  0
VERTEX
  8
RK-SINKB
  5
37C3
 10
1.500000000000001
 20
0.0
 30
8.299999999999998
 70
   192
  0
VERTEX
  8
RK-SINKB
  5
37C4
 10
1.500000000000001
 20
-0.25
 30
8.299999999999998
 70
   192
  0
VERTEX
  8
RK-SINKB
  5
37C5
 10
0.6161159999999981
 20
-0.6161170000000063
 30
8.299999999999998
 70
   192
  0
VERTEX
  8
RK-SINKB
  5
37C6
 10
0.3451500000000003
 20
-1.021646000000004
 30
8.299999999999998
 70
   192
  0
VERTEX
  8
RK-SINKB
  5
37C7
 10
1.500000000000001
 20
-20.75
 30
8.299999999999998
 70
   192
  0
VERTEX
  8
RK-SINKB
  5
37C8
 10
0.25
 20
-1.5
 30
8.299999999999998
 70
   192
  0
VERTEX
  8
RK-SINKB
  5
37C9
 10
0.25
 20
-19.5
 30
8.299999999999998
 70
   192
  0
VERTEX
  8
RK-SINKB
  5
37CA
 10
0.6161159999999981
 20
-20.383884
 30
8.299999999999998
 70
   192
  0
VERTEX
  8
RK-SINKB
  5
37CB
 10
0.0
 20
0.0
 30
0.0
 70
   128
 71
    -3
 72
    -1
 73
    -2
  0
VERTEX
  8
RK-SINKB
  5
37CC
 10
0.0
 20
0.0
 30
0.0
 70
   128
 71
    -6
 72
    -4
 73
    -5
  0
VERTEX
  8
RK-SINKB
  5
37CD
 10
0.0
 20
0.0
 30
0.0
 70
   128
 71
    -3
 72
     2
 73
    -6
 74
     5
  0
VERTEX
  8
RK-SINKB
  5
37CE
 10
0.0
 20
0.0
 30
0.0
 70
   128
 71
    -7
 72
    -8
 73
    -9
  0
VERTEX
  8
RK-SINKB
  5
37CF
 10
0.0
 20
0.0
 30
0.0
 70
   128
 71
   -10
 72
    -9
 73
   -11
  0
VERTEX
  8
RK-SINKB
  5
37D0
 10
0.0
 20
0.0
 30
0.0
 70
   128
 71
   -12
 72
   -10
 73
   -13
  0
VERTEX
  8
RK-SINKB
  5
37D1
 10
0.0
 20
0.0
 30
0.0
 70
   128
 71
   -14
 72
   -15
 73
    -7
  0
VERTEX
  8
RK-SINKB
  5
37D2
 10
0.0
 20
0.0
 30
0.0
 70
   128
 71
    16
 72
    -9
 73
    10
  0
VERTEX
  8
RK-SINKB
  5
37D3
 10
0.0
 20
0.0
 30
0.0
 70
   128
 71
    17
 72
   -10
 73
    12
  0
VERTEX
  8
RK-SINKB
  5
37D4
 10
0.0
 20
0.0
 30
0.0
 70
   128
 71
    18
 72
   -12
 73
   -19
  0
VERTEX
  8
RK-SINKB
  5
37D5
 10
0.0
 20
0.0
 30
0.0
 70
   128
 71
    20
 72
   -18
 73
   -21
  0
VERTEX
  8
RK-SINKB
  5
37D6
 10
0.0
 20
0.0
 30
0.0
 70
   128
 71
    22
 72
   -20
 73
   -23
  0
VERTEX
  8
RK-SINKB
  5
37D7
 10
0.0
 20
0.0
 30
0.0
 70
   128
 71
    24
 72
   -14
 73
     7
  0
VERTEX
  8
RK-SINKB
  5
37D8
 10
0.0
 20
0.0
 30
0.0
 70
   128
 71
    25
 72
    -7
 73
     9
  0
VERTEX
  8
RK-SINKB
  5
37D9
 10
0.0
 20
0.0
 30
0.0
 70
   128
 71
    26
 72
   -27
 73
   -28
  0
VERTEX
  8
RK-SINKB
  5
37DA
 10
0.0
 20
0.0
 30
0.0
 70
   128
 71
   -28
 72
    29
 73
   -26
  0
VERTEX
  8
RK-SINKB
  5
37DB
 10
0.0
 20
0.0
 30
0.0
 70
   128
 71
    27
 72
   -30
 73
   -28
  0
VERTEX
  8
RK-SINKB
  5
37DC
 10
0.0
 20
0.0
 30
0.0
 70
   128
 71
   -28
 72
   -31
 73
   -29
  0
VERTEX
  8
RK-SINKB
  5
37DD
 10
0.0
 20
0.0
 30
0.0
 70
   128
 71
   -31
 72
    32
 73
   -29
  0
VERTEX
  8
RK-SINKB
  5
37DE
 10
0.0
 20
0.0
 30
0.0
 70
   128
 71
   -31
 72
   -33
 73
   -32
  0
VERTEX
  8
RK-SINKB
  5
37DF
 10
0.0
 20
0.0
 30
0.0
 70
   128
 71
   -33
 72
   -34
 73
   -32
  0
VERTEX
  8
RK-SINKB
  5
37E0
 10
0.0
 20
0.0
 30
0.0
 70
   128
 71
    30
 72
   -35
 73
   -28
  0
VERTEX
  8
RK-SINKB
  5
37E1
 10
0.0
 20
0.0
 30
0.0
 70
   128
 71
   -28
 72
    36
 73
   -31
  0
VERTEX
  8
RK-SINKB
  5
37E2
 10
0.0
 20
0.0
 30
0.0
 70
   128
 71
    31
 72
   -37
 73
   -33
  0
VERTEX
  8
RK-SINKB
  5
37E3
 10
0.0
 20
0.0
 30
0.0
 70
   128
 71
    37
 72
    38
 73
   -33
  0
VERTEX
  8
RK-SINKB
  5
37E4
 10
0.0
 20
0.0
 30
0.0
 70
   128
 71
    33
 72
    39
 73
   -34
  0
VERTEX
  8
RK-SINKB
  5
37E5
 10
0.0
 20
0.0
 30
0.0
 70
   128
 71
    34
 72
   -40
 73
   -41
  0
VERTEX
  8
RK-SINKB
  5
37E6
 10
0.0
 20
0.0
 30
0.0
 70
   128
 71
   -40
 72
    42
 73
   -41
  0
VERTEX
  8
RK-SINKB
  5
37E7
 10
0.0
 20
0.0
 30
0.0
 70
   128
 71
   -40
 72
    43
 73
   -42
  0
VERTEX
  8
RK-SINKB
  5
37E8
 10
0.0
 20
0.0
 30
0.0
 70
   128
 71
   -40
 72
    44
 73
   -43
  0
VERTEX
  8
RK-SINKB
  5
37E9
 10
0.0
 20
0.0
 30
0.0
 70
   128
 71
   -40
 72
    45
 73
   -44
  0
VERTEX
  8
RK-SINKB
  5
37EA
 10
0.0
 20
0.0
 30
0.0
 70
   128
 71
    40
 72
   -46
 73
   -45
  0
VERTEX
  8
RK-SINKB
  5
37EB
 10
0.0
 20
0.0
 30
0.0
 70
   128
 71
   -46
 72
    47
 73
   -45
  0
VERTEX
  8
RK-SINKB
  5
37EC
 10
0.0
 20
0.0
 30
0.0
 70
   128
 71
   -35
 72
    48
 73
   -28
  0
VERTEX
  8
RK-SINKB
  5
37ED
 10
0.0
 20
0.0
 30
0.0
 70
   128
 71
    28
 72
    49
 73
   -36
  0
VERTEX
  8
RK-SINKB
  5
37EE
 10
0.0
 20
0.0
 30
0.0
 70
   128
 71
   -24
 72
   -48
 73
    14
  0
VERTEX
  8
RK-SINKB
  5
37EF
 10
0.0
 20
0.0
 30
0.0
 70
   128
 71
    24
 72
    28
 73
   -48
  0
VERTEX
  8
RK-SINKB
  5
37F0
 10
0.0
 20
0.0
 30
0.0
 70
   128
 71
   -22
 72
   -46
 73
    20
  0
VERTEX
  8
RK-SINKB
  5
37F1
 10
0.0
 20
0.0
 30
0.0
 70
   128
 71
    46
 72
    40
 73
   -20
  0
VERTEX
  8
RK-SINKB
  5
37F2
 10
0.0
 20
0.0
 30
0.0
 70
   128
 71
    10
 72
    38
 73
   -37
  0
VERTEX
  8
RK-SINKB
  5
37F3
 10
0.0
 20
0.0
 30
0.0
 70
   128
 71
    37
 72
    16
 73
   -10
  0
VERTEX
  8
RK-SINKB
  5
37F4
 10
0.0
 20
0.0
 30
0.0
 70
   128
 71
    34
 72
    18
 73
   -20
  0
VERTEX
  8
RK-SINKB
  5
37F5
 10
0.0
 20
0.0
 30
0.0
 70
   128
 71
    20
 72
    40
 73
   -34
  0
VERTEX
  8
RK-SINKB
  5
37F6
 10
0.0
 20
0.0
 30
0.0
 70
   128
 71
    39
 72
   -12
 73
    34
  0
VERTEX
  8
RK-SINKB
  5
37F7
 10
0.0
 20
0.0
 30
0.0
 70
   128
 71
    12
 72
    18
 73
   -34
  0
VERTEX
  8
RK-SINKB
  5
37F8
 10
0.0
 20
0.0
 30
0.0
 70
   128
 71
   -33
 72
    12
 73
    39
  0
VERTEX
  8
RK-SINKB
  5
37F9
 10
0.0
 20
0.0
 30
0.0
 70
   128
 71
    33
 72
    17
 73
   -12
  0
VERTEX
  8
RK-SINKB
  5
37FA
 10
0.0
 20
0.0
 30
0.0
 70
   128
 71
    10
 72
    17
 73
   -33
  0
VERTEX
  8
RK-SINKB
  5
37FB
 10
0.0
 20
0.0
 30
0.0
 70
   128
 71
    33
 72
    38
 73
   -10
  0
VERTEX
  8
RK-SINKB
  5
37FC
 10
0.0
 20
0.0
 30
0.0
 70
   128
 71
    31
 72
     9
 73
   -16
  0
VERTEX
  8
RK-SINKB
  5
37FD
 10
0.0
 20
0.0
 30
0.0
 70
   128
 71
    16
 72
    37
 73
   -31
  0
VERTEX
  8
RK-SINKB
  5
37FE
 10
0.0
 20
0.0
 30
0.0
 70
   128
 71
    36
 72
   -25
 73
    31
  0
VERTEX
  8
RK-SINKB
  5
37FF
 10
0.0
 20
0.0
 30
0.0
 70
   128
 71
    25
 72
     9
 73
   -31
  0
VERTEX
  8
RK-SINKB
  5
3800
 10
0.0
 20
0.0
 30
0.0
 70
   128
 71
   -49
 72
    25
 73
    36
  0
VERTEX
  8
RK-SINKB
  5
3801
 10
0.0
 20
0.0
 30
0.0
 70
   128
 71
    49
 72
     7
 73
   -25
  0
VERTEX
  8
RK-SINKB
  5
3802
 10
0.0
 20
0.0
 30
0.0
 70
   128
 71
    24
 72
     7
 73
   -49
  0
VERTEX
  8
RK-SINKB
  5
3803
 10
0.0
 20
0.0
 30
0.0
 70
   128
 71
    49
 72
    28
 73
   -24
  0
VERTEX
  8
RK-SINKB
  5
3804
 10
0.0
 20
0.0
 30
0.0
 70
   128
 71
   -50
 72
   -51
 73
   -52
  0
VERTEX
  8
RK-SINKB
  5
3805
 10
0.0
 20
0.0
 30
0.0
 70
   128
 71
    53
 72
   -52
 73
   -51
  0
VERTEX
  8
RK-SINKB
  5
3806
 10
0.0
 20
0.0
 30
0.0
 70
   128
 71
   -54
 72
   -51
 73
   -50
  0
VERTEX
  8
RK-SINKB
  5
3807
 10
0.0
 20
0.0
 30
0.0
 70
   128
 71
    55
 72
   -50
 73
   -52
  0
VERTEX
  8
RK-SINKB
  5
3808
 10
0.0
 20
0.0
 30
0.0
 70
   128
 71
    56
 72
   -53
 73
    51
  0
VERTEX
  8
RK-SINKB
  5
3809
 10
0.0
 20
0.0
 30
0.0
 70
   128
 71
    57
 72
   -51
 73
    54
  0
VERTEX
  8
RK-SINKB
  5
380A
 10
0.0
 20
0.0
 30
0.0
 70
   128
 71
   -58
 72
   -54
 73
    50
  0
VERTEX
  8
RK-SINKB
  5
380B
 10
0.0
 20
0.0
 30
0.0
 70
   128
 71
   -59
 72
   -54
 73
    58
  0
VERTEX
  8
RK-SINKB
  5
380C
 10
0.0
 20
0.0
 30
0.0
 70
   128
 71
    60
 72
   -54
 73
    59
  0
VERTEX
  8
RK-SINKB
  5
380D
 10
0.0
 20
0.0
 30
0.0
 70
   128
 71
    61
 72
   -62
 73
    63
  0
VERTEX
  8
RK-SINKB
  5
380E
 10
0.0
 20
0.0
 30
0.0
 70
   128
 71
    64
 72
   -63
 73
    62
  0
VERTEX
  8
RK-SINKB
  5
380F
 10
0.0
 20
0.0
 30
0.0
 70
   128
 71
   -65
 72
   -66
 73
    67
  0
VERTEX
  8
RK-SINKB
  5
3810
 10
0.0
 20
0.0
 30
0.0
 70
   128
 71
    68
 72
   -67
 73
    66
  0
VERTEX
  8
RK-SINKB
  5
3811
 10
0.0
 20
0.0
 30
0.0
 70
   128
 71
    69
 72
   -66
 73
    65
  0
VERTEX
  8
RK-SINKB
  5
3812
 10
0.0
 20
0.0
 30
0.0
 70
   128
 71
   -70
 72
    63
 73
    64
  0
VERTEX
  8
RK-SINKB
  5
3813
 10
0.0
 20
0.0
 30
0.0
 70
   128
 71
    71
 72
   -63
 73
    70
  0
VERTEX
  8
RK-SINKB
  5
3814
 10
0.0
 20
0.0
 30
0.0
 70
   128
 71
    72
 72
   -73
 73
    70
  0
VERTEX
  8
RK-SINKB
  5
3815
 10
0.0
 20
0.0
 30
0.0
 70
   128
 71
    71
 72
   -70
 73
    73
  0
VERTEX
  8
RK-SINKB
  5
3816
 10
0.0
 20
0.0
 30
0.0
 70
   128
 71
    74
 72
   -73
 73
    75
  0
VERTEX
  8
RK-SINKB
  5
3817
 10
0.0
 20
0.0
 30
0.0
 70
   128
 71
    72
 72
   -75
 73
    73
  0
VERTEX
  8
RK-SINKB
  5
3818
 10
0.0
 20
0.0
 30
0.0
 70
   128
 71
    66
 72
    74
 73
   -75
  0
VERTEX
  8
RK-SINKB
  5
3819
 10
0.0
 20
0.0
 30
0.0
 70
   128
 71
    68
 72
   -66
 73
    75
  0
VERTEX
  8
RK-SINKB
  5
381A
 10
0.0
 20
0.0
 30
0.0
 70
   128
 71
    60
 72
   -76
 73
    67
  0
VERTEX
  8
RK-SINKB
  5
381B
 10
0.0
 20
0.0
 30
0.0
 70
   128
 71
   -77
 72
   -78
 73
   -79
  0
VERTEX
  8
RK-SINKB
  5
381C
 10
0.0
 20
0.0
 30
0.0
 70
   128
 71
    80
 72
   -79
 73
   -78
  0
VERTEX
  8
RK-SINKB
  5
381D
 10
0.0
 20
0.0
 30
0.0
 70
   128
 71
    81
 72
   -80
 73
   -78
  0
VERTEX
  8
RK-SINKB
  5
381E
 10
0.0
 20
0.0
 30
0.0
 70
   128
 71
   -82
 72
   -77
 73
    79
  0
VERTEX
  8
RK-SINKB
  5
381F
 10
0.0
 20
0.0
 30
0.0
 70
   128
 71
   -83
 72
   -77
 73
    82
  0
VERTEX
  8
RK-SINKB
  5
3820
 10
0.0
 20
0.0
 30
0.0
 70
   128
 71
   -84
 72
   -77
 73
    83
  0
VERTEX
  8
RK-SINKB
  5
3821
 10
0.0
 20
0.0
 30
0.0
 70
   128
 71
    85
 72
   -81
 73
   -78
  0
VERTEX
  8
RK-SINKB
  5
3822
 10
0.0
 20
0.0
 30
0.0
 70
   128
 71
   -86
 72
   -85
 73
   -78
  0
VERTEX
  8
RK-SINKB
  5
3823
 10
0.0
 20
0.0
 30
0.0
 70
   128
 71
   -87
 72
   -78
 73
   -77
  0
VERTEX
  8
RK-SINKB
  5
3824
 10
0.0
 20
0.0
 30
0.0
 70
   128
 71
   -88
 72
   -77
 73
   -84
  0
VERTEX
  8
RK-SINKB
  5
3825
 10
0.0
 20
0.0
 30
0.0
 70
   128
 71
   -89
 72
   -88
 73
   -84
  0
VERTEX
  8
RK-SINKB
  5
3826
 10
0.0
 20
0.0
 30
0.0
 70
   128
 71
   -90
 72
   -89
 73
   -84
  0
VERTEX
  8
RK-SINKB
  5
3827
 10
0.0
 20
0.0
 30
0.0
 70
   128
 71
   -91
 72
   -90
 73
    84
  0
VERTEX
  8
RK-SINKB
  5
3828
 10
0.0
 20
0.0
 30
0.0
 70
   128
 71
   -92
 72
   -90
 73
    91
  0
VERTEX
  8
RK-SINKB
  5
3829
 10
0.0
 20
0.0
 30
0.0
 70
   128
 71
   -93
 72
   -90
 73
    92
  0
VERTEX
  8
RK-SINKB
  5
382A
 10
0.0
 20
0.0
 30
0.0
 70
   128
 71
   -94
 72
   -90
 73
    93
  0
VERTEX
  8
RK-SINKB
  5
382B
 10
0.0
 20
0.0
 30
0.0
 70
   128
 71
   -95
 72
   -85
 73
   -86
  0
VERTEX
  8
RK-SINKB
  5
382C
 10
0.0
 20
0.0
 30
0.0
 70
   128
 71
    96
 72
   -78
 73
    87
  0
VERTEX
  8
RK-SINKB
  5
382D
 10
0.0
 20
0.0
 30
0.0
 70
   128
 71
    97
 72
   -77
 73
    88
  0
VERTEX
  8
RK-SINKB
  5
382E
 10
0.0
 20
0.0
 30
0.0
 70
   128
 71
    98
 72
   -90
 73
   -94
  0
VERTEX
  8
RK-SINKB
  5
382F
 10
0.0
 20
0.0
 30
0.0
 70
   128
 71
    99
 72
   -98
 73
   -94
  0
VERTEX
  8
RK-SINKB
  5
3830
 10
0.0
 20
0.0
 30
0.0
 70
   128
 71
   100
 72
   -99
 73
   -94
  0
VERTEX
  8
RK-SINKB
  5
3831
 10
0.0
 20
0.0
 30
0.0
 70
   128
 71
   101
 72
  -100
 73
   -94
  0
VERTEX
  8
RK-SINKB
  5
3832
 10
0.0
 20
0.0
 30
0.0
 70
   128
 71
   102
 72
  -101
 73
   -94
  0
VERTEX
  8
RK-SINKB
  5
3833
 10
0.0
 20
0.0
 30
0.0
 70
   128
 71
  -103
 72
  -102
 73
    94
  0
VERTEX
  8
RK-SINKB
  5
3834
 10
0.0
 20
0.0
 30
0.0
 70
   128
 71
  -104
 72
  -102
 73
   103
  0
VERTEX
  8
RK-SINKB
  5
3835
 10
0.0
 20
0.0
 30
0.0
 70
   128
 71
  -105
 72
  -102
 73
   104
  0
VERTEX
  8
RK-SINKB
  5
3836
 10
0.0
 20
0.0
 30
0.0
 70
   128
 71
  -106
 72
  -102
 73
   105
  0
VERTEX
  8
RK-SINKB
  5
3837
 10
0.0
 20
0.0
 30
0.0
 70
   128
 71
    95
 72
  -102
 73
  -106
  0
VERTEX
  8
RK-SINKB
  5
3838
 10
0.0
 20
0.0
 30
0.0
 70
   128
 71
  -107
 72
   -95
 73
   106
  0
VERTEX
  8
RK-SINKB
  5
3839
 10
0.0
 20
0.0
 30
0.0
 70
   128
 71
   107
 72
   -85
 73
   -95
  0
VERTEX
  8
RK-SINKB
  5
383A
 10
0.0
 20
0.0
 30
0.0
 70
   128
 71
   108
 72
  -109
 73
   110
  0
VERTEX
  8
RK-SINKB
  5
383B
 10
0.0
 20
0.0
 30
0.0
 70
   128
 71
   111
 72
  -110
 73
   109
  0
VERTEX
  8
RK-SINKB
  5
383C
 10
0.0
 20
0.0
 30
0.0
 70
   128
 71
   -65
 72
   112
 73
    69
  0
VERTEX
  8
RK-SINKB
  5
383D
 10
0.0
 20
0.0
 30
0.0
 70
   128
 71
   113
 72
  -112
 73
    65
  0
VERTEX
  8
RK-SINKB
  5
383E
 10
0.0
 20
0.0
 30
0.0
 70
   128
 71
   113
 72
  -114
 73
   112
  0
VERTEX
  8
RK-SINKB
  5
383F
 10
0.0
 20
0.0
 30
0.0
 70
   128
 71
   115
 72
  -112
 73
   114
  0
VERTEX
  8
RK-SINKB
  5
3840
 10
0.0
 20
0.0
 30
0.0
 70
   128
 71
   116
 72
  -117
 73
   114
  0
VERTEX
  8
RK-SINKB
  5
3841
 10
0.0
 20
0.0
 30
0.0
 70
   128
 71
   115
 72
  -114
 73
   117
  0
VERTEX
  8
RK-SINKB
  5
3842
 10
0.0
 20
0.0
 30
0.0
 70
   128
 71
   118
 72
   119
 73
  -117
  0
VERTEX
  8
RK-SINKB
  5
3843
 10
0.0
 20
0.0
 30
0.0
 70
   128
 71
   116
 72
  -118
 73
   117
  0
VERTEX
  8
RK-SINKB
  5
3844
 10
0.0
 20
0.0
 30
0.0
 70
   128
 71
  -120
 72
    90
 73
    98
  0
VERTEX
  8
RK-SINKB
  5
3845
 10
0.0
 20
0.0
 30
0.0
 70
   128
 71
   121
 72
   -90
 73
   120
  0
VERTEX
  8
RK-SINKB
  5
3846
 10
0.0
 20
0.0
 30
0.0
 70
   128
 71
   120
 72
  -122
 73
   121
  0
VERTEX
  8
RK-SINKB
  5
3847
 10
0.0
 20
0.0
 30
0.0
 70
   128
 71
   123
 72
  -121
 73
   122
  0
VERTEX
  8
RK-SINKB
  5
3848
 10
0.0
 20
0.0
 30
0.0
 70
   128
 71
   124
 72
  -125
 73
   122
  0
VERTEX
  8
RK-SINKB
  5
3849
 10
0.0
 20
0.0
 30
0.0
 70
   128
 71
   123
 72
  -122
 73
   125
  0
VERTEX
  8
RK-SINKB
  5
384A
 10
0.0
 20
0.0
 30
0.0
 70
   128
 71
    61
 72
    63
 73
  -125
  0
VERTEX
  8
RK-SINKB
  5
384B
 10
0.0
 20
0.0
 30
0.0
 70
   128
 71
   124
 72
   -61
 73
   125
  0
VERTEX
  8
RK-SINKB
  5
384C
 10
0.0
 20
0.0
 30
0.0
 70
   128
 71
  -126
 72
   102
 73
    95
  0
VERTEX
  8
RK-SINKB
  5
384D
 10
0.0
 20
0.0
 30
0.0
 70
   128
 71
   127
 72
  -102
 73
   126
  0
VERTEX
  8
RK-SINKB
  5
384E
 10
0.0
 20
0.0
 30
0.0
 70
   128
 71
   128
 72
  -129
 73
   126
  0
VERTEX
  8
RK-SINKB
  5
384F
 10
0.0
 20
0.0
 30
0.0
 70
   128
 71
   127
 72
  -126
 73
   129
  0
VERTEX
  8
RK-SINKB
  5
3850
 10
0.0
 20
0.0
 30
0.0
 70
   128
 71
   130
 72
  -129
 73
   131
  0
VERTEX
  8
RK-SINKB
  5
3851
 10
0.0
 20
0.0
 30
0.0
 70
   128
 71
   128
 72
  -131
 73
   129
  0
VERTEX
  8
RK-SINKB
  5
3852
 10
0.0
 20
0.0
 30
0.0
 70
   128
 71
   109
 72
   130
 73
  -131
  0
VERTEX
  8
RK-SINKB
  5
3853
 10
0.0
 20
0.0
 30
0.0
 70
   128
 71
   111
 72
  -109
 73
   131
  0
VERTEX
  8
RK-SINKB
  5
3854
 10
0.0
 20
0.0
 30
0.0
 70
   128
 71
   102
 72
   132
 73
   127
  0
VERTEX
  8
RK-SINKB
  5
3855
 10
0.0
 20
0.0
 30
0.0
 70
   128
 71
  -127
 72
   101
 73
   102
  0
VERTEX
  8
RK-SINKB
  5
3856
 10
0.0
 20
0.0
 30
0.0
 70
   128
 71
   127
 72
   133
 73
  -101
  0
VERTEX
  8
RK-SINKB
  5
3857
 10
0.0
 20
0.0
 30
0.0
 70
   128
 71
   120
 72
    98
 73
   -99
  0
VERTEX
  8
RK-SINKB
  5
3858
 10
0.0
 20
0.0
 30
0.0
 70
   128
 71
    99
 72
   134
 73
  -120
  0
VERTEX
  8
RK-SINKB
  5
3859
 10
0.0
 20
0.0
 30
0.0
 70
   128
 71
   133
 72
  -135
 73
   101
  0
VERTEX
  8
RK-SINKB
  5
385A
 10
0.0
 20
0.0
 30
0.0
 70
   128
 71
   135
 72
   100
 73
  -101
  0
VERTEX
  8
RK-SINKB
  5
385B
 10
0.0
 20
0.0
 30
0.0
 70
   128
 71
   135
 72
  -134
 73
   100
  0
VERTEX
  8
RK-SINKB
  5
385C
 10
0.0
 20
0.0
 30
0.0
 70
   128
 71
   134
 72
    99
 73
  -100
  0
VERTEX
  8
RK-SINKB
  5
385D
 10
0.0
 20
0.0
 30
0.0
 70
   128
 71
   129
 72
  -136
 73
   127
  0
VERTEX
  8
RK-SINKB
  5
385E
 10
0.0
 20
0.0
 30
0.0
 70
   128
 71
   136
 72
   133
 73
  -127
  0
VERTEX
  8
RK-SINKB
  5
385F
 10
0.0
 20
0.0
 30
0.0
 70
   128
 71
   136
 72
  -137
 73
   133
  0
VERTEX
  8
RK-SINKB
  5
3860
 10
0.0
 20
0.0
 30
0.0
 70
   128
 71
   137
 72
   135
 73
  -133
  0
VERTEX
  8
RK-SINKB
  5
3861
 10
0.0
 20
0.0
 30
0.0
 70
   128
 71
   137
 72
  -138
 73
   135
  0
VERTEX
  8
RK-SINKB
  5
3862
 10
0.0
 20
0.0
 30
0.0
 70
   128
 71
   138
 72
   134
 73
  -135
  0
VERTEX
  8
RK-SINKB
  5
3863
 10
0.0
 20
0.0
 30
0.0
 70
   128
 71
   138
 72
  -122
 73
   134
  0
VERTEX
  8
RK-SINKB
  5
3864
 10
0.0
 20
0.0
 30
0.0
 70
   128
 71
   122
 72
   120
 73
  -134
  0
VERTEX
  8
RK-SINKB
  5
3865
 10
0.0
 20
0.0
 30
0.0
 70
   128
 71
   130
 72
  -139
 73
   129
  0
VERTEX
  8
RK-SINKB
  5
3866
 10
0.0
 20
0.0
 30
0.0
 70
   128
 71
   139
 72
   136
 73
  -129
  0
VERTEX
  8
RK-SINKB
  5
3867
 10
0.0
 20
0.0
 30
0.0
 70
   128
 71
   139
 72
  -140
 73
   136
  0
VERTEX
  8
RK-SINKB
  5
3868
 10
0.0
 20
0.0
 30
0.0
 70
   128
 71
   140
 72
   137
 73
  -136
  0
VERTEX
  8
RK-SINKB
  5
3869
 10
0.0
 20
0.0
 30
0.0
 70
   128
 71
   140
 72
  -141
 73
   137
  0
VERTEX
  8
RK-SINKB
  5
386A
 10
0.0
 20
0.0
 30
0.0
 70
   128
 71
   141
 72
   138
 73
  -137
  0
VERTEX
  8
RK-SINKB
  5
386B
 10
0.0
 20
0.0
 30
0.0
 70
   128
 71
   141
 72
  -124
 73
   138
  0
VERTEX
  8
RK-SINKB
  5
386C
 10
0.0
 20
0.0
 30
0.0
 70
   128
 71
   124
 72
   122
 73
  -138
  0
VERTEX
  8
RK-SINKB
  5
386D
 10
0.0
 20
0.0
 30
0.0
 70
   128
 71
   142
 72
  -143
 73
   139
  0
VERTEX
  8
RK-SINKB
  5
386E
 10
0.0
 20
0.0
 30
0.0
 70
   128
 71
   143
 72
   140
 73
  -139
  0
VERTEX
  8
RK-SINKB
  5
386F
 10
0.0
 20
0.0
 30
0.0
 70
   128
 71
   143
 72
  -144
 73
   140
  0
VERTEX
  8
RK-SINKB
  5
3870
 10
0.0
 20
0.0
 30
0.0
 70
   128
 71
   144
 72
   141
 73
  -140
  0
VERTEX
  8
RK-SINKB
  5
3871
 10
0.0
 20
0.0
 30
0.0
 70
   128
 71
    90
 72
   145
 73
   121
  0
VERTEX
  8
RK-SINKB
  5
3872
 10
0.0
 20
0.0
 30
0.0
 70
   128
 71
  -121
 72
   146
 73
    90
  0
VERTEX
  8
RK-SINKB
  5
3873
 10
0.0
 20
0.0
 30
0.0
 70
   128
 71
   121
 72
   147
 73
  -146
  0
VERTEX
  8
RK-SINKB
  5
3874
 10
0.0
 20
0.0
 30
0.0
 70
   128
 71
   148
 72
    88
 73
  -149
  0
VERTEX
  8
RK-SINKB
  5
3875
 10
0.0
 20
0.0
 30
0.0
 70
   128
 71
   149
 72
   150
 73
  -148
  0
VERTEX
  8
RK-SINKB
  5
3876
 10
0.0
 20
0.0
 30
0.0
 70
   128
 71
   151
 72
    88
 73
   148
  0
VERTEX
  8
RK-SINKB
  5
3877
 10
0.0
 20
0.0
 30
0.0
 70
   128
 71
   152
 72
   123
 73
   121
  0
VERTEX
  8
RK-SINKB
  5
3878
 10
0.0
 20
0.0
 30
0.0
 70
   128
 71
   153
 72
   154
 73
   148
  0
VERTEX
  8
RK-SINKB
  5
3879
 10
0.0
 20
0.0
 30
0.0
 70
   128
 71
   155
 72
   123
 73
   125
  0
VERTEX
  8
RK-SINKB
  5
387A
 10
0.0
 20
0.0
 30
0.0
 70
   128
 71
   156
 72
   153
 73
   157
  0
VERTEX
  8
RK-SINKB
  5
387B
 10
0.0
 20
0.0
 30
0.0
 70
   128
 71
    63
 72
   125
 73
   158
  0
VERTEX
  8
RK-SINKB
  5
387C
 10
0.0
 20
0.0
 30
0.0
 70
   128
 71
    63
 72
    71
 73
  -159
  0
VERTEX
  8
RK-SINKB
  5
387D
 10
0.0
 20
0.0
 30
0.0
 70
   128
 71
   159
 72
   125
 73
   -63
  0
VERTEX
  8
RK-SINKB
  5
387E
 10
0.0
 20
0.0
 30
0.0
 70
   128
 71
    74
 72
   -66
 73
   160
  0
VERTEX
  8
RK-SINKB
  5
387F
 10
0.0
 20
0.0
 30
0.0
 70
   128
 71
    66
 72
   157
 73
  -160
  0
VERTEX
  8
RK-SINKB
  5
3880
 10
0.0
 20
0.0
 30
0.0
 70
   128
 71
   147
 72
  -161
 73
   146
  0
VERTEX
  8
RK-SINKB
  5
3881
 10
0.0
 20
0.0
 30
0.0
 70
   128
 71
   161
 72
    89
 73
  -146
  0
VERTEX
  8
RK-SINKB
  5
3882
 10
0.0
 20
0.0
 30
0.0
 70
   128
 71
   161
 72
  -150
 73
    89
  0
VERTEX
  8
RK-SINKB
  5
3883
 10
0.0
 20
0.0
 30
0.0
 70
   128
 71
   150
 72
   149
 73
   -89
  0
VERTEX
  8
RK-SINKB
  5
3884
 10
0.0
 20
0.0
 30
0.0
 70
   128
 71
   123
 72
  -162
 73
   121
  0
VERTEX
  8
RK-SINKB
  5
3885
 10
0.0
 20
0.0
 30
0.0
 70
   128
 71
   162
 72
   147
 73
  -121
  0
VERTEX
  8
RK-SINKB
  5
3886
 10
0.0
 20
0.0
 30
0.0
 70
   128
 71
   162
 72
  -163
 73
   147
  0
VERTEX
  8
RK-SINKB
  5
3887
 10
0.0
 20
0.0
 30
0.0
 70
   128
 71
   163
 72
   161
 73
  -147
  0
VERTEX
  8
RK-SINKB
  5
3888
 10
0.0
 20
0.0
 30
0.0
 70
   128
 71
   163
 72
  -164
 73
   161
  0
VERTEX
  8
RK-SINKB
  5
3889
 10
0.0
 20
0.0
 30
0.0
 70
   128
 71
   164
 72
   150
 73
  -161
  0
VERTEX
  8
RK-SINKB
  5
388A
 10
0.0
 20
0.0
 30
0.0
 70
   128
 71
   164
 72
  -153
 73
   150
  0
VERTEX
  8
RK-SINKB
  5
388B
 10
0.0
 20
0.0
 30
0.0
 70
   128
 71
   153
 72
   148
 73
  -150
  0
VERTEX
  8
RK-SINKB
  5
388C
 10
0.0
 20
0.0
 30
0.0
 70
   128
 71
   125
 72
  -159
 73
   123
  0
VERTEX
  8
RK-SINKB
  5
388D
 10
0.0
 20
0.0
 30
0.0
 70
   128
 71
   159
 72
   162
 73
  -123
  0
VERTEX
  8
RK-SINKB
  5
388E
 10
0.0
 20
0.0
 30
0.0
 70
   128
 71
   159
 72
  -165
 73
   162
  0
VERTEX
  8
RK-SINKB
  5
388F
 10
0.0
 20
0.0
 30
0.0
 70
   128
 71
   165
 72
   163
 73
  -162
  0
VERTEX
  8
RK-SINKB
  5
3890
 10
0.0
 20
0.0
 30
0.0
 70
   128
 71
   165
 72
  -160
 73
   163
  0
VERTEX
  8
RK-SINKB
  5
3891
 10
0.0
 20
0.0
 30
0.0
 70
   128
 71
   160
 72
   164
 73
  -163
  0
VERTEX
  8
RK-SINKB
  5
3892
 10
0.0
 20
0.0
 30
0.0
 70
   128
 71
   160
 72
  -157
 73
   164
  0
VERTEX
  8
RK-SINKB
  5
3893
 10
0.0
 20
0.0
 30
0.0
 70
   128
 71
   157
 72
   153
 73
  -164
  0
VERTEX
  8
RK-SINKB
  5
3894
 10
0.0
 20
0.0
 30
0.0
 70
   128
 71
    71
 72
   -73
 73
   159
  0
VERTEX
  8
RK-SINKB
  5
3895
 10
0.0
 20
0.0
 30
0.0
 70
   128
 71
    73
 72
   165
 73
  -159
  0
VERTEX
  8
RK-SINKB
  5
3896
 10
0.0
 20
0.0
 30
0.0
 70
   128
 71
    73
 72
   -74
 73
   165
  0
VERTEX
  8
RK-SINKB
  5
3897
 10
0.0
 20
0.0
 30
0.0
 70
   128
 71
    74
 72
   160
 73
  -165
  0
VERTEX
  8
RK-SINKB
  5
3898
 10
0.0
 20
0.0
 30
0.0
 70
   128
 71
   -96
 72
   166
 73
    78
  0
VERTEX
  8
RK-SINKB
  5
3899
 10
0.0
 20
0.0
 30
0.0
 70
   128
 71
   167
 72
  -166
 73
    96
  0
VERTEX
  8
RK-SINKB
  5
389A
 10
0.0
 20
0.0
 30
0.0
 70
   128
 71
   167
 72
  -168
 73
   166
  0
VERTEX
  8
RK-SINKB
  5
389B
 10
0.0
 20
0.0
 30
0.0
 70
   128
 71
   169
 72
  -166
 73
   168
  0
VERTEX
  8
RK-SINKB
  5
389C
 10
0.0
 20
0.0
 30
0.0
 70
   128
 71
   170
 72
  -171
 73
   168
  0
VERTEX
  8
RK-SINKB
  5
389D
 10
0.0
 20
0.0
 30
0.0
 70
   128
 71
   169
 72
  -168
 73
   171
  0
VERTEX
  8
RK-SINKB
  5
389E
 10
0.0
 20
0.0
 30
0.0
 70
   128
 71
   119
 72
   172
 73
  -171
  0
VERTEX
  8
RK-SINKB
  5
389F
 10
0.0
 20
0.0
 30
0.0
 70
   128
 71
   170
 72
  -119
 73
   171
  0
VERTEX
  8
RK-SINKB
  5
38A0
 10
0.0
 20
0.0
 30
0.0
 70
   128
 71
   -88
 72
   173
 73
    97
  0
VERTEX
  8
RK-SINKB
  5
38A1
 10
0.0
 20
0.0
 30
0.0
 70
   128
 71
   148
 72
  -173
 73
    88
  0
VERTEX
  8
RK-SINKB
  5
38A2
 10
0.0
 20
0.0
 30
0.0
 70
   128
 71
   148
 72
  -153
 73
   173
  0
VERTEX
  8
RK-SINKB
  5
38A3
 10
0.0
 20
0.0
 30
0.0
 70
   128
 71
   174
 72
  -173
 73
   153
  0
VERTEX
  8
RK-SINKB
  5
38A4
 10
0.0
 20
0.0
 30
0.0
 70
   128
 71
   157
 72
  -175
 73
   153
  0
VERTEX
  8
RK-SINKB
  5
38A5
 10
0.0
 20
0.0
 30
0.0
 70
   128
 71
   174
 72
  -153
 73
   175
  0
VERTEX
  8
RK-SINKB
  5
38A6
 10
0.0
 20
0.0
 30
0.0
 70
   128
 71
    66
 72
    69
 73
  -175
  0
VERTEX
  8
RK-SINKB
  5
38A7
 10
0.0
 20
0.0
 30
0.0
 70
   128
 71
   157
 72
   -66
 73
   175
  0
VERTEX
  8
RK-SINKB
  5
38A8
 10
0.0
 20
0.0
 30
0.0
 70
   128
 71
   176
 72
    97
 73
   173
  0
VERTEX
  8
RK-SINKB
  5
38A9
 10
0.0
 20
0.0
 30
0.0
 70
   128
 71
   173
 72
   177
 73
   -77
  0
VERTEX
  8
RK-SINKB
  5
38AA
 10
0.0
 20
0.0
 30
0.0
 70
   128
 71
    77
 72
    97
 73
  -173
  0
VERTEX
  8
RK-SINKB
  5
38AB
 10
0.0
 20
0.0
 30
0.0
 70
   128
 71
   178
 72
  -167
 73
    87
  0
VERTEX
  8
RK-SINKB
  5
38AC
 10
0.0
 20
0.0
 30
0.0
 70
   128
 71
   167
 72
    96
 73
   -87
  0
VERTEX
  8
RK-SINKB
  5
38AD
 10
0.0
 20
0.0
 30
0.0
 70
   128
 71
   179
 72
    96
 73
   167
  0
VERTEX
  8
RK-SINKB
  5
38AE
 10
0.0
 20
0.0
 30
0.0
 70
   128
 71
   180
 72
   173
 73
   174
  0
VERTEX
  8
RK-SINKB
  5
38AF
 10
0.0
 20
0.0
 30
0.0
 70
   128
 71
   168
 72
   181
 73
   167
  0
VERTEX
  8
RK-SINKB
  5
38B0
 10
0.0
 20
0.0
 30
0.0
 70
   128
 71
   182
 72
   174
 73
   175
  0
VERTEX
  8
RK-SINKB
  5
38B1
 10
0.0
 20
0.0
 30
0.0
 70
   128
 71
   170
 72
   183
 73
   168
  0
VERTEX
  8
RK-SINKB
  5
38B2
 10
0.0
 20
0.0
 30
0.0
 70
   128
 71
    69
 72
   184
 73
   175
  0
VERTEX
  8
RK-SINKB
  5
38B3
 10
0.0
 20
0.0
 30
0.0
 70
   128
 71
   -69
 72
   185
 73
   175
  0
VERTEX
  8
RK-SINKB
  5
38B4
 10
0.0
 20
0.0
 30
0.0
 70
   128
 71
    69
 72
   112
 73
  -185
  0
VERTEX
  8
RK-SINKB
  5
38B5
 10
0.0
 20
0.0
 30
0.0
 70
   128
 71
   170
 72
   186
 73
  -117
  0
VERTEX
  8
RK-SINKB
  5
38B6
 10
0.0
 20
0.0
 30
0.0
 70
   128
 71
   117
 72
   119
 73
  -170
  0
VERTEX
  8
RK-SINKB
  5
38B7
 10
0.0
 20
0.0
 30
0.0
 70
   128
 71
   177
 72
  -187
 73
    77
  0
VERTEX
  8
RK-SINKB
  5
38B8
 10
0.0
 20
0.0
 30
0.0
 70
   128
 71
   187
 72
   188
 73
   -77
  0
VERTEX
  8
RK-SINKB
  5
38B9
 10
0.0
 20
0.0
 30
0.0
 70
   128
 71
   187
 72
  -178
 73
   188
  0
VERTEX
  8
RK-SINKB
  5
38BA
 10
0.0
 20
0.0
 30
0.0
 70
   128
 71
   178
 72
    87
 73
  -188
  0
VERTEX
  8
RK-SINKB
  5
38BB
 10
0.0
 20
0.0
 30
0.0
 70
   128
 71
   174
 72
  -189
 73
   173
  0
VERTEX
  8
RK-SINKB
  5
38BC
 10
0.0
 20
0.0
 30
0.0
 70
   128
 71
   189
 72
   177
 73
  -173
  0
VERTEX
  8
RK-SINKB
  5
38BD
 10
0.0
 20
0.0
 30
0.0
 70
   128
 71
   189
 72
  -190
 73
   177
  0
VERTEX
  8
RK-SINKB
  5
38BE
 10
0.0
 20
0.0
 30
0.0
 70
   128
 71
   190
 72
   187
 73
  -177
  0
VERTEX
  8
RK-SINKB
  5
38BF
 10
0.0
 20
0.0
 30
0.0
 70
   128
 71
   190
 72
  -191
 73
   187
  0
VERTEX
  8
RK-SINKB
  5
38C0
 10
0.0
 20
0.0
 30
0.0
 70
   128
 71
   191
 72
   178
 73
  -187
  0
VERTEX
  8
RK-SINKB
  5
38C1
 10
0.0
 20
0.0
 30
0.0
 70
   128
 71
   191
 72
  -168
 73
   178
  0
VERTEX
  8
RK-SINKB
  5
38C2
 10
0.0
 20
0.0
 30
0.0
 70
   128
 71
   168
 72
   167
 73
  -178
  0
VERTEX
  8
RK-SINKB
  5
38C3
 10
0.0
 20
0.0
 30
0.0
 70
   128
 71
   175
 72
  -185
 73
   174
  0
VERTEX
  8
RK-SINKB
  5
38C4
 10
0.0
 20
0.0
 30
0.0
 70
   128
 71
   185
 72
   189
 73
  -174
  0
VERTEX
  8
RK-SINKB
  5
38C5
 10
0.0
 20
0.0
 30
0.0
 70
   128
 71
   185
 72
  -192
 73
   189
  0
VERTEX
  8
RK-SINKB
  5
38C6
 10
0.0
 20
0.0
 30
0.0
 70
   128
 71
   192
 72
   190
 73
  -189
  0
VERTEX
  8
RK-SINKB
  5
38C7
 10
0.0
 20
0.0
 30
0.0
 70
   128
 71
   192
 72
  -186
 73
   190
  0
VERTEX
  8
RK-SINKB
  5
38C8
 10
0.0
 20
0.0
 30
0.0
 70
   128
 71
   186
 72
   191
 73
  -190
  0
VERTEX
  8
RK-SINKB
  5
38C9
 10
0.0
 20
0.0
 30
0.0
 70
   128
 71
   186
 72
  -170
 73
   191
  0
VERTEX
  8
RK-SINKB
  5
38CA
 10
0.0
 20
0.0
 30
0.0
 70
   128
 71
   170
 72
   168
 73
  -191
  0
VERTEX
  8
RK-SINKB
  5
38CB
 10
0.0
 20
0.0
 30
0.0
 70
   128
 71
   112
 72
  -115
 73
   185
  0
VERTEX
  8
RK-SINKB
  5
38CC
 10
0.0
 20
0.0
 30
0.0
 70
   128
 71
   115
 72
   192
 73
  -185
  0
VERTEX
  8
RK-SINKB
  5
38CD
 10
0.0
 20
0.0
 30
0.0
 70
   128
 71
   115
 72
  -117
 73
   192
  0
VERTEX
  8
RK-SINKB
  5
38CE
 10
0.0
 20
0.0
 30
0.0
 70
   128
 71
   117
 72
   186
 73
  -192
  0
VERTEX
  8
RK-SINKB
  5
38CF
 10
0.0
 20
0.0
 30
0.0
 70
   128
 71
   193
 72
    78
 73
   166
  0
VERTEX
  8
RK-SINKB
  5
38D0
 10
0.0
 20
0.0
 30
0.0
 70
   128
 71
  -194
 72
    78
 73
   166
  0
VERTEX
  8
RK-SINKB
  5
38D1
 10
0.0
 20
0.0
 30
0.0
 70
   128
 71
   194
 72
   195
 73
   -78
  0
VERTEX
  8
RK-SINKB
  5
38D2
 10
0.0
 20
0.0
 30
0.0
 70
   128
 71
   126
 72
    95
 73
  -196
  0
VERTEX
  8
RK-SINKB
  5
38D3
 10
0.0
 20
0.0
 30
0.0
 70
   128
 71
   196
 72
   197
 73
  -126
  0
VERTEX
  8
RK-SINKB
  5
38D4
 10
0.0
 20
0.0
 30
0.0
 70
   128
 71
   198
 72
    95
 73
   126
  0
VERTEX
  8
RK-SINKB
  5
38D5
 10
0.0
 20
0.0
 30
0.0
 70
   128
 71
   169
 72
   199
 73
   166
  0
VERTEX
  8
RK-SINKB
  5
38D6
 10
0.0
 20
0.0
 30
0.0
 70
   128
 71
   128
 72
   200
 73
   126
  0
VERTEX
  8
RK-SINKB
  5
38D7
 10
0.0
 20
0.0
 30
0.0
 70
   128
 71
   169
 72
   201
 73
   171
  0
VERTEX
  8
RK-SINKB
  5
38D8
 10
0.0
 20
0.0
 30
0.0
 70
   128
 71
   131
 72
   202
 73
   128
  0
VERTEX
  8
RK-SINKB
  5
38D9
 10
0.0
 20
0.0
 30
0.0
 70
   128
 71
   203
 72
  -204
 73
  -172
  0
VERTEX
  8
RK-SINKB
  5
38DA
 10
0.0
 20
0.0
 30
0.0
 70
   128
 71
   204
 72
   171
 73
  -172
  0
VERTEX
  8
RK-SINKB
  5
38DB
 10
0.0
 20
0.0
 30
0.0
 70
   128
 71
   194
 72
  -205
 73
   195
  0
VERTEX
  8
RK-SINKB
  5
38DC
 10
0.0
 20
0.0
 30
0.0
 70
   128
 71
   205
 72
    86
 73
  -195
  0
VERTEX
  8
RK-SINKB
  5
38DD
 10
0.0
 20
0.0
 30
0.0
 70
   128
 71
   205
 72
  -197
 73
    86
  0
VERTEX
  8
RK-SINKB
  5
38DE
 10
0.0
 20
0.0
 30
0.0
 70
   128
 71
   197
 72
   196
 73
   -86
  0
VERTEX
  8
RK-SINKB
  5
38DF
 10
0.0
 20
0.0
 30
0.0
 70
   128
 71
   169
 72
  -206
 73
   166
  0
VERTEX
  8
RK-SINKB
  5
38E0
 10
0.0
 20
0.0
 30
0.0
 70
   128
 71
   206
 72
   194
 73
  -166
  0
VERTEX
  8
RK-SINKB
  5
38E1
 10
0.0
 20
0.0
 30
0.0
 70
   128
 71
   206
 72
  -207
 73
   194
  0
VERTEX
  8
RK-SINKB
  5
38E2
 10
0.0
 20
0.0
 30
0.0
 70
   128
 71
   207
 72
   205
 73
  -194
  0
VERTEX
  8
RK-SINKB
  5
38E3
 10
0.0
 20
0.0
 30
0.0
 70
   128
 71
   207
 72
  -208
 73
   205
  0
VERTEX
  8
RK-SINKB
  5
38E4
 10
0.0
 20
0.0
 30
0.0
 70
   128
 71
   208
 72
   197
 73
  -205
  0
VERTEX
  8
RK-SINKB
  5
38E5
 10
0.0
 20
0.0
 30
0.0
 70
   128
 71
   208
 72
  -128
 73
   197
  0
VERTEX
  8
RK-SINKB
  5
38E6
 10
0.0
 20
0.0
 30
0.0
 70
   128
 71
   128
 72
   126
 73
  -197
  0
VERTEX
  8
RK-SINKB
  5
38E7
 10
0.0
 20
0.0
 30
0.0
 70
   128
 71
   171
 72
  -204
 73
   169
  0
VERTEX
  8
RK-SINKB
  5
38E8
 10
0.0
 20
0.0
 30
0.0
 70
   128
 71
   204
 72
   206
 73
  -169
  0
VERTEX
  8
RK-SINKB
  5
38E9
 10
0.0
 20
0.0
 30
0.0
 70
   128
 71
   204
 72
  -209
 73
   206
  0
VERTEX
  8
RK-SINKB
  5
38EA
 10
0.0
 20
0.0
 30
0.0
 70
   128
 71
   209
 72
   207
 73
  -206
  0
VERTEX
  8
RK-SINKB
  5
38EB
 10
0.0
 20
0.0
 30
0.0
 70
   128
 71
   209
 72
  -210
 73
   207
  0
VERTEX
  8
RK-SINKB
  5
38EC
 10
0.0
 20
0.0
 30
0.0
 70
   128
 71
   210
 72
   208
 73
  -207
  0
VERTEX
  8
RK-SINKB
  5
38ED
 10
0.0
 20
0.0
 30
0.0
 70
   128
 71
   210
 72
  -131
 73
   208
  0
VERTEX
  8
RK-SINKB
  5
38EE
 10
0.0
 20
0.0
 30
0.0
 70
   128
 71
   131
 72
   128
 73
  -208
  0
VERTEX
  8
RK-SINKB
  5
38EF
 10
0.0
 20
0.0
 30
0.0
 70
   128
 71
   203
 72
  -211
 73
   204
  0
VERTEX
  8
RK-SINKB
  5
38F0
 10
0.0
 20
0.0
 30
0.0
 70
   128
 71
   211
 72
   209
 73
  -204
  0
VERTEX
  8
RK-SINKB
  5
38F1
 10
0.0
 20
0.0
 30
0.0
 70
   128
 71
   211
 72
  -212
 73
   209
  0
VERTEX
  8
RK-SINKB
  5
38F2
 10
0.0
 20
0.0
 30
0.0
 70
   128
 71
   212
 72
   210
 73
  -209
  0
VERTEX
  8
RK-SINKB
  5
38F3
 10
0.0
 20
0.0
 30
0.0
 70
   128
 71
   213
 72
  -214
 73
    53
  0
VERTEX
  8
RK-SINKB
  5
38F4
 10
0.0
 20
0.0
 30
0.0
 70
   128
 71
  -214
 72
    52
 73
   -53
  0
VERTEX
  8
RK-SINKB
  5
38F5
 10
0.0
 20
0.0
 30
0.0
 70
   128
 71
  -215
 72
   214
 73
   213
  0
VERTEX
  8
RK-SINKB
  5
38F6
 10
0.0
 20
0.0
 30
0.0
 70
   128
 71
   215
 72
  -216
 73
  -214
  0
VERTEX
  8
RK-SINKB
  5
38F7
 10
0.0
 20
0.0
 30
0.0
 70
   128
 71
  -217
 72
   216
 73
  -215
  0
VERTEX
  8
RK-SINKB
  5
38F8
 10
0.0
 20
0.0
 30
0.0
 70
   128
 71
   215
 72
   218
 73
  -217
  0
VERTEX
  8
RK-SINKB
  5
38F9
 10
0.0
 20
0.0
 30
0.0
 70
   128
 71
   219
 72
  -220
 73
   -47
  0
VERTEX
  8
RK-SINKB
  5
38FA
 10
0.0
 20
0.0
 30
0.0
 70
   128
 71
   -47
 72
   221
 73
  -219
  0
VERTEX
  8
RK-SINKB
  5
38FB
 10
0.0
 20
0.0
 30
0.0
 70
   128
 71
   220
 72
    45
 73
   -47
  0
VERTEX
  8
RK-SINKB
  5
38FC
 10
0.0
 20
0.0
 30
0.0
 70
   128
 71
   -47
 72
   218
 73
  -221
  0
VERTEX
  8
RK-SINKB
  5
38FD
 10
0.0
 20
0.0
 30
0.0
 70
   128
 71
   -47
 72
   217
 73
  -218
  0
VERTEX
  8
RK-SINKB
  5
38FE
 10
0.0
 20
0.0
 30
0.0
 70
   128
 71
   222
 72
    51
 73
    57
  0
VERTEX
  8
RK-SINKB
  5
38FF
 10
0.0
 20
0.0
 30
0.0
 70
   128
 71
   223
 72
    56
 73
    51
  0
VERTEX
  8
RK-SINKB
  5
3900
 10
0.0
 20
0.0
 30
0.0
 70
   128
 71
    53
 72
   224
 73
    56
  0
VERTEX
  8
RK-SINKB
  5
3901
 10
0.0
 20
0.0
 30
0.0
 70
   128
 71
   225
 72
    42
 73
    41
  0
VERTEX
  8
RK-SINKB
  5
3902
 10
0.0
 20
0.0
 30
0.0
 70
   128
 71
   226
 72
    43
 73
    42
  0
VERTEX
  8
RK-SINKB
  5
3903
 10
0.0
 20
0.0
 30
0.0
 70
   128
 71
   227
 72
    44
 73
    43
  0
VERTEX
  8
RK-SINKB
  5
3904
 10
0.0
 20
0.0
 30
0.0
 70
   128
 71
   228
 72
    45
 73
    44
  0
VERTEX
  8
RK-SINKB
  5
3905
 10
0.0
 20
0.0
 30
0.0
 70
   128
 71
   -42
 72
   229
 73
    41
  0
VERTEX
  8
RK-SINKB
  5
3906
 10
0.0
 20
0.0
 30
0.0
 70
   128
 71
   230
 72
  -229
 73
    42
  0
VERTEX
  8
RK-SINKB
  5
3907
 10
0.0
 20
0.0
 30
0.0
 70
   128
 71
    45
 72
  -220
 73
    44
  0
VERTEX
  8
RK-SINKB
  5
3908
 10
0.0
 20
0.0
 30
0.0
 70
   128
 71
   231
 72
   -44
 73
  -220
  0
VERTEX
  8
RK-SINKB
  5
3909
 10
0.0
 20
0.0
 30
0.0
 70
   128
 71
  -221
 72
  -231
 73
   219
  0
VERTEX
  8
RK-SINKB
  5
390A
 10
0.0
 20
0.0
 30
0.0
 70
   128
 71
   218
 72
  -231
 73
   221
  0
VERTEX
  8
RK-SINKB
  5
390B
 10
0.0
 20
0.0
 30
0.0
 70
   128
 71
  -231
 72
   215
 73
   232
  0
VERTEX
  8
RK-SINKB
  5
390C
 10
0.0
 20
0.0
 30
0.0
 70
   128
 71
   218
 72
  -215
 73
   231
  0
VERTEX
  8
RK-SINKB
  5
390D
 10
0.0
 20
0.0
 30
0.0
 70
   128
 71
   233
 72
  -234
 73
    54
  0
VERTEX
  8
RK-SINKB
  5
390E
 10
0.0
 20
0.0
 30
0.0
 70
   128
 71
    57
 72
   -54
 73
   234
  0
VERTEX
  8
RK-SINKB
  5
390F
 10
0.0
 20
0.0
 30
0.0
 70
   128
 71
    53
 72
   -56
 73
   213
  0
VERTEX
  8
RK-SINKB
  5
3910
 10
0.0
 20
0.0
 30
0.0
 70
   128
 71
   235
 72
  -213
 73
    56
  0
VERTEX
  8
RK-SINKB
  5
3911
 10
0.0
 20
0.0
 30
0.0
 70
   128
 71
   236
 72
   230
 73
   -42
  0
VERTEX
  8
RK-SINKB
  5
3912
 10
0.0
 20
0.0
 30
0.0
 70
   128
 71
    43
 72
  -236
 73
    42
  0
VERTEX
  8
RK-SINKB
  5
3913
 10
0.0
 20
0.0
 30
0.0
 70
   128
 71
   231
 72
   236
 73
   -43
  0
VERTEX
  8
RK-SINKB
  5
3914
 10
0.0
 20
0.0
 30
0.0
 70
   128
 71
    44
 72
  -231
 73
    43
  0
VERTEX
  8
RK-SINKB
  5
3915
 10
0.0
 20
0.0
 30
0.0
 70
   128
 71
   237
 72
   238
 73
  -229
  0
VERTEX
  8
RK-SINKB
  5
3916
 10
0.0
 20
0.0
 30
0.0
 70
   128
 71
   230
 72
  -237
 73
   229
  0
VERTEX
  8
RK-SINKB
  5
3917
 10
0.0
 20
0.0
 30
0.0
 70
   128
 71
   239
 72
   237
 73
  -230
  0
VERTEX
  8
RK-SINKB
  5
3918
 10
0.0
 20
0.0
 30
0.0
 70
   128
 71
   236
 72
  -239
 73
   230
  0
VERTEX
  8
RK-SINKB
  5
3919
 10
0.0
 20
0.0
 30
0.0
 70
   128
 71
   232
 72
   239
 73
  -236
  0
VERTEX
  8
RK-SINKB
  5
391A
 10
0.0
 20
0.0
 30
0.0
 70
   128
 71
   231
 72
  -232
 73
   236
  0
VERTEX
  8
RK-SINKB
  5
391B
 10
0.0
 20
0.0
 30
0.0
 70
   128
 71
   234
 72
   233
 73
  -238
  0
VERTEX
  8
RK-SINKB
  5
391C
 10
0.0
 20
0.0
 30
0.0
 70
   128
 71
   237
 72
  -234
 73
   238
  0
VERTEX
  8
RK-SINKB
  5
391D
 10
0.0
 20
0.0
 30
0.0
 70
   128
 71
   240
 72
   234
 73
  -237
  0
VERTEX
  8
RK-SINKB
  5
391E
 10
0.0
 20
0.0
 30
0.0
 70
   128
 71
   239
 72
  -240
 73
   237
  0
VERTEX
  8
RK-SINKB
  5
391F
 10
0.0
 20
0.0
 30
0.0
 70
   128
 71
   235
 72
   240
 73
  -239
  0
VERTEX
  8
RK-SINKB
  5
3920
 10
0.0
 20
0.0
 30
0.0
 70
   128
 71
   232
 72
  -235
 73
   239
  0
VERTEX
  8
RK-SINKB
  5
3921
 10
0.0
 20
0.0
 30
0.0
 70
   128
 71
    51
 72
    57
 73
  -234
  0
VERTEX
  8
RK-SINKB
  5
3922
 10
0.0
 20
0.0
 30
0.0
 70
   128
 71
   240
 72
   -51
 73
   234
  0
VERTEX
  8
RK-SINKB
  5
3923
 10
0.0
 20
0.0
 30
0.0
 70
   128
 71
    56
 72
    51
 73
  -240
  0
VERTEX
  8
RK-SINKB
  5
3924
 10
0.0
 20
0.0
 30
0.0
 70
   128
 71
   235
 72
   -56
 73
   240
  0
VERTEX
  8
RK-SINKB
  5
3925
 10
0.0
 20
0.0
 30
0.0
 70
   128
 71
   241
 72
    72
 73
    70
  0
VERTEX
  8
RK-SINKB
  5
3926
 10
0.0
 20
0.0
 30
0.0
 70
   128
 71
   242
 72
    75
 73
    72
  0
VERTEX
  8
RK-SINKB
  5
3927
 10
0.0
 20
0.0
 30
0.0
 70
   128
 71
    68
 72
   243
 73
    75
  0
VERTEX
  8
RK-SINKB
  5
3928
 10
0.0
 20
0.0
 30
0.0
 70
   128
 71
   244
 72
    27
 73
    30
  0
VERTEX
  8
RK-SINKB
  5
3929
 10
0.0
 20
0.0
 30
0.0
 70
   128
 71
   245
 72
    26
 73
    27
  0
VERTEX
  8
RK-SINKB
  5
392A
 10
0.0
 20
0.0
 30
0.0
 70
   128
 71
   246
 72
    29
 73
    26
  0
VERTEX
  8
RK-SINKB
  5
392B
 10
0.0
 20
0.0
 30
0.0
 70
   128
 71
   247
 72
   248
 73
   -30
  0
VERTEX
  8
RK-SINKB
  5
392C
 10
0.0
 20
0.0
 30
0.0
 70
   128
 71
    27
 72
  -247
 73
    30
  0
VERTEX
  8
RK-SINKB
  5
392D
 10
0.0
 20
0.0
 30
0.0
 70
   128
 71
  -249
 72
   250
 73
   251
  0
VERTEX
  8
RK-SINKB
  5
392E
 10
0.0
 20
0.0
 30
0.0
 70
   128
 71
   252
 72
  -250
 73
   249
  0
VERTEX
  8
RK-SINKB
  5
392F
 10
0.0
 20
0.0
 30
0.0
 70
   128
 71
   250
 72
  -252
 73
    75
  0
VERTEX
  8
RK-SINKB
  5
3930
 10
0.0
 20
0.0
 30
0.0
 70
   128
 71
    68
 72
   -75
 73
   252
  0
VERTEX
  8
RK-SINKB
  5
3931
 10
0.0
 20
0.0
 30
0.0
 70
   128
 71
   253
 72
   247
 73
   -27
  0
VERTEX
  8
RK-SINKB
  5
3932
 10
0.0
 20
0.0
 30
0.0
 70
   128
 71
    26
 72
  -253
 73
    27
  0
VERTEX
  8
RK-SINKB
  5
3933
 10
0.0
 20
0.0
 30
0.0
 70
   128
 71
   254
 72
   253
 73
   -26
  0
VERTEX
  8
RK-SINKB
  5
3934
 10
0.0
 20
0.0
 30
0.0
 70
   128
 71
    29
 72
  -254
 73
    26
  0
VERTEX
  8
RK-SINKB
  5
3935
 10
0.0
 20
0.0
 30
0.0
 70
   128
 71
   255
 72
   256
 73
  -248
  0
VERTEX
  8
RK-SINKB
  5
3936
 10
0.0
 20
0.0
 30
0.0
 70
   128
 71
   247
 72
  -255
 73
   248
  0
VERTEX
  8
RK-SINKB
  5
3937
 10
0.0
 20
0.0
 30
0.0
 70
   128
 71
   257
 72
   255
 73
  -247
  0
VERTEX
  8
RK-SINKB
  5
3938
 10
0.0
 20
0.0
 30
0.0
 70
   128
 71
   253
 72
  -257
 73
   247
  0
VERTEX
  8
RK-SINKB
  5
3939
 10
0.0
 20
0.0
 30
0.0
 70
   128
 71
   251
 72
   257
 73
  -253
  0
VERTEX
  8
RK-SINKB
  5
393A
 10
0.0
 20
0.0
 30
0.0
 70
   128
 71
   254
 72
  -251
 73
   253
  0
VERTEX
  8
RK-SINKB
  5
393B
 10
0.0
 20
0.0
 30
0.0
 70
   128
 71
   258
 72
   259
 73
  -256
  0
VERTEX
  8
RK-SINKB
  5
393C
 10
0.0
 20
0.0
 30
0.0
 70
   128
 71
   255
 72
  -258
 73
   256
  0
VERTEX
  8
RK-SINKB
  5
393D
 10
0.0
 20
0.0
 30
0.0
 70
   128
 71
   260
 72
   258
 73
  -255
  0
VERTEX
  8
RK-SINKB
  5
393E
 10
0.0
 20
0.0
 30
0.0
 70
   128
 71
   257
 72
  -260
 73
   255
  0
VERTEX
  8
RK-SINKB
  5
393F
 10
0.0
 20
0.0
 30
0.0
 70
   128
 71
   250
 72
   260
 73
  -257
  0
VERTEX
  8
RK-SINKB
  5
3940
 10
0.0
 20
0.0
 30
0.0
 70
   128
 71
   251
 72
  -250
 73
   257
  0
VERTEX
  8
RK-SINKB
  5
3941
 10
0.0
 20
0.0
 30
0.0
 70
   128
 71
    70
 72
    64
 73
  -259
  0
VERTEX
  8
RK-SINKB
  5
3942
 10
0.0
 20
0.0
 30
0.0
 70
   128
 71
   258
 72
   -70
 73
   259
  0
VERTEX
  8
RK-SINKB
  5
3943
 10
0.0
 20
0.0
 30
0.0
 70
   128
 71
    72
 72
    70
 73
  -258
  0
VERTEX
  8
RK-SINKB
  5
3944
 10
0.0
 20
0.0
 30
0.0
 70
   128
 71
   260
 72
   -72
 73
   258
  0
VERTEX
  8
RK-SINKB
  5
3945
 10
0.0
 20
0.0
 30
0.0
 70
   128
 71
    75
 72
    72
 73
  -260
  0
VERTEX
  8
RK-SINKB
  5
3946
 10
0.0
 20
0.0
 30
0.0
 70
   128
 71
   250
 72
   -75
 73
   260
  0
VERTEX
  8
RK-SINKB
  5
3947
 10
0.0
 20
0.0
 30
0.0
 70
   128
 71
  -261
 72
   262
 73
  -263
  0
VERTEX
  8
RK-SINKB
  5
3948
 10
0.0
 20
0.0
 30
0.0
 70
   128
 71
   261
 72
   264
 73
  -262
  0
VERTEX
  8
RK-SINKB
  5
3949
 10
0.0
 20
0.0
 30
0.0
 70
   128
 71
   265
 72
   266
 73
  -264
  0
VERTEX
  8
RK-SINKB
  5
394A
 10
0.0
 20
0.0
 30
0.0
 70
   128
 71
   264
 72
  -261
 73
  -265
  0
VERTEX
  8
RK-SINKB
  5
394B
 10
0.0
 20
0.0
 30
0.0
 70
   128
 71
  -265
 72
   267
 73
  -118
  0
VERTEX
  8
RK-SINKB
  5
394C
 10
0.0
 20
0.0
 30
0.0
 70
   128
 71
   118
 72
   266
 73
  -265
  0
VERTEX
  8
RK-SINKB
  5
394D
 10
0.0
 20
0.0
 30
0.0
 70
   128
 71
   268
 72
   113
 73
    65
  0
VERTEX
  8
RK-SINKB
  5
394E
 10
0.0
 20
0.0
 30
0.0
 70
   128
 71
   269
 72
   114
 73
   113
  0
VERTEX
  8
RK-SINKB
  5
394F
 10
0.0
 20
0.0
 30
0.0
 70
   128
 71
   270
 72
   116
 73
   114
  0
VERTEX
  8
RK-SINKB
  5
3950
 10
0.0
 20
0.0
 30
0.0
 70
   128
 71
   271
 72
    58
 73
    59
  0
VERTEX
  8
RK-SINKB
  5
3951
 10
0.0
 20
0.0
 30
0.0
 70
   128
 71
   272
 72
    50
 73
    58
  0
VERTEX
  8
RK-SINKB
  5
3952
 10
0.0
 20
0.0
 30
0.0
 70
   128
 71
   273
 72
  -274
 73
    76
  0
VERTEX
  8
RK-SINKB
  5
3953
 10
0.0
 20
0.0
 30
0.0
 70
   128
 71
   -59
 72
  -273
 73
    60
  0
VERTEX
  8
RK-SINKB
  5
3954
 10
0.0
 20
0.0
 30
0.0
 70
   128
 71
    76
 72
   -60
 73
   273
  0
VERTEX
  8
RK-SINKB
  5
3955
 10
0.0
 20
0.0
 30
0.0
 70
   128
 71
   275
 72
  -273
 73
    59
  0
VERTEX
  8
RK-SINKB
  5
3956
 10
0.0
 20
0.0
 30
0.0
 70
   128
 71
   262
 72
   276
 73
   -58
  0
VERTEX
  8
RK-SINKB
  5
3957
 10
0.0
 20
0.0
 30
0.0
 70
   128
 71
    50
 72
  -262
 73
    58
  0
VERTEX
  8
RK-SINKB
  5
3958
 10
0.0
 20
0.0
 30
0.0
 70
   128
 71
  -262
 72
   277
 73
   276
  0
VERTEX
  8
RK-SINKB
  5
3959
 10
0.0
 20
0.0
 30
0.0
 70
   128
 71
   264
 72
  -277
 73
   262
  0
VERTEX
  8
RK-SINKB
  5
395A
 10
0.0
 20
0.0
 30
0.0
 70
   128
 71
   264
 72
  -266
 73
   277
  0
VERTEX
  8
RK-SINKB
  5
395B
 10
0.0
 20
0.0
 30
0.0
 70
   128
 71
   278
 72
  -277
 73
   266
  0
VERTEX
  8
RK-SINKB
  5
395C
 10
0.0
 20
0.0
 30
0.0
 70
   128
 71
   113
 72
   -65
 73
   279
  0
VERTEX
  8
RK-SINKB
  5
395D
 10
0.0
 20
0.0
 30
0.0
 70
   128
 71
   280
 72
  -279
 73
    65
  0
VERTEX
  8
RK-SINKB
  5
395E
 10
0.0
 20
0.0
 30
0.0
 70
   128
 71
   276
 72
   275
 73
   -59
  0
VERTEX
  8
RK-SINKB
  5
395F
 10
0.0
 20
0.0
 30
0.0
 70
   128
 71
    58
 72
  -276
 73
    59
  0
VERTEX
  8
RK-SINKB
  5
3960
 10
0.0
 20
0.0
 30
0.0
 70
   128
 71
   281
 72
   282
 73
  -274
  0
VERTEX
  8
RK-SINKB
  5
3961
 10
0.0
 20
0.0
 30
0.0
 70
   128
 71
   273
 72
  -281
 73
   274
  0
VERTEX
  8
RK-SINKB
  5
3962
 10
0.0
 20
0.0
 30
0.0
 70
   128
 71
   283
 72
   281
 73
  -273
  0
VERTEX
  8
RK-SINKB
  5
3963
 10
0.0
 20
0.0
 30
0.0
 70
   128
 71
   275
 72
  -283
 73
   273
  0
VERTEX
  8
RK-SINKB
  5
3964
 10
0.0
 20
0.0
 30
0.0
 70
   128
 71
   277
 72
   283
 73
  -275
  0
VERTEX
  8
RK-SINKB
  5
3965
 10
0.0
 20
0.0
 30
0.0
 70
   128
 71
   276
 72
  -277
 73
   275
  0
VERTEX
  8
RK-SINKB
  5
3966
 10
0.0
 20
0.0
 30
0.0
 70
   128
 71
   279
 72
   280
 73
  -282
  0
VERTEX
  8
RK-SINKB
  5
3967
 10
0.0
 20
0.0
 30
0.0
 70
   128
 71
   281
 72
  -279
 73
   282
  0
VERTEX
  8
RK-SINKB
  5
3968
 10
0.0
 20
0.0
 30
0.0
 70
   128
 71
   284
 72
   279
 73
  -281
  0
VERTEX
  8
RK-SINKB
  5
3969
 10
0.0
 20
0.0
 30
0.0
 70
   128
 71
   283
 72
  -284
 73
   281
  0
VERTEX
  8
RK-SINKB
  5
396A
 10
0.0
 20
0.0
 30
0.0
 70
   128
 71
   278
 72
   284
 73
  -283
  0
VERTEX
  8
RK-SINKB
  5
396B
 10
0.0
 20
0.0
 30
0.0
 70
   128
 71
   277
 72
  -278
 73
   283
  0
VERTEX
  8
RK-SINKB
  5
396C
 10
0.0
 20
0.0
 30
0.0
 70
   128
 71
   114
 72
   113
 73
  -279
  0
VERTEX
  8
RK-SINKB
  5
396D
 10
0.0
 20
0.0
 30
0.0
 70
   128
 71
   284
 72
  -114
 73
   279
  0
VERTEX
  8
RK-SINKB
  5
396E
 10
0.0
 20
0.0
 30
0.0
 70
   128
 71
   116
 72
   114
 73
  -284
  0
VERTEX
  8
RK-SINKB
  5
396F
 10
0.0
 20
0.0
 30
0.0
 70
   128
 71
   278
 72
  -116
 73
   284
  0
VERTEX
  8
RK-SINKB
  5
3970
 10
0.0
 20
0.0
 30
0.0
 70
   128
 71
  -285
 72
   108
 73
   110
  0
VERTEX
  8
RK-SINKB
  5
3971
 10
0.0
 20
0.0
 30
0.0
 70
   128
 71
   285
 72
   286
 73
  -108
  0
VERTEX
  8
RK-SINKB
  5
3972
 10
0.0
 20
0.0
 30
0.0
 70
   128
 71
   287
 72
   288
 73
  -286
  0
VERTEX
  8
RK-SINKB
  5
3973
 10
0.0
 20
0.0
 30
0.0
 70
   128
 71
   286
 72
   285
 73
  -287
  0
VERTEX
  8
RK-SINKB
  5
3974
 10
0.0
 20
0.0
 30
0.0
 70
   128
 71
   287
 72
   289
 73
  -290
  0
VERTEX
  8
RK-SINKB
  5
3975
 10
0.0
 20
0.0
 30
0.0
 70
   128
 71
   290
 72
   288
 73
  -287
  0
VERTEX
  8
RK-SINKB
  5
3976
 10
0.0
 20
0.0
 30
0.0
 70
   128
 71
   289
 72
  -291
 73
   290
  0
VERTEX
  8
RK-SINKB
  5
3977
 10
0.0
 20
0.0
 30
0.0
 70
   128
 71
   291
 72
     2
 73
  -290
  0
VERTEX
  8
RK-SINKB
  5
3978
 10
0.0
 20
0.0
 30
0.0
 70
   128
 71
   210
 72
   212
 73
   111
 74
   131
  0
VERTEX
  8
RK-SINKB
  5
3979
 10
0.0
 20
0.0
 30
0.0
 70
   128
 71
   116
 72
   278
 73
   266
 74
   118
  0
VERTEX
  8
RK-SINKB
  5
397A
 10
0.0
 20
0.0
 30
0.0
 70
   128
 71
   254
 72
    29
 73
    32
 74
   292
  0
VERTEX
  8
RK-SINKB
  5
397B
 10
0.0
 20
0.0
 30
0.0
 70
   128
 71
   251
 72
   254
 73
   292
 74
   249
  0
VERTEX
  8
RK-SINKB
  5
397C
 10
0.0
 20
0.0
 30
0.0
 70
   128
 71
   292
 72
    32
 73
    41
 74
   229
  0
VERTEX
  8
RK-SINKB
  5
397D
 10
0.0
 20
0.0
 30
0.0
 70
   128
 71
   229
 72
   238
 73
   249
 74
   292
  0
VERTEX
  8
RK-SINKB
  5
397E
 10
0.0
 20
0.0
 30
0.0
 70
   128
 71
   252
 72
   249
 73
   238
 74
   233
  0
VERTEX
  8
RK-SINKB
  5
397F
 10
0.0
 20
0.0
 30
0.0
 70
   128
 71
   233
 72
    54
 73
    68
 74
   252
  0
VERTEX
  8
RK-SINKB
  5
3980
 10
0.0
 20
0.0
 30
0.0
 70
   128
 71
   235
 72
   232
 73
   215
 74
   213
  0
VERTEX
  8
RK-SINKB
  5
3981
 10
0.0
 20
0.0
 30
0.0
 70
   128
 71
   262
 72
    50
 73
   -55
 74
   263
  0
VERTEX
  8
RK-SINKB
  5
3982
 10
0.0
 20
0.0
 30
0.0
 70
   128
 71
  -293
 72
    35
 73
    30
 74
   248
  0
VERTEX
  8
RK-SINKB
  5
3983
 10
0.0
 20
0.0
 30
0.0
 70
   128
 71
   248
 72
   256
 73
  -294
 74
   293
  0
VERTEX
  8
RK-SINKB
  5
3984
 10
0.0
 20
0.0
 30
0.0
 70
   128
 71
  -295
 72
   294
 73
   256
 74
   259
  0
VERTEX
  8
RK-SINKB
  5
3985
 10
0.0
 20
0.0
 30
0.0
 70
   128
 71
   259
 72
    64
 73
    -1
 74
   295
  0
VERTEX
  8
RK-SINKB
  5
3986
 10
0.0
 20
0.0
 30
0.0
 70
   128
 71
   130
 72
   109
 73
   142
 74
   139
  0
VERTEX
  8
RK-SINKB
  5
3987
 10
0.0
 20
0.0
 30
0.0
 70
   128
 71
   141
 72
   144
 73
    61
 74
   124
  0
VERTEX
  8
RK-SINKB
  5
3988
 10
0.0
 20
0.0
 30
0.0
 70
   128
 71
   109
 72
   108
 73
   296
 74
   142
  0
VERTEX
  8
RK-SINKB
  5
3989
 10
0.0
 20
0.0
 30
0.0
 70
   128
 71
   142
 72
   296
 73
   297
 74
   143
  0
VERTEX
  8
RK-SINKB
  5
398A
 10
0.0
 20
0.0
 30
0.0
 70
   128
 71
   143
 72
   297
 73
   298
 74
   144
  0
VERTEX
  8
RK-SINKB
  5
398B
 10
0.0
 20
0.0
 30
0.0
 70
   128
 71
   144
 72
   298
 73
   299
 74
    61
  0
VERTEX
  8
RK-SINKB
  5
398C
 10
0.0
 20
0.0
 30
0.0
 70
   128
 71
   119
 72
   118
 73
   300
 74
   172
  0
VERTEX
  8
RK-SINKB
  5
398D
 10
0.0
 20
0.0
 30
0.0
 70
   128
 71
   172
 72
   300
 73
   301
 74
   203
  0
VERTEX
  8
RK-SINKB
  5
398E
 10
0.0
 20
0.0
 30
0.0
 70
   128
 71
   203
 72
   301
 73
   302
 74
   211
  0
VERTEX
  8
RK-SINKB
  5
398F
 10
0.0
 20
0.0
 30
0.0
 70
   128
 71
   211
 72
   302
 73
   303
 74
   212
  0
VERTEX
  8
RK-SINKB
  5
3990
 10
0.0
 20
0.0
 30
0.0
 70
   128
 71
   212
 72
   303
 73
   110
 74
   111
  0
VERTEX
  8
RK-SINKB
  5
3991
 10
0.0
 20
0.0
 30
0.0
 70
   128
 71
   305
 72
  -267
 73
   306
 74
   304
  0
VERTEX
  8
RK-SINKB
  5
3992
 10
0.0
 20
0.0
 30
0.0
 70
   128
 71
  -306
 72
  -267
 73
     6
 74
   307
  0
VERTEX
  8
RK-SINKB
  5
3993
 10
0.0
 20
0.0
 30
0.0
 70
   128
 71
     1
 72
   309
 73
   310
 74
  -308
  0
VERTEX
  8
RK-SINKB
  5
3994
 10
0.0
 20
0.0
 30
0.0
 70
   128
 71
    -1
 72
   308
 73
   311
 74
    -2
  0
VERTEX
  8
RK-SINKB
  5
3995
 10
0.0
 20
0.0
 30
0.0
 70
   128
 71
   311
 72
   312
 73
   313
 74
     2
  0
VERTEX
  8
RK-SINKB
  5
3996
 10
0.0
 20
0.0
 30
0.0
 70
   128
 71
   308
 72
   314
 73
   312
 74
   311
  0
VERTEX
  8
RK-SINKB
  5
3997
 10
0.0
 20
0.0
 30
0.0
 70
   128
 71
   310
 72
   315
 73
   314
 74
   308
  0
VERTEX
  8
RK-SINKB
  5
3998
 10
0.0
 20
0.0
 30
0.0
 70
   128
 71
   309
 72
   316
 73
   315
 74
   310
  0
VERTEX
  8
RK-SINKB
  5
3999
 10
0.0
 20
0.0
 30
0.0
 70
   128
 71
   312
 72
   317
 73
   318
 74
   313
  0
VERTEX
  8
RK-SINKB
  5
399A
 10
0.0
 20
0.0
 30
0.0
 70
   128
 71
   314
 72
   319
 73
   317
 74
   312
  0
VERTEX
  8
RK-SINKB
  5
399B
 10
0.0
 20
0.0
 30
0.0
 70
   128
 71
   315
 72
   320
 73
   319
 74
   314
  0
VERTEX
  8
RK-SINKB
  5
399C
 10
0.0
 20
0.0
 30
0.0
 70
   128
 71
   316
 72
   321
 73
   320
 74
   315
  0
VERTEX
  8
RK-SINKB
  5
399D
 10
0.0
 20
0.0
 30
0.0
 70
   128
 71
   317
 72
   322
 73
   288
 74
   318
  0
VERTEX
  8
RK-SINKB
  5
399E
 10
0.0
 20
0.0
 30
0.0
 70
   128
 71
   319
 72
   323
 73
   322
 74
   317
  0
VERTEX
  8
RK-SINKB
  5
399F
 10
0.0
 20
0.0
 30
0.0
 70
   128
 71
   320
 72
   324
 73
   323
 74
   319
  0
VERTEX
  8
RK-SINKB
  5
39A0
 10
0.0
 20
0.0
 30
0.0
 70
   128
 71
   321
 72
   325
 73
   324
 74
   320
  0
VERTEX
  8
RK-SINKB
  5
39A1
 10
0.0
 20
0.0
 30
0.0
 70
   128
 71
   322
 72
   326
 73
   327
 74
   288
  0
VERTEX
  8
RK-SINKB
  5
39A2
 10
0.0
 20
0.0
 30
0.0
 70
   128
 71
   323
 72
   328
 73
   326
 74
   322
  0
VERTEX
  8
RK-SINKB
  5
39A3
 10
0.0
 20
0.0
 30
0.0
 70
   128
 71
   324
 72
   329
 73
   328
 74
   323
  0
VERTEX
  8
RK-SINKB
  5
39A4
 10
0.0
 20
0.0
 30
0.0
 70
   128
 71
   325
 72
   330
 73
   329
 74
   324
  0
VERTEX
  8
RK-SINKB
  5
39A5
 10
0.0
 20
0.0
 30
0.0
 70
   128
 71
   326
 72
   331
 73
   332
 74
   327
  0
VERTEX
  8
RK-SINKB
  5
39A6
 10
0.0
 20
0.0
 30
0.0
 70
   128
 71
   328
 72
   333
 73
   331
 74
   326
  0
VERTEX
  8
RK-SINKB
  5
39A7
 10
0.0
 20
0.0
 30
0.0
 70
   128
 71
   329
 72
   334
 73
   333
 74
   328
  0
VERTEX
  8
RK-SINKB
  5
39A8
 10
0.0
 20
0.0
 30
0.0
 70
   128
 71
   330
 72
   335
 73
   334
 74
   329
  0
VERTEX
  8
RK-SINKB
  5
39A9
 10
0.0
 20
0.0
 30
0.0
 70
   128
 71
   331
 72
   296
 73
   108
 74
   332
  0
VERTEX
  8
RK-SINKB
  5
39AA
 10
0.0
 20
0.0
 30
0.0
 70
   128
 71
   333
 72
   297
 73
   296
 74
   331
  0
VERTEX
  8
RK-SINKB
  5
39AB
 10
0.0
 20
0.0
 30
0.0
 70
   128
 71
   334
 72
   298
 73
   297
 74
   333
  0
VERTEX
  8
RK-SINKB
  5
39AC
 10
0.0
 20
0.0
 30
0.0
 70
   128
 71
   335
 72
   299
 73
   298
 74
   334
  0
VERTEX
  8
RK-SINKB
  5
39AD
 10
0.0
 20
0.0
 30
0.0
 70
   128
 71
   307
 72
     6
 73
   337
 74
   336
  0
VERTEX
  8
RK-SINKB
  5
39AE
 10
0.0
 20
0.0
 30
0.0
 70
   128
 71
   306
 72
   307
 73
   336
 74
   338
  0
VERTEX
  8
RK-SINKB
  5
39AF
 10
0.0
 20
0.0
 30
0.0
 70
   128
 71
   304
 72
   306
 73
   338
 74
   339
  0
VERTEX
  8
RK-SINKB
  5
39B0
 10
0.0
 20
0.0
 30
0.0
 70
   128
 71
   305
 72
   304
 73
   339
 74
   340
  0
VERTEX
  8
RK-SINKB
  5
39B1
 10
0.0
 20
0.0
 30
0.0
 70
   128
 71
   336
 72
   337
 73
   342
 74
   341
  0
VERTEX
  8
RK-SINKB
  5
39B2
 10
0.0
 20
0.0
 30
0.0
 70
   128
 71
   338
 72
   336
 73
   341
 74
   343
  0
VERTEX
  8
RK-SINKB
  5
39B3
 10
0.0
 20
0.0
 30
0.0
 70
   128
 71
   339
 72
   338
 73
   343
 74
   344
  0
VERTEX
  8
RK-SINKB
  5
39B4
 10
0.0
 20
0.0
 30
0.0
 70
   128
 71
   340
 72
   339
 73
   344
 74
   345
  0
VERTEX
  8
RK-SINKB
  5
39B5
 10
0.0
 20
0.0
 30
0.0
 70
   128
 71
   341
 72
   342
 73
   347
 74
   346
  0
VERTEX
  8
RK-SINKB
  5
39B6
 10
0.0
 20
0.0
 30
0.0
 70
   128
 71
   343
 72
   341
 73
   346
 74
   348
  0
VERTEX
  8
RK-SINKB
  5
39B7
 10
0.0
 20
0.0
 30
0.0
 70
   128
 71
   344
 72
   343
 73
   348
 74
   349
  0
VERTEX
  8
RK-SINKB
  5
39B8
 10
0.0
 20
0.0
 30
0.0
 70
   128
 71
   345
 72
   344
 73
   349
 74
   350
  0
VERTEX
  8
RK-SINKB
  5
39B9
 10
0.0
 20
0.0
 30
0.0
 70
   128
 71
   346
 72
   347
 73
   352
 74
   351
  0
VERTEX
  8
RK-SINKB
  5
39BA
 10
0.0
 20
0.0
 30
0.0
 70
   128
 71
   348
 72
   346
 73
   351
 74
   353
  0
VERTEX
  8
RK-SINKB
  5
39BB
 10
0.0
 20
0.0
 30
0.0
 70
   128
 71
   349
 72
   348
 73
   353
 74
   354
  0
VERTEX
  8
RK-SINKB
  5
39BC
 10
0.0
 20
0.0
 30
0.0
 70
   128
 71
   350
 72
   349
 73
   354
 74
   355
  0
VERTEX
  8
RK-SINKB
  5
39BD
 10
0.0
 20
0.0
 30
0.0
 70
   128
 71
   351
 72
   352
 73
   357
 74
   356
  0
VERTEX
  8
RK-SINKB
  5
39BE
 10
0.0
 20
0.0
 30
0.0
 70
   128
 71
   353
 72
   351
 73
   356
 74
   358
  0
VERTEX
  8
RK-SINKB
  5
39BF
 10
0.0
 20
0.0
 30
0.0
 70
   128
 71
   354
 72
   353
 73
   358
 74
   359
  0
VERTEX
  8
RK-SINKB
  5
39C0
 10
0.0
 20
0.0
 30
0.0
 70
   128
 71
   355
 72
   354
 73
   359
 74
   360
  0
VERTEX
  8
RK-SINKB
  5
39C1
 10
0.0
 20
0.0
 30
0.0
 70
   128
 71
   356
 72
   357
 73
   361
 74
   303
  0
VERTEX
  8
RK-SINKB
  5
39C2
 10
0.0
 20
0.0
 30
0.0
 70
   128
 71
   358
 72
   356
 73
   303
 74
   302
  0
VERTEX
  8
RK-SINKB
  5
39C3
 10
0.0
 20
0.0
 30
0.0
 70
   128
 71
   359
 72
   358
 73
   302
 74
   301
  0
VERTEX
  8
RK-SINKB
  5
39C4
 10
0.0
 20
0.0
 30
0.0
 70
   128
 71
   360
 72
   359
 73
   301
 74
   300
  0
VERTEX
  8
RK-SINKB
  5
39C5
 10
0.0
 20
0.0
 30
0.0
 70
   128
 71
   363
 72
   364
 73
   365
 74
   362
  0
VERTEX
  8
RK-SINKB
  5
39C6
 10
0.0
 20
0.0
 30
0.0
 70
   128
 71
   362
 72
   365
 73
   367
 74
   366
  0
VERTEX
  8
RK-SINKB
  5
39C7
 10
0.0
 20
0.0
 30
0.0
 70
   128
 71
   366
 72
   367
 73
   369
 74
   368
  0
VERTEX
  8
RK-SINKB
  5
39C8
 10
0.0
 20
0.0
 30
0.0
 70
   128
 71
   368
 72
   369
 73
   371
 74
   370
  0
VERTEX
  8
RK-SINKB
  5
39C9
 10
0.0
 20
0.0
 30
0.0
 70
   128
 71
   373
 72
   363
 73
   362
 74
   372
  0
VERTEX
  8
RK-SINKB
  5
39CA
 10
0.0
 20
0.0
 30
0.0
 70
   128
 71
   372
 72
   362
 73
   366
 74
   374
  0
VERTEX
  8
RK-SINKB
  5
39CB
 10
0.0
 20
0.0
 30
0.0
 70
   128
 71
   374
 72
   366
 73
   368
 74
   375
  0
VERTEX
  8
RK-SINKB
  5
39CC
 10
0.0
 20
0.0
 30
0.0
 70
   128
 71
   375
 72
   368
 73
   370
 74
   376
  0
VERTEX
  8
RK-SINKB
  5
39CD
 10
0.0
 20
0.0
 30
0.0
 70
   128
 71
   378
 72
   373
 73
   372
 74
   377
  0
VERTEX
  8
RK-SINKB
  5
39CE
 10
0.0
 20
0.0
 30
0.0
 70
   128
 71
   377
 72
   372
 73
   374
 74
   379
  0
VERTEX
  8
RK-SINKB
  5
39CF
 10
0.0
 20
0.0
 30
0.0
 70
   128
 71
   379
 72
   374
 73
   375
 74
   380
  0
VERTEX
  8
RK-SINKB
  5
39D0
 10
0.0
 20
0.0
 30
0.0
 70
   128
 71
   380
 72
   375
 73
   376
 74
   381
  0
VERTEX
  8
RK-SINKB
  5
39D1
 10
0.0
 20
0.0
 30
0.0
 70
   128
 71
   383
 72
   378
 73
   377
 74
   382
  0
VERTEX
  8
RK-SINKB
  5
39D2
 10
0.0
 20
0.0
 30
0.0
 70
   128
 71
   382
 72
   377
 73
   379
 74
   384
  0
VERTEX
  8
RK-SINKB
  5
39D3
 10
0.0
 20
0.0
 30
0.0
 70
   128
 71
   384
 72
   379
 73
   380
 74
   385
  0
VERTEX
  8
RK-SINKB
  5
39D4
 10
0.0
 20
0.0
 30
0.0
 70
   128
 71
   385
 72
   380
 73
   381
 74
   386
  0
VERTEX
  8
RK-SINKB
  5
39D5
 10
0.0
 20
0.0
 30
0.0
 70
   128
 71
   388
 72
   383
 73
   382
 74
   387
  0
VERTEX
  8
RK-SINKB
  5
39D6
 10
0.0
 20
0.0
 30
0.0
 70
   128
 71
   387
 72
   382
 73
   384
 74
   389
  0
VERTEX
  8
RK-SINKB
  5
39D7
 10
0.0
 20
0.0
 30
0.0
 70
   128
 71
   389
 72
   384
 73
   385
 74
   390
  0
VERTEX
  8
RK-SINKB
  5
39D8
 10
0.0
 20
0.0
 30
0.0
 70
   128
 71
   390
 72
   385
 73
   386
 74
   391
  0
VERTEX
  8
RK-SINKB
  5
39D9
 10
0.0
 20
0.0
 30
0.0
 70
   128
 71
   393
 72
   388
 73
   387
 74
   392
  0
VERTEX
  8
RK-SINKB
  5
39DA
 10
0.0
 20
0.0
 30
0.0
 70
   128
 71
   392
 72
   387
 73
   389
 74
   394
  0
VERTEX
  8
RK-SINKB
  5
39DB
 10
0.0
 20
0.0
 30
0.0
 70
   128
 71
   394
 72
   389
 73
   390
 74
   395
  0
VERTEX
  8
RK-SINKB
  5
39DC
 10
0.0
 20
0.0
 30
0.0
 70
   128
 71
   395
 72
   390
 73
   391
 74
     5
  0
VERTEX
  8
RK-SINKB
  5
39DD
 10
0.0
 20
0.0
 30
0.0
 70
   128
 71
   397
 72
   398
 73
   399
 74
   396
  0
VERTEX
  8
RK-SINKB
  5
39DE
 10
0.0
 20
0.0
 30
0.0
 70
   128
 71
   398
 72
   400
 73
   401
 74
   399
  0
VERTEX
  8
RK-SINKB
  5
39DF
 10
0.0
 20
0.0
 30
0.0
 70
   128
 71
   400
 72
   402
 73
   403
 74
   401
  0
VERTEX
  8
RK-SINKB
  5
39E0
 10
0.0
 20
0.0
 30
0.0
 70
   128
 71
   402
 72
   404
 73
   405
 74
   403
  0
VERTEX
  8
RK-SINKB
  5
39E1
 10
0.0
 20
0.0
 30
0.0
 70
   128
 71
   406
 72
   407
 73
   398
 74
   397
  0
VERTEX
  8
RK-SINKB
  5
39E2
 10
0.0
 20
0.0
 30
0.0
 70
   128
 71
   407
 72
   408
 73
   400
 74
   398
  0
VERTEX
  8
RK-SINKB
  5
39E3
 10
0.0
 20
0.0
 30
0.0
 70
   128
 71
   408
 72
   409
 73
   402
 74
   400
  0
VERTEX
  8
RK-SINKB
  5
39E4
 10
0.0
 20
0.0
 30
0.0
 70
   128
 71
   409
 72
   410
 73
   404
 74
   402
  0
VERTEX
  8
RK-SINKB
  5
39E5
 10
0.0
 20
0.0
 30
0.0
 70
   128
 71
   411
 72
   412
 73
   407
 74
   406
  0
VERTEX
  8
RK-SINKB
  5
39E6
 10
0.0
 20
0.0
 30
0.0
 70
   128
 71
   412
 72
   413
 73
   408
 74
   407
  0
VERTEX
  8
RK-SINKB
  5
39E7
 10
0.0
 20
0.0
 30
0.0
 70
   128
 71
   413
 72
   414
 73
   409
 74
   408
  0
VERTEX
  8
RK-SINKB
  5
39E8
 10
0.0
 20
0.0
 30
0.0
 70
   128
 71
   414
 72
   415
 73
   410
 74
   409
  0
VERTEX
  8
RK-SINKB
  5
39E9
 10
0.0
 20
0.0
 30
0.0
 70
   128
 71
   416
 72
   417
 73
   412
 74
   411
  0
VERTEX
  8
RK-SINKB
  5
39EA
 10
0.0
 20
0.0
 30
0.0
 70
   128
 71
   417
 72
   418
 73
   413
 74
   412
  0
VERTEX
  8
RK-SINKB
  5
39EB
 10
0.0
 20
0.0
 30
0.0
 70
   128
 71
   418
 72
   419
 73
   414
 74
   413
  0
VERTEX
  8
RK-SINKB
  5
39EC
 10
0.0
 20
0.0
 30
0.0
 70
   128
 71
   419
 72
   420
 73
   415
 74
   414
  0
VERTEX
  8
RK-SINKB
  5
39ED
 10
0.0
 20
0.0
 30
0.0
 70
   128
 71
   421
 72
   422
 73
   417
 74
   416
  0
VERTEX
  8
RK-SINKB
  5
39EE
 10
0.0
 20
0.0
 30
0.0
 70
   128
 71
   422
 72
   423
 73
   418
 74
   417
  0
VERTEX
  8
RK-SINKB
  5
39EF
 10
0.0
 20
0.0
 30
0.0
 70
   128
 71
   423
 72
   424
 73
   419
 74
   418
  0
VERTEX
  8
RK-SINKB
  5
39F0
 10
0.0
 20
0.0
 30
0.0
 70
   128
 71
   424
 72
   425
 73
   420
 74
   419
  0
VERTEX
  8
RK-SINKB
  5
39F1
 10
0.0
 20
0.0
 30
0.0
 70
   128
 71
   426
 72
   427
 73
   422
 74
   421
  0
VERTEX
  8
RK-SINKB
  5
39F2
 10
0.0
 20
0.0
 30
0.0
 70
   128
 71
   427
 72
   428
 73
   423
 74
   422
  0
VERTEX
  8
RK-SINKB
  5
39F3
 10
0.0
 20
0.0
 30
0.0
 70
   128
 71
   428
 72
   429
 73
   424
 74
   423
  0
VERTEX
  8
RK-SINKB
  5
39F4
 10
0.0
 20
0.0
 30
0.0
 70
   128
 71
   429
 72
     3
 73
   425
 74
   424
  0
VERTEX
  8
RK-SINKB
  5
39F5
 10
0.0
 20
0.0
 30
0.0
 70
   128
 71
    -1
 72
     3
 73
   429
 74
  -428
  0
VERTEX
  8
RK-SINKB
  5
39F6
 10
0.0
 20
0.0
 30
0.0
 70
   128
 71
    -1
 72
   428
 73
   427
 74
   426
  0
VERTEX
  8
RK-SINKB
  5
39F7
 10
0.0
 20
0.0
 30
0.0
 70
   128
 71
   394
 72
   395
 73
    -5
 74
    -4
  0
VERTEX
  8
RK-SINKB
  5
39F8
 10
0.0
 20
0.0
 30
0.0
 70
   128
 71
   393
 72
   392
 73
  -394
 74
     4
  0
VERTEX
  8
RK-SINKB
  5
39F9
 10
0.0
 20
0.0
 30
0.0
 70
   128
 71
   430
 72
   431
 73
   432
 74
   369
  0
VERTEX
  8
RK-SINKB
  5
39FA
 10
0.0
 20
0.0
 30
0.0
 70
   128
 71
   433
 72
   430
 73
   369
 74
   367
  0
VERTEX
  8
RK-SINKB
  5
39FB
 10
0.0
 20
0.0
 30
0.0
 70
   128
 71
   434
 72
   433
 73
   367
 74
   365
  0
VERTEX
  8
RK-SINKB
  5
39FC
 10
0.0
 20
0.0
 30
0.0
 70
   128
 71
   435
 72
   434
 73
   365
 74
   364
  0
VERTEX
  8
RK-SINKB
  5
39FD
 10
0.0
 20
0.0
 30
0.0
 70
   128
 71
   437
 72
   435
 73
   364
 74
   436
  0
VERTEX
  8
RK-SINKB
  5
39FE
 10
0.0
 20
0.0
 30
0.0
 70
   128
 71
   438
 72
   439
 73
   396
 74
   399
  0
VERTEX
  8
RK-SINKB
  5
39FF
 10
0.0
 20
0.0
 30
0.0
 70
   128
 71
   440
 72
   438
 73
   399
 74
   401
  0
VERTEX
  8
RK-SINKB
  5
3A00
 10
0.0
 20
0.0
 30
0.0
 70
   128
 71
   441
 72
   440
 73
   401
 74
   403
  0
VERTEX
  8
RK-SINKB
  5
3A01
 10
0.0
 20
0.0
 30
0.0
 70
   128
 71
   442
 72
   441
 73
   403
 74
   405
  0
VERTEX
  8
RK-SINKB
  5
3A02
 10
0.0
 20
0.0
 30
0.0
 70
   128
 71
   443
 72
   444
 73
   439
 74
   438
  0
VERTEX
  8
RK-SINKB
  5
3A03
 10
0.0
 20
0.0
 30
0.0
 70
   128
 71
   445
 72
   446
 73
   441
 74
   442
  0
VERTEX
  8
RK-SINKB
  5
3A04
 10
0.0
 20
0.0
 30
0.0
 70
   128
 71
   448
 72
  -295
 73
     1
 74
   447
  0
VERTEX
  8
RK-SINKB
  5
3A05
 10
0.0
 20
0.0
 30
0.0
 70
   128
 71
   295
 72
   448
 73
   449
 74
  -294
  0
VERTEX
  8
RK-SINKB
  5
3A06
 10
0.0
 20
0.0
 30
0.0
 70
   128
 71
   450
 72
  -293
 73
   294
 74
   449
  0
VERTEX
  8
RK-SINKB
  5
3A07
 10
0.0
 20
0.0
 30
0.0
 70
   128
 71
   293
 72
   450
 73
   451
 74
   -35
  0
VERTEX
  8
RK-SINKB
  5
3A08
 10
0.0
 20
0.0
 30
0.0
 70
   128
 71
   453
 72
  -454
 73
   455
 74
   452
  0
VERTEX
  8
RK-SINKB
  5
3A09
 10
0.0
 20
0.0
 30
0.0
 70
   128
 71
   457
 72
   458
 73
   459
 74
   456
  0
VERTEX
  8
RK-SINKB
  5
3A0A
 10
0.0
 20
0.0
 30
0.0
 70
   128
 71
   461
 72
   462
 73
   463
 74
   460
  0
VERTEX
  8
RK-SINKB
  5
3A0B
 10
0.0
 20
0.0
 30
0.0
 70
   128
 71
   462
 72
   461
 73
   465
 74
   464
  0
VERTEX
  8
RK-SINKB
  5
3A0C
 10
0.0
 20
0.0
 30
0.0
 70
   128
 71
   466
 72
   467
 73
   464
 74
   465
  0
VERTEX
  8
RK-SINKB
  5
3A0D
 10
0.0
 20
0.0
 30
0.0
 70
   128
 71
   467
 72
   466
 73
   469
 74
   468
  0
VERTEX
  8
RK-SINKB
  5
3A0E
 10
0.0
 20
0.0
 30
0.0
 70
   128
 71
   471
 72
   464
 73
   467
 74
   470
  0
VERTEX
  8
RK-SINKB
  5
3A0F
 10
0.0
 20
0.0
 30
0.0
 70
   128
 71
   470
 72
   467
 73
   468
 74
   472
  0
VERTEX
  8
RK-SINKB
  5
3A10
 10
0.0
 20
0.0
 30
0.0
 70
   128
 71
   474
 72
   436
 73
   475
 74
   473
  0
VERTEX
  8
RK-SINKB
  5
3A11
 10
0.0
 20
0.0
 30
0.0
 70
   128
 71
   476
 72
   477
 73
   431
 74
   430
  0
VERTEX
  8
RK-SINKB
  5
3A12
 10
0.0
 20
0.0
 30
0.0
 70
   128
 71
  -479
 72
   478
 73
     3
  0
VERTEX
  8
RK-SINKB
  5
3A13
 10
0.0
 20
0.0
 30
0.0
 70
   128
 71
   480
 72
  -478
 73
   479
  0
VERTEX
  8
RK-SINKB
  5
3A14
 10
0.0
 20
0.0
 30
0.0
 70
   128
 71
  -478
 72
   481
 73
   415
  0
VERTEX
  8
RK-SINKB
  5
3A15
 10
0.0
 20
0.0
 30
0.0
 70
   128
 71
  -481
 72
   478
 73
   480
  0
VERTEX
  8
RK-SINKB
  5
3A16
 10
0.0
 20
0.0
 30
0.0
 70
   128
 71
  -483
 72
   481
 73
   482
  0
VERTEX
  8
RK-SINKB
  5
3A17
 10
0.0
 20
0.0
 30
0.0
 70
   128
 71
  -481
 72
   483
 73
   415
  0
VERTEX
  8
RK-SINKB
  5
3A18
 10
0.0
 20
0.0
 30
0.0
 70
   128
 71
  -482
 72
   405
 73
   483
  0
VERTEX
  8
RK-SINKB
  5
3A19
 10
0.0
 20
0.0
 30
0.0
 70
   128
 71
   482
 72
   432
 73
  -405
  0
VERTEX
  8
RK-SINKB
  5
3A1A
 10
0.0
 20
0.0
 30
0.0
 70
   128
 71
   473
 72
  -484
 73
   474
  0
VERTEX
  8
RK-SINKB
  5
3A1B
 10
0.0
 20
0.0
 30
0.0
 70
   128
 71
  -474
 72
   484
 73
   485
  0
VERTEX
  8
RK-SINKB
  5
3A1C
 10
0.0
 20
0.0
 30
0.0
 70
   128
 71
   484
 72
  -486
 73
   485
  0
VERTEX
  8
RK-SINKB
  5
3A1D
 10
0.0
 20
0.0
 30
0.0
 70
   128
 71
  -485
 72
   486
 73
   487
  0
VERTEX
  8
RK-SINKB
  5
3A1E
 10
0.0
 20
0.0
 30
0.0
 70
   128
 71
   489
 72
  -488
 73
   473
  0
VERTEX
  8
RK-SINKB
  5
3A1F
 10
0.0
 20
0.0
 30
0.0
 70
   128
 71
  -473
 72
   488
 73
   484
  0
VERTEX
  8
RK-SINKB
  5
3A20
 10
0.0
 20
0.0
 30
0.0
 70
   128
 71
   488
 72
  -490
 73
   484
  0
VERTEX
  8
RK-SINKB
  5
3A21
 10
0.0
 20
0.0
 30
0.0
 70
   128
 71
  -484
 72
   490
 73
   486
  0
VERTEX
  8
RK-SINKB
  5
3A22
 10
0.0
 20
0.0
 30
0.0
 70
   128
 71
   490
 72
  -491
 73
   486
  0
VERTEX
  8
RK-SINKB
  5
3A23
 10
0.0
 20
0.0
 30
0.0
 70
   128
 71
  -486
 72
   491
 73
   492
  0
VERTEX
  8
RK-SINKB
  5
3A24
 10
0.0
 20
0.0
 30
0.0
 70
   128
 71
   494
 72
  -493
 73
   489
  0
VERTEX
  8
RK-SINKB
  5
3A25
 10
0.0
 20
0.0
 30
0.0
 70
   128
 71
  -489
 72
   493
 73
   488
  0
VERTEX
  8
RK-SINKB
  5
3A26
 10
0.0
 20
0.0
 30
0.0
 70
   128
 71
   493
 72
  -495
 73
   488
  0
VERTEX
  8
RK-SINKB
  5
3A27
 10
0.0
 20
0.0
 30
0.0
 70
   128
 71
  -488
 72
   495
 73
   490
  0
VERTEX
  8
RK-SINKB
  5
3A28
 10
0.0
 20
0.0
 30
0.0
 70
   128
 71
   495
 72
  -496
 73
   490
  0
VERTEX
  8
RK-SINKB
  5
3A29
 10
0.0
 20
0.0
 30
0.0
 70
   128
 71
  -490
 72
   496
 73
   491
  0
VERTEX
  8
RK-SINKB
  5
3A2A
 10
0.0
 20
0.0
 30
0.0
 70
   128
 71
   498
 72
  -497
 73
   494
  0
VERTEX
  8
RK-SINKB
  5
3A2B
 10
0.0
 20
0.0
 30
0.0
 70
   128
 71
  -494
 72
   497
 73
   493
  0
VERTEX
  8
RK-SINKB
  5
3A2C
 10
0.0
 20
0.0
 30
0.0
 70
   128
 71
   492
 72
  -499
 73
   486
  0
VERTEX
  8
RK-SINKB
  5
3A2D
 10
0.0
 20
0.0
 30
0.0
 70
   128
 71
   487
 72
  -486
 73
   499
  0
VERTEX
  8
RK-SINKB
  5
3A2E
 10
0.0
 20
0.0
 30
0.0
 70
   128
 71
   473
 72
  -475
 73
   489
  0
VERTEX
  8
RK-SINKB
  5
3A2F
 10
0.0
 20
0.0
 30
0.0
 70
   128
 71
   500
 72
  -489
 73
   475
  0
VERTEX
  8
RK-SINKB
  5
3A30
 10
0.0
 20
0.0
 30
0.0
 70
   128
 71
   500
 72
  -453
 73
   489
  0
VERTEX
  8
RK-SINKB
  5
3A31
 10
0.0
 20
0.0
 30
0.0
 70
   128
 71
   453
 72
   494
 73
  -489
  0
VERTEX
  8
RK-SINKB
  5
3A32
 10
0.0
 20
0.0
 30
0.0
 70
   128
 71
   452
 72
  -498
 73
   453
  0
VERTEX
  8
RK-SINKB
  5
3A33
 10
0.0
 20
0.0
 30
0.0
 70
   128
 71
  -453
 72
   498
 73
   494
  0
VERTEX
  8
RK-SINKB
  5
3A34
 10
0.0
 20
0.0
 30
0.0
 70
   128
 71
   493
 72
  -497
 73
   495
  0
VERTEX
  8
RK-SINKB
  5
3A35
 10
0.0
 20
0.0
 30
0.0
 70
   128
 71
   502
 72
  -495
 73
   501
  0
VERTEX
  8
RK-SINKB
  5
3A36
 10
0.0
 20
0.0
 30
0.0
 70
   128
 71
   497
 72
  -501
 73
  -495
  0
VERTEX
  8
RK-SINKB
  5
3A37
 10
0.0
 20
0.0
 30
0.0
 70
   128
 71
   495
 72
  -502
 73
   496
  0
VERTEX
  8
RK-SINKB
  5
3A38
 10
0.0
 20
0.0
 30
0.0
 70
   128
 71
   503
 72
   498
 73
   452
  0
VERTEX
  8
RK-SINKB
  5
3A39
 10
0.0
 20
0.0
 30
0.0
 70
   128
 71
   504
 72
   497
 73
   498
  0
VERTEX
  8
RK-SINKB
  5
3A3A
 10
0.0
 20
0.0
 30
0.0
 70
   128
 71
   505
 72
   485
 73
   474
  0
VERTEX
  8
RK-SINKB
  5
3A3B
 10
0.0
 20
0.0
 30
0.0
 70
   128
 71
   506
 72
   487
 73
   485
  0
VERTEX
  8
RK-SINKB
  5
3A3C
 10
0.0
 20
0.0
 30
0.0
 70
   128
 71
   507
 72
   499
 73
   487
  0
VERTEX
  8
RK-SINKB
  5
3A3D
 10
0.0
 20
0.0
 30
0.0
 70
   128
 71
  -436
 72
   508
 73
   475
  0
VERTEX
  8
RK-SINKB
  5
3A3E
 10
0.0
 20
0.0
 30
0.0
 70
   128
 71
  -508
 72
   436
 73
    -4
  0
VERTEX
  8
RK-SINKB
  5
3A3F
 10
0.0
 20
0.0
 30
0.0
 70
   128
 71
  -500
 72
  -508
 73
   509
  0
VERTEX
  8
RK-SINKB
  5
3A40
 10
0.0
 20
0.0
 30
0.0
 70
   128
 71
  -508
 72
   500
 73
   475
  0
VERTEX
  8
RK-SINKB
  5
3A41
 10
0.0
 20
0.0
 30
0.0
 70
   128
 71
  -509
 72
   453
 73
   500
  0
VERTEX
  8
RK-SINKB
  5
3A42
 10
0.0
 20
0.0
 30
0.0
 70
   128
 71
  -509
 72
   454
 73
  -453
  0
VERTEX
  8
RK-SINKB
  5
3A43
 10
0.0
 20
0.0
 30
0.0
 70
   128
 71
   512
 72
  -510
 73
   511
  0
VERTEX
  8
RK-SINKB
  5
3A44
 10
0.0
 20
0.0
 30
0.0
 70
   128
 71
  -511
 72
   510
 73
   513
  0
VERTEX
  8
RK-SINKB
  5
3A45
 10
0.0
 20
0.0
 30
0.0
 70
   128
 71
   510
 72
  -514
 73
   513
  0
VERTEX
  8
RK-SINKB
  5
3A46
 10
0.0
 20
0.0
 30
0.0
 70
   128
 71
  -513
 72
   514
 73
   515
  0
VERTEX
  8
RK-SINKB
  5
3A47
 10
0.0
 20
0.0
 30
0.0
 70
   128
 71
   514
 72
  -448
 73
   515
  0
VERTEX
  8
RK-SINKB
  5
3A48
 10
0.0
 20
0.0
 30
0.0
 70
   128
 71
  -515
 72
   448
 73
   447
  0
VERTEX
  8
RK-SINKB
  5
3A49
 10
0.0
 20
0.0
 30
0.0
 70
   128
 71
   471
 72
  -516
 73
   512
  0
VERTEX
  8
RK-SINKB
  5
3A4A
 10
0.0
 20
0.0
 30
0.0
 70
   128
 71
  -512
 72
   516
 73
   510
  0
VERTEX
  8
RK-SINKB
  5
3A4B
 10
0.0
 20
0.0
 30
0.0
 70
   128
 71
   516
 72
  -517
 73
   510
  0
VERTEX
  8
RK-SINKB
  5
3A4C
 10
0.0
 20
0.0
 30
0.0
 70
   128
 71
  -510
 72
   517
 73
   514
  0
VERTEX
  8
RK-SINKB
  5
3A4D
 10
0.0
 20
0.0
 30
0.0
 70
   128
 71
   517
 72
  -449
 73
   514
  0
VERTEX
  8
RK-SINKB
  5
3A4E
 10
0.0
 20
0.0
 30
0.0
 70
   128
 71
  -514
 72
   449
 73
   448
  0
VERTEX
  8
RK-SINKB
  5
3A4F
 10
0.0
 20
0.0
 30
0.0
 70
   128
 71
   470
 72
  -518
 73
   471
  0
VERTEX
  8
RK-SINKB
  5
3A50
 10
0.0
 20
0.0
 30
0.0
 70
   128
 71
  -471
 72
   518
 73
   516
  0
VERTEX
  8
RK-SINKB
  5
3A51
 10
0.0
 20
0.0
 30
0.0
 70
   128
 71
   518
 72
  -519
 73
   516
  0
VERTEX
  8
RK-SINKB
  5
3A52
 10
0.0
 20
0.0
 30
0.0
 70
   128
 71
  -516
 72
   519
 73
   517
  0
VERTEX
  8
RK-SINKB
  5
3A53
 10
0.0
 20
0.0
 30
0.0
 70
   128
 71
   519
 72
  -450
 73
   517
  0
VERTEX
  8
RK-SINKB
  5
3A54
 10
0.0
 20
0.0
 30
0.0
 70
   128
 71
  -517
 72
   450
 73
   449
  0
VERTEX
  8
RK-SINKB
  5
3A55
 10
0.0
 20
0.0
 30
0.0
 70
   128
 71
   472
 72
  -520
 73
   470
  0
VERTEX
  8
RK-SINKB
  5
3A56
 10
0.0
 20
0.0
 30
0.0
 70
   128
 71
  -470
 72
   520
 73
   518
  0
VERTEX
  8
RK-SINKB
  5
3A57
 10
0.0
 20
0.0
 30
0.0
 70
   128
 71
   520
 72
  -521
 73
   518
  0
VERTEX
  8
RK-SINKB
  5
3A58
 10
0.0
 20
0.0
 30
0.0
 70
   128
 71
  -518
 72
   521
 73
   519
  0
VERTEX
  8
RK-SINKB
  5
3A59
 10
0.0
 20
0.0
 30
0.0
 70
   128
 71
   463
 72
  -462
 73
   511
  0
VERTEX
  8
RK-SINKB
  5
3A5A
 10
0.0
 20
0.0
 30
0.0
 70
   128
 71
   512
 72
  -511
 73
   462
  0
VERTEX
  8
RK-SINKB
  5
3A5B
 10
0.0
 20
0.0
 30
0.0
 70
   128
 71
   462
 72
  -464
 73
   512
  0
VERTEX
  8
RK-SINKB
  5
3A5C
 10
0.0
 20
0.0
 30
0.0
 70
   128
 71
   464
 72
   471
 73
  -512
  0
VERTEX
  8
RK-SINKB
  5
3A5D
 10
0.0
 20
0.0
 30
0.0
 70
   128
 71
   521
 72
  -451
 73
   519
  0
VERTEX
  8
RK-SINKB
  5
3A5E
 10
0.0
 20
0.0
 30
0.0
 70
   128
 71
  -519
 72
   451
 73
   450
  0
VERTEX
  8
RK-SINKB
  5
3A5F
 10
0.0
 20
0.0
 30
0.0
 70
   128
 71
   522
 72
   520
 73
   472
  0
VERTEX
  8
RK-SINKB
  5
3A60
 10
0.0
 20
0.0
 30
0.0
 70
   128
 71
   523
 72
   521
 73
   520
  0
VERTEX
  8
RK-SINKB
  5
3A61
 10
0.0
 20
0.0
 30
0.0
 70
   128
 71
   524
 72
   451
 73
   521
  0
VERTEX
  8
RK-SINKB
  5
3A62
 10
0.0
 20
0.0
 30
0.0
 70
   128
 71
   463
 72
   511
 73
   525
  0
VERTEX
  8
RK-SINKB
  5
3A63
 10
0.0
 20
0.0
 30
0.0
 70
   128
 71
   526
 72
   513
 73
   511
  0
VERTEX
  8
RK-SINKB
  5
3A64
 10
0.0
 20
0.0
 30
0.0
 70
   128
 71
   527
 72
   515
 73
   513
  0
VERTEX
  8
RK-SINKB
  5
3A65
 10
0.0
 20
0.0
 30
0.0
 70
   128
 71
   457
 72
  -528
 73
   529
  0
VERTEX
  8
RK-SINKB
  5
3A66
 10
0.0
 20
0.0
 30
0.0
 70
   128
 71
  -529
 72
   528
 73
   530
  0
VERTEX
  8
RK-SINKB
  5
3A67
 10
0.0
 20
0.0
 30
0.0
 70
   128
 71
   528
 72
  -531
 73
   530
  0
VERTEX
  8
RK-SINKB
  5
3A68
 10
0.0
 20
0.0
 30
0.0
 70
   128
 71
  -530
 72
   531
 73
   532
  0
VERTEX
  8
RK-SINKB
  5
3A69
 10
0.0
 20
0.0
 30
0.0
 70
   128
 71
   456
 72
  -533
 73
   457
  0
VERTEX
  8
RK-SINKB
  5
3A6A
 10
0.0
 20
0.0
 30
0.0
 70
   128
 71
  -457
 72
   533
 73
   528
  0
VERTEX
  8
RK-SINKB
  5
3A6B
 10
0.0
 20
0.0
 30
0.0
 70
   128
 71
   533
 72
  -534
 73
   528
  0
VERTEX
  8
RK-SINKB
  5
3A6C
 10
0.0
 20
0.0
 30
0.0
 70
   128
 71
  -528
 72
   534
 73
   531
  0
VERTEX
  8
RK-SINKB
  5
3A6D
 10
0.0
 20
0.0
 30
0.0
 70
   128
 71
   534
 72
  -465
 73
   531
  0
VERTEX
  8
RK-SINKB
  5
3A6E
 10
0.0
 20
0.0
 30
0.0
 70
   128
 71
  -531
 72
   465
 73
   461
  0
VERTEX
  8
RK-SINKB
  5
3A6F
 10
0.0
 20
0.0
 30
0.0
 70
   128
 71
   536
 72
  -535
 73
   456
  0
VERTEX
  8
RK-SINKB
  5
3A70
 10
0.0
 20
0.0
 30
0.0
 70
   128
 71
  -456
 72
   535
 73
   533
  0
VERTEX
  8
RK-SINKB
  5
3A71
 10
0.0
 20
0.0
 30
0.0
 70
   128
 71
   535
 72
  -537
 73
   533
  0
VERTEX
  8
RK-SINKB
  5
3A72
 10
0.0
 20
0.0
 30
0.0
 70
   128
 71
  -533
 72
   537
 73
   534
  0
VERTEX
  8
RK-SINKB
  5
3A73
 10
0.0
 20
0.0
 30
0.0
 70
   128
 71
   537
 72
  -466
 73
   534
  0
VERTEX
  8
RK-SINKB
  5
3A74
 10
0.0
 20
0.0
 30
0.0
 70
   128
 71
  -534
 72
   466
 73
   465
  0
VERTEX
  8
RK-SINKB
  5
3A75
 10
0.0
 20
0.0
 30
0.0
 70
   128
 71
   539
 72
  -538
 73
   536
  0
VERTEX
  8
RK-SINKB
  5
3A76
 10
0.0
 20
0.0
 30
0.0
 70
   128
 71
  -536
 72
   538
 73
   535
  0
VERTEX
  8
RK-SINKB
  5
3A77
 10
0.0
 20
0.0
 30
0.0
 70
   128
 71
   538
 72
  -540
 73
   535
  0
VERTEX
  8
RK-SINKB
  5
3A78
 10
0.0
 20
0.0
 30
0.0
 70
   128
 71
  -535
 72
   540
 73
   537
  0
VERTEX
  8
RK-SINKB
  5
3A79
 10
0.0
 20
0.0
 30
0.0
 70
   128
 71
   457
 72
  -529
 73
   458
  0
VERTEX
  8
RK-SINKB
  5
3A7A
 10
0.0
 20
0.0
 30
0.0
 70
   128
 71
   541
 72
  -458
 73
   529
  0
VERTEX
  8
RK-SINKB
  5
3A7B
 10
0.0
 20
0.0
 30
0.0
 70
   128
 71
   532
 72
  -531
 73
   460
  0
VERTEX
  8
RK-SINKB
  5
3A7C
 10
0.0
 20
0.0
 30
0.0
 70
   128
 71
   461
 72
  -460
 73
   531
  0
VERTEX
  8
RK-SINKB
  5
3A7D
 10
0.0
 20
0.0
 30
0.0
 70
   128
 71
   542
 72
  -536
 73
   459
  0
VERTEX
  8
RK-SINKB
  5
3A7E
 10
0.0
 20
0.0
 30
0.0
 70
   128
 71
   536
 72
   456
 73
  -459
  0
VERTEX
  8
RK-SINKB
  5
3A7F
 10
0.0
 20
0.0
 30
0.0
 70
   128
 71
   542
 72
  -543
 73
   536
  0
VERTEX
  8
RK-SINKB
  5
3A80
 10
0.0
 20
0.0
 30
0.0
 70
   128
 71
   543
 72
  -544
 73
  -536
  0
VERTEX
  8
RK-SINKB
  5
3A81
 10
0.0
 20
0.0
 30
0.0
 70
   128
 71
  -536
 72
  -545
 73
   539
  0
VERTEX
  8
RK-SINKB
  5
3A82
 10
0.0
 20
0.0
 30
0.0
 70
   128
 71
   546
 72
  -539
 73
   545
  0
VERTEX
  8
RK-SINKB
  5
3A83
 10
0.0
 20
0.0
 30
0.0
 70
   128
 71
   537
 72
  -540
 73
   466
  0
VERTEX
  8
RK-SINKB
  5
3A84
 10
0.0
 20
0.0
 30
0.0
 70
   128
 71
   540
 72
   469
 73
  -466
  0
VERTEX
  8
RK-SINKB
  5
3A85
 10
0.0
 20
0.0
 30
0.0
 70
   128
 71
   547
 72
   539
 73
   546
  0
VERTEX
  8
RK-SINKB
  5
3A86
 10
0.0
 20
0.0
 30
0.0
 70
   128
 71
   548
 72
   538
 73
   539
  0
VERTEX
  8
RK-SINKB
  5
3A87
 10
0.0
 20
0.0
 30
0.0
 70
   128
 71
   549
 72
   540
 73
   538
  0
VERTEX
  8
RK-SINKB
  5
3A88
 10
0.0
 20
0.0
 30
0.0
 70
   128
 71
   550
 72
   469
 73
   540
  0
VERTEX
  8
RK-SINKB
  5
3A89
 10
0.0
 20
0.0
 30
0.0
 70
   128
 71
   541
 72
   529
 73
   551
  0
VERTEX
  8
RK-SINKB
  5
3A8A
 10
0.0
 20
0.0
 30
0.0
 70
   128
 71
   552
 72
   530
 73
   529
  0
VERTEX
  8
RK-SINKB
  5
3A8B
 10
0.0
 20
0.0
 30
0.0
 70
   128
 71
   553
 72
   532
 73
   530
  0
VERTEX
  8
RK-SINKB
  5
3A8C
 10
0.0
 20
0.0
 30
0.0
 70
   128
 71
   -47
 72
   542
 73
  -217
  0
VERTEX
  8
RK-SINKB
  5
3A8D
 10
0.0
 20
0.0
 30
0.0
 70
   128
 71
   -47
 72
   543
 73
  -542
  0
VERTEX
  8
RK-SINKB
  5
3A8E
 10
0.0
 20
0.0
 30
0.0
 70
   128
 71
  -545
 72
    47
 73
   546
  0
VERTEX
  8
RK-SINKB
  5
3A8F
 10
0.0
 20
0.0
 30
0.0
 70
   128
 71
   -47
 72
   544
 73
  -543
  0
VERTEX
  8
RK-SINKB
  5
3A90
 10
0.0
 20
0.0
 30
0.0
 70
   128
 71
  -544
 72
   -47
 73
   545
  0
VERTEX
  8
RK-SINKB
  5
3A91
 10
0.0
 20
0.0
 30
0.0
 70
   128
 71
  -459
 72
   217
 73
   542
  0
VERTEX
  8
RK-SINKB
  5
3A92
 10
0.0
 20
0.0
 30
0.0
 70
   128
 71
  -217
 72
   459
 73
  -216
  0
VERTEX
  8
RK-SINKB
  5
3A93
 10
0.0
 20
0.0
 30
0.0
 70
   128
 71
  -459
 72
  -214
 73
   216
  0
VERTEX
  8
RK-SINKB
  5
3A94
 10
0.0
 20
0.0
 30
0.0
 70
   128
 71
   459
 72
   458
 73
  -214
  0
VERTEX
  8
RK-SINKB
  5
3A95
 10
0.0
 20
0.0
 30
0.0
 70
   128
 71
  -214
 72
   541
 73
   -52
  0
VERTEX
  8
RK-SINKB
  5
3A96
 10
0.0
 20
0.0
 30
0.0
 70
   128
 71
   458
 72
  -541
 73
   214
  0
VERTEX
  8
RK-SINKB
  5
3A97
 10
0.0
 20
0.0
 30
0.0
 70
   128
 71
  -430
 72
   554
 73
   476
  0
VERTEX
  8
RK-SINKB
  5
3A98
 10
0.0
 20
0.0
 30
0.0
 70
   128
 71
   433
 72
  -554
 73
   430
  0
VERTEX
  8
RK-SINKB
  5
3A99
 10
0.0
 20
0.0
 30
0.0
 70
   128
 71
  -433
 72
   555
 73
   554
  0
VERTEX
  8
RK-SINKB
  5
3A9A
 10
0.0
 20
0.0
 30
0.0
 70
   128
 71
   434
 72
  -555
 73
   433
  0
VERTEX
  8
RK-SINKB
  5
3A9B
 10
0.0
 20
0.0
 30
0.0
 70
   128
 71
  -477
 72
   556
 73
   557
  0
VERTEX
  8
RK-SINKB
  5
3A9C
 10
0.0
 20
0.0
 30
0.0
 70
   128
 71
   476
 72
  -556
 73
   477
  0
VERTEX
  8
RK-SINKB
  5
3A9D
 10
0.0
 20
0.0
 30
0.0
 70
   128
 71
  -476
 72
   558
 73
   556
  0
VERTEX
  8
RK-SINKB
  5
3A9E
 10
0.0
 20
0.0
 30
0.0
 70
   128
 71
   554
 72
  -558
 73
   476
  0
VERTEX
  8
RK-SINKB
  5
3A9F
 10
0.0
 20
0.0
 30
0.0
 70
   128
 71
  -554
 72
   559
 73
   558
  0
VERTEX
  8
RK-SINKB
  5
3AA0
 10
0.0
 20
0.0
 30
0.0
 70
   128
 71
   555
 72
  -559
 73
   554
  0
VERTEX
  8
RK-SINKB
  5
3AA1
 10
0.0
 20
0.0
 30
0.0
 70
   128
 71
  -555
 72
   560
 73
   559
  0
VERTEX
  8
RK-SINKB
  5
3AA2
 10
0.0
 20
0.0
 30
0.0
 70
   128
 71
   561
 72
  -560
 73
   555
  0
VERTEX
  8
RK-SINKB
  5
3AA3
 10
0.0
 20
0.0
 30
0.0
 70
   128
 71
  -557
 72
   562
 73
   563
  0
VERTEX
  8
RK-SINKB
  5
3AA4
 10
0.0
 20
0.0
 30
0.0
 70
   128
 71
   556
 72
  -562
 73
   557
  0
VERTEX
  8
RK-SINKB
  5
3AA5
 10
0.0
 20
0.0
 30
0.0
 70
   128
 71
  -556
 72
   564
 73
   562
  0
VERTEX
  8
RK-SINKB
  5
3AA6
 10
0.0
 20
0.0
 30
0.0
 70
   128
 71
   558
 72
  -564
 73
   556
  0
VERTEX
  8
RK-SINKB
  5
3AA7
 10
0.0
 20
0.0
 30
0.0
 70
   128
 71
  -558
 72
   565
 73
   564
  0
VERTEX
  8
RK-SINKB
  5
3AA8
 10
0.0
 20
0.0
 30
0.0
 70
   128
 71
   559
 72
  -565
 73
   558
  0
VERTEX
  8
RK-SINKB
  5
3AA9
 10
0.0
 20
0.0
 30
0.0
 70
   128
 71
  -559
 72
   566
 73
   565
  0
VERTEX
  8
RK-SINKB
  5
3AAA
 10
0.0
 20
0.0
 30
0.0
 70
   128
 71
   560
 72
  -566
 73
   559
  0
VERTEX
  8
RK-SINKB
  5
3AAB
 10
0.0
 20
0.0
 30
0.0
 70
   128
 71
  -562
 72
   567
 73
   568
  0
VERTEX
  8
RK-SINKB
  5
3AAC
 10
0.0
 20
0.0
 30
0.0
 70
   128
 71
   564
 72
  -567
 73
   562
  0
VERTEX
  8
RK-SINKB
  5
3AAD
 10
0.0
 20
0.0
 30
0.0
 70
   128
 71
  -564
 72
   569
 73
   567
  0
VERTEX
  8
RK-SINKB
  5
3AAE
 10
0.0
 20
0.0
 30
0.0
 70
   128
 71
   565
 72
  -569
 73
   564
  0
VERTEX
  8
RK-SINKB
  5
3AAF
 10
0.0
 20
0.0
 30
0.0
 70
   128
 71
  -555
 72
   435
 73
   561
  0
VERTEX
  8
RK-SINKB
  5
3AB0
 10
0.0
 20
0.0
 30
0.0
 70
   128
 71
  -434
 72
  -435
 73
   555
  0
VERTEX
  8
RK-SINKB
  5
3AB1
 10
0.0
 20
0.0
 30
0.0
 70
   128
 71
   477
 72
   557
 73
   570
  0
VERTEX
  8
RK-SINKB
  5
3AB2
 10
0.0
 20
0.0
 30
0.0
 70
   128
 71
   560
 72
   561
 73
   571
  0
VERTEX
  8
RK-SINKB
  5
3AB3
 10
0.0
 20
0.0
 30
0.0
 70
   128
 71
   557
 72
   563
 73
   572
  0
VERTEX
  8
RK-SINKB
  5
3AB4
 10
0.0
 20
0.0
 30
0.0
 70
   128
 71
   560
 72
   566
 73
   573
  0
VERTEX
  8
RK-SINKB
  5
3AB5
 10
0.0
 20
0.0
 30
0.0
 70
   128
 71
   575
 72
   563
 73
   574
  0
VERTEX
  8
RK-SINKB
  5
3AB6
 10
0.0
 20
0.0
 30
0.0
 70
   128
 71
  -568
 72
   563
 73
   562
  0
VERTEX
  8
RK-SINKB
  5
3AB7
 10
0.0
 20
0.0
 30
0.0
 70
   128
 71
  -563
 72
   568
 73
   574
  0
VERTEX
  8
RK-SINKB
  5
3AB8
 10
0.0
 20
0.0
 30
0.0
 70
   128
 71
  -565
 72
   576
 73
   569
  0
VERTEX
  8
RK-SINKB
  5
3AB9
 10
0.0
 20
0.0
 30
0.0
 70
   128
 71
   565
 72
   566
 73
  -576
  0
VERTEX
  8
RK-SINKB
  5
3ABA
 10
0.0
 20
0.0
 30
0.0
 70
   128
 71
   577
 72
   566
 73
   576
  0
VERTEX
  8
RK-SINKB
  5
3ABB
 10
0.0
 20
0.0
 30
0.0
 70
   128
 71
  -580
 72
   578
 73
   579
  0
VERTEX
  8
RK-SINKB
  5
3ABC
 10
0.0
 20
0.0
 30
0.0
 70
   128
 71
   581
 72
  -578
 73
   580
  0
VERTEX
  8
RK-SINKB
  5
3ABD
 10
0.0
 20
0.0
 30
0.0
 70
   128
 71
  -581
 72
   582
 73
   578
  0
VERTEX
  8
RK-SINKB
  5
3ABE
 10
0.0
 20
0.0
 30
0.0
 70
   128
 71
   583
 72
  -582
 73
   581
  0
VERTEX
  8
RK-SINKB
  5
3ABF
 10
0.0
 20
0.0
 30
0.0
 70
   128
 71
  -586
 72
   584
 73
   585
  0
VERTEX
  8
RK-SINKB
  5
3AC0
 10
0.0
 20
0.0
 30
0.0
 70
   128
 71
   579
 72
  -584
 73
   586
  0
VERTEX
  8
RK-SINKB
  5
3AC1
 10
0.0
 20
0.0
 30
0.0
 70
   128
 71
  -579
 72
   587
 73
   584
  0
VERTEX
  8
RK-SINKB
  5
3AC2
 10
0.0
 20
0.0
 30
0.0
 70
   128
 71
   578
 72
  -587
 73
   579
  0
VERTEX
  8
RK-SINKB
  5
3AC3
 10
0.0
 20
0.0
 30
0.0
 70
   128
 71
  -578
 72
   588
 73
   587
  0
VERTEX
  8
RK-SINKB
  5
3AC4
 10
0.0
 20
0.0
 30
0.0
 70
   128
 71
   582
 72
  -588
 73
   578
  0
VERTEX
  8
RK-SINKB
  5
3AC5
 10
0.0
 20
0.0
 30
0.0
 70
   128
 71
  -582
 72
   589
 73
   588
  0
VERTEX
  8
RK-SINKB
  5
3AC6
 10
0.0
 20
0.0
 30
0.0
 70
   128
 71
   590
 72
  -589
 73
   582
  0
VERTEX
  8
RK-SINKB
  5
3AC7
 10
0.0
 20
0.0
 30
0.0
 70
   128
 71
  -585
 72
   591
 73
   592
  0
VERTEX
  8
RK-SINKB
  5
3AC8
 10
0.0
 20
0.0
 30
0.0
 70
   128
 71
   584
 72
  -591
 73
   585
  0
VERTEX
  8
RK-SINKB
  5
3AC9
 10
0.0
 20
0.0
 30
0.0
 70
   128
 71
  -584
 72
   593
 73
   591
  0
VERTEX
  8
RK-SINKB
  5
3ACA
 10
0.0
 20
0.0
 30
0.0
 70
   128
 71
   587
 72
  -593
 73
   584
  0
VERTEX
  8
RK-SINKB
  5
3ACB
 10
0.0
 20
0.0
 30
0.0
 70
   128
 71
  -587
 72
   594
 73
   593
  0
VERTEX
  8
RK-SINKB
  5
3ACC
 10
0.0
 20
0.0
 30
0.0
 70
   128
 71
   588
 72
  -594
 73
   587
  0
VERTEX
  8
RK-SINKB
  5
3ACD
 10
0.0
 20
0.0
 30
0.0
 70
   128
 71
  -588
 72
   595
 73
   594
  0
VERTEX
  8
RK-SINKB
  5
3ACE
 10
0.0
 20
0.0
 30
0.0
 70
   128
 71
   589
 72
  -595
 73
   588
  0
VERTEX
  8
RK-SINKB
  5
3ACF
 10
0.0
 20
0.0
 30
0.0
 70
   128
 71
  -591
 72
   596
 73
   597
  0
VERTEX
  8
RK-SINKB
  5
3AD0
 10
0.0
 20
0.0
 30
0.0
 70
   128
 71
   593
 72
  -596
 73
   591
  0
VERTEX
  8
RK-SINKB
  5
3AD1
 10
0.0
 20
0.0
 30
0.0
 70
   128
 71
  -593
 72
   598
 73
   596
  0
VERTEX
  8
RK-SINKB
  5
3AD2
 10
0.0
 20
0.0
 30
0.0
 70
   128
 71
   594
 72
  -598
 73
   593
  0
VERTEX
  8
RK-SINKB
  5
3AD3
 10
0.0
 20
0.0
 30
0.0
 70
   128
 71
  -580
 72
   586
 73
   437
  0
VERTEX
  8
RK-SINKB
  5
3AD4
 10
0.0
 20
0.0
 30
0.0
 70
   128
 71
  -586
 72
   580
 73
   579
  0
VERTEX
  8
RK-SINKB
  5
3AD5
 10
0.0
 20
0.0
 30
0.0
 70
   128
 71
  -599
 72
   582
 73
   583
  0
VERTEX
  8
RK-SINKB
  5
3AD6
 10
0.0
 20
0.0
 30
0.0
 70
   128
 71
   599
 72
   590
 73
  -582
  0
VERTEX
  8
RK-SINKB
  5
3AD7
 10
0.0
 20
0.0
 30
0.0
 70
   128
 71
   599
 72
   590
 73
   600
  0
VERTEX
  8
RK-SINKB
  5
3AD8
 10
0.0
 20
0.0
 30
0.0
 70
   128
 71
   586
 72
   585
 73
   601
  0
VERTEX
  8
RK-SINKB
  5
3AD9
 10
0.0
 20
0.0
 30
0.0
 70
   128
 71
   602
 72
   590
 73
   589
  0
VERTEX
  8
RK-SINKB
  5
3ADA
 10
0.0
 20
0.0
 30
0.0
 70
   128
 71
   585
 72
   592
 73
   603
  0
VERTEX
  8
RK-SINKB
  5
3ADB
 10
0.0
 20
0.0
 30
0.0
 70
   128
 71
   604
 72
   589
 73
   595
  0
VERTEX
  8
RK-SINKB
  5
3ADC
 10
0.0
 20
0.0
 30
0.0
 70
   128
 71
   606
 72
   592
 73
   605
  0
VERTEX
  8
RK-SINKB
  5
3ADD
 10
0.0
 20
0.0
 30
0.0
 70
   128
 71
  -592
 72
   597
 73
   605
  0
VERTEX
  8
RK-SINKB
  5
3ADE
 10
0.0
 20
0.0
 30
0.0
 70
   128
 71
   591
 72
  -597
 73
   592
  0
VERTEX
  8
RK-SINKB
  5
3ADF
 10
0.0
 20
0.0
 30
0.0
 70
   128
 71
  -598
 72
   595
 73
   607
  0
VERTEX
  8
RK-SINKB
  5
3AE0
 10
0.0
 20
0.0
 30
0.0
 70
   128
 71
  -595
 72
   598
 73
   594
  0
VERTEX
  8
RK-SINKB
  5
3AE1
 10
0.0
 20
0.0
 30
0.0
 70
   128
 71
   608
 72
   595
 73
   607
  0
VERTEX
  8
RK-SINKB
  5
3AE2
 10
0.0
 20
0.0
 30
0.0
 70
   128
 71
   610
 72
  -590
 73
   609
  0
VERTEX
  8
RK-SINKB
  5
3AE3
 10
0.0
 20
0.0
 30
0.0
 70
   128
 71
  -609
 72
   590
 73
   599
  0
VERTEX
  8
RK-SINKB
  5
3AE4
 10
0.0
 20
0.0
 30
0.0
 70
   128
 71
   589
 72
  -590
 73
   611
  0
VERTEX
  8
RK-SINKB
  5
3AE5
 10
0.0
 20
0.0
 30
0.0
 70
   128
 71
   610
 72
  -611
 73
   590
  0
VERTEX
  8
RK-SINKB
  5
3AE6
 10
0.0
 20
0.0
 30
0.0
 70
   128
 71
   589
 72
  -611
 73
   595
  0
VERTEX
  8
RK-SINKB
  5
3AE7
 10
0.0
 20
0.0
 30
0.0
 70
   128
 71
   612
 72
  -595
 73
   611
  0
VERTEX
  8
RK-SINKB
  5
3AE8
 10
0.0
 20
0.0
 30
0.0
 70
   128
 71
   612
 72
  -613
 73
   595
  0
VERTEX
  8
RK-SINKB
  5
3AE9
 10
0.0
 20
0.0
 30
0.0
 70
   128
 71
   613
 72
   607
 73
  -595
  0
VERTEX
  8
RK-SINKB
  5
3AEA
 10
0.0
 20
0.0
 30
0.0
 70
   128
 71
   586
 72
  -561
 73
   437
  0
VERTEX
  8
RK-SINKB
  5
3AEB
 10
0.0
 20
0.0
 30
0.0
 70
   128
 71
  -437
 72
   561
 73
   435
  0
VERTEX
  8
RK-SINKB
  5
3AEC
 10
0.0
 20
0.0
 30
0.0
 70
   128
 71
   560
 72
  -561
 73
   585
  0
VERTEX
  8
RK-SINKB
  5
3AED
 10
0.0
 20
0.0
 30
0.0
 70
   128
 71
   586
 72
  -585
 73
   561
  0
VERTEX
  8
RK-SINKB
  5
3AEE
 10
0.0
 20
0.0
 30
0.0
 70
   128
 71
   560
 72
  -585
 73
   566
  0
VERTEX
  8
RK-SINKB
  5
3AEF
 10
0.0
 20
0.0
 30
0.0
 70
   128
 71
   592
 72
  -566
 73
   585
  0
VERTEX
  8
RK-SINKB
  5
3AF0
 10
0.0
 20
0.0
 30
0.0
 70
   128
 71
   592
 72
  -605
 73
   566
  0
VERTEX
  8
RK-SINKB
  5
3AF1
 10
0.0
 20
0.0
 30
0.0
 70
   128
 71
   605
 72
   576
 73
  -566
  0
VERTEX
  8
RK-SINKB
  5
3AF2
 10
0.0
 20
0.0
 30
0.0
 70
   128
 71
  -616
 72
   614
 73
   615
  0
VERTEX
  8
RK-SINKB
  5
3AF3
 10
0.0
 20
0.0
 30
0.0
 70
   128
 71
   617
 72
  -614
 73
   616
  0
VERTEX
  8
RK-SINKB
  5
3AF4
 10
0.0
 20
0.0
 30
0.0
 70
   128
 71
  -617
 72
   618
 73
   614
  0
VERTEX
  8
RK-SINKB
  5
3AF5
 10
0.0
 20
0.0
 30
0.0
 70
   128
 71
   619
 72
  -618
 73
   617
  0
VERTEX
  8
RK-SINKB
  5
3AF6
 10
0.0
 20
0.0
 30
0.0
 70
   128
 71
  -610
 72
   620
 73
   611
  0
VERTEX
  8
RK-SINKB
  5
3AF7
 10
0.0
 20
0.0
 30
0.0
 70
   128
 71
   615
 72
  -620
 73
   610
  0
VERTEX
  8
RK-SINKB
  5
3AF8
 10
0.0
 20
0.0
 30
0.0
 70
   128
 71
  -615
 72
   621
 73
   620
  0
VERTEX
  8
RK-SINKB
  5
3AF9
 10
0.0
 20
0.0
 30
0.0
 70
   128
 71
   614
 72
  -621
 73
   615
  0
VERTEX
  8
RK-SINKB
  5
3AFA
 10
0.0
 20
0.0
 30
0.0
 70
   128
 71
  -614
 72
   622
 73
   621
  0
VERTEX
  8
RK-SINKB
  5
3AFB
 10
0.0
 20
0.0
 30
0.0
 70
   128
 71
   618
 72
  -622
 73
   614
  0
VERTEX
  8
RK-SINKB
  5
3AFC
 10
0.0
 20
0.0
 30
0.0
 70
   128
 71
  -618
 72
   623
 73
   622
  0
VERTEX
  8
RK-SINKB
  5
3AFD
 10
0.0
 20
0.0
 30
0.0
 70
   128
 71
   624
 72
  -623
 73
   618
  0
VERTEX
  8
RK-SINKB
  5
3AFE
 10
0.0
 20
0.0
 30
0.0
 70
   128
 71
  -611
 72
   625
 73
   612
  0
VERTEX
  8
RK-SINKB
  5
3AFF
 10
0.0
 20
0.0
 30
0.0
 70
   128
 71
   620
 72
  -625
 73
   611
  0
VERTEX
  8
RK-SINKB
  5
3B00
 10
0.0
 20
0.0
 30
0.0
 70
   128
 71
  -620
 72
   626
 73
   625
  0
VERTEX
  8
RK-SINKB
  5
3B01
 10
0.0
 20
0.0
 30
0.0
 70
   128
 71
   621
 72
  -626
 73
   620
  0
VERTEX
  8
RK-SINKB
  5
3B02
 10
0.0
 20
0.0
 30
0.0
 70
   128
 71
  -621
 72
   627
 73
   626
  0
VERTEX
  8
RK-SINKB
  5
3B03
 10
0.0
 20
0.0
 30
0.0
 70
   128
 71
   622
 72
  -627
 73
   621
  0
VERTEX
  8
RK-SINKB
  5
3B04
 10
0.0
 20
0.0
 30
0.0
 70
   128
 71
  -622
 72
   628
 73
   627
  0
VERTEX
  8
RK-SINKB
  5
3B05
 10
0.0
 20
0.0
 30
0.0
 70
   128
 71
   623
 72
  -628
 73
   622
  0
VERTEX
  8
RK-SINKB
  5
3B06
 10
0.0
 20
0.0
 30
0.0
 70
   128
 71
  -625
 72
   629
 73
   630
  0
VERTEX
  8
RK-SINKB
  5
3B07
 10
0.0
 20
0.0
 30
0.0
 70
   128
 71
   626
 72
  -629
 73
   625
  0
VERTEX
  8
RK-SINKB
  5
3B08
 10
0.0
 20
0.0
 30
0.0
 70
   128
 71
  -626
 72
   631
 73
   629
  0
VERTEX
  8
RK-SINKB
  5
3B09
 10
0.0
 20
0.0
 30
0.0
 70
   128
 71
   627
 72
  -631
 73
   626
  0
VERTEX
  8
RK-SINKB
  5
3B0A
 10
0.0
 20
0.0
 30
0.0
 70
   128
 71
  -609
 72
   615
 73
   610
  0
VERTEX
  8
RK-SINKB
  5
3B0B
 10
0.0
 20
0.0
 30
0.0
 70
   128
 71
   616
 72
  -615
 73
   609
  0
VERTEX
  8
RK-SINKB
  5
3B0C
 10
0.0
 20
0.0
 30
0.0
 70
   128
 71
  -618
 72
   632
 73
   624
  0
VERTEX
  8
RK-SINKB
  5
3B0D
 10
0.0
 20
0.0
 30
0.0
 70
   128
 71
  -632
 72
   618
 73
   619
  0
VERTEX
  8
RK-SINKB
  5
3B0E
 10
0.0
 20
0.0
 30
0.0
 70
   128
 71
   632
 72
   633
 73
   624
  0
VERTEX
  8
RK-SINKB
  5
3B0F
 10
0.0
 20
0.0
 30
0.0
 70
   128
 71
   634
 72
   610
 73
   611
  0
VERTEX
  8
RK-SINKB
  5
3B10
 10
0.0
 20
0.0
 30
0.0
 70
   128
 71
   635
 72
   624
 73
   623
  0
VERTEX
  8
RK-SINKB
  5
3B11
 10
0.0
 20
0.0
 30
0.0
 70
   128
 71
   611
 72
   612
 73
   636
  0
VERTEX
  8
RK-SINKB
  5
3B12
 10
0.0
 20
0.0
 30
0.0
 70
   128
 71
   637
 72
   628
 73
   623
  0
VERTEX
  8
RK-SINKB
  5
3B13
 10
0.0
 20
0.0
 30
0.0
 70
   128
 71
   638
 72
   612
 73
   613
  0
VERTEX
  8
RK-SINKB
  5
3B14
 10
0.0
 20
0.0
 30
0.0
 70
   128
 71
  -630
 72
   612
 73
   625
  0
VERTEX
  8
RK-SINKB
  5
3B15
 10
0.0
 20
0.0
 30
0.0
 70
   128
 71
  -612
 72
   630
 73
   613
  0
VERTEX
  8
RK-SINKB
  5
3B16
 10
0.0
 20
0.0
 30
0.0
 70
   128
 71
  -628
 72
   631
 73
   627
  0
VERTEX
  8
RK-SINKB
  5
3B17
 10
0.0
 20
0.0
 30
0.0
 70
   128
 71
   628
 72
   639
 73
  -631
  0
VERTEX
  8
RK-SINKB
  5
3B18
 10
0.0
 20
0.0
 30
0.0
 70
   128
 71
   639
 72
   628
 73
   640
  0
VERTEX
  8
RK-SINKB
  5
3B19
 10
0.0
 20
0.0
 30
0.0
 70
   128
 71
  -438
 72
   641
 73
   443
  0
VERTEX
  8
RK-SINKB
  5
3B1A
 10
0.0
 20
0.0
 30
0.0
 70
   128
 71
   440
 72
  -641
 73
   438
  0
VERTEX
  8
RK-SINKB
  5
3B1B
 10
0.0
 20
0.0
 30
0.0
 70
   128
 71
  -440
 72
   446
 73
   641
  0
VERTEX
  8
RK-SINKB
  5
3B1C
 10
0.0
 20
0.0
 30
0.0
 70
   128
 71
   441
 72
  -446
 73
   440
  0
VERTEX
  8
RK-SINKB
  5
3B1D
 10
0.0
 20
0.0
 30
0.0
 70
   128
 71
  -444
 72
   642
 73
   643
  0
VERTEX
  8
RK-SINKB
  5
3B1E
 10
0.0
 20
0.0
 30
0.0
 70
   128
 71
   443
 72
  -642
 73
   444
  0
VERTEX
  8
RK-SINKB
  5
3B1F
 10
0.0
 20
0.0
 30
0.0
 70
   128
 71
  -443
 72
   644
 73
   642
  0
VERTEX
  8
RK-SINKB
  5
3B20
 10
0.0
 20
0.0
 30
0.0
 70
   128
 71
   641
 72
  -644
 73
   443
  0
VERTEX
  8
RK-SINKB
  5
3B21
 10
0.0
 20
0.0
 30
0.0
 70
   128
 71
  -641
 72
   645
 73
   644
  0
VERTEX
  8
RK-SINKB
  5
3B22
 10
0.0
 20
0.0
 30
0.0
 70
   128
 71
   446
 72
  -645
 73
   641
  0
VERTEX
  8
RK-SINKB
  5
3B23
 10
0.0
 20
0.0
 30
0.0
 70
   128
 71
  -446
 72
   646
 73
   645
  0
VERTEX
  8
RK-SINKB
  5
3B24
 10
0.0
 20
0.0
 30
0.0
 70
   128
 71
   445
 72
  -646
 73
   446
  0
VERTEX
  8
RK-SINKB
  5
3B25
 10
0.0
 20
0.0
 30
0.0
 70
   128
 71
  -643
 72
   647
 73
   648
  0
VERTEX
  8
RK-SINKB
  5
3B26
 10
0.0
 20
0.0
 30
0.0
 70
   128
 71
   642
 72
  -647
 73
   643
  0
VERTEX
  8
RK-SINKB
  5
3B27
 10
0.0
 20
0.0
 30
0.0
 70
   128
 71
  -642
 72
   649
 73
   647
  0
VERTEX
  8
RK-SINKB
  5
3B28
 10
0.0
 20
0.0
 30
0.0
 70
   128
 71
   644
 72
  -649
 73
   642
  0
VERTEX
  8
RK-SINKB
  5
3B29
 10
0.0
 20
0.0
 30
0.0
 70
   128
 71
  -644
 72
   650
 73
   649
  0
VERTEX
  8
RK-SINKB
  5
3B2A
 10
0.0
 20
0.0
 30
0.0
 70
   128
 71
   645
 72
  -650
 73
   644
  0
VERTEX
  8
RK-SINKB
  5
3B2B
 10
0.0
 20
0.0
 30
0.0
 70
   128
 71
  -645
 72
   651
 73
   650
  0
VERTEX
  8
RK-SINKB
  5
3B2C
 10
0.0
 20
0.0
 30
0.0
 70
   128
 71
   646
 72
  -651
 73
   645
  0
VERTEX
  8
RK-SINKB
  5
3B2D
 10
0.0
 20
0.0
 30
0.0
 70
   128
 71
  -647
 72
   652
 73
   653
  0
VERTEX
  8
RK-SINKB
  5
3B2E
 10
0.0
 20
0.0
 30
0.0
 70
   128
 71
   649
 72
  -652
 73
   647
  0
VERTEX
  8
RK-SINKB
  5
3B2F
 10
0.0
 20
0.0
 30
0.0
 70
   128
 71
  -649
 72
   654
 73
   652
  0
VERTEX
  8
RK-SINKB
  5
3B30
 10
0.0
 20
0.0
 30
0.0
 70
   128
 71
   650
 72
  -654
 73
   649
  0
VERTEX
  8
RK-SINKB
  5
3B31
 10
0.0
 20
0.0
 30
0.0
 70
   128
 71
  -653
 72
   648
 73
   647
  0
VERTEX
  8
RK-SINKB
  5
3B32
 10
0.0
 20
0.0
 30
0.0
 70
   128
 71
  -648
 72
   653
 73
   655
  0
VERTEX
  8
RK-SINKB
  5
3B33
 10
0.0
 20
0.0
 30
0.0
 70
   128
 71
  -651
 72
   654
 73
   650
  0
VERTEX
  8
RK-SINKB
  5
3B34
 10
0.0
 20
0.0
 30
0.0
 70
   128
 71
   651
 72
   656
 73
  -654
  0
VERTEX
  8
RK-SINKB
  5
3B35
 10
0.0
 20
0.0
 30
0.0
 70
   128
 71
   656
 72
   651
 73
   657
  0
VERTEX
  8
RK-SINKB
  5
3B36
 10
0.0
 20
0.0
 30
0.0
 70
   128
 71
   431
 72
  -477
 73
   442
  0
VERTEX
  8
RK-SINKB
  5
3B37
 10
0.0
 20
0.0
 30
0.0
 70
   128
 71
  -442
 72
   477
 73
   445
  0
VERTEX
  8
RK-SINKB
  5
3B38
 10
0.0
 20
0.0
 30
0.0
 70
   128
 71
   557
 72
  -646
 73
   477
  0
VERTEX
  8
RK-SINKB
  5
3B39
 10
0.0
 20
0.0
 30
0.0
 70
   128
 71
   445
 72
  -477
 73
   646
  0
VERTEX
  8
RK-SINKB
  5
3B3A
 10
0.0
 20
0.0
 30
0.0
 70
   128
 71
   651
 72
  -646
 73
   563
  0
VERTEX
  8
RK-SINKB
  5
3B3B
 10
0.0
 20
0.0
 30
0.0
 70
   128
 71
   557
 72
  -563
 73
   646
  0
VERTEX
  8
RK-SINKB
  5
3B3C
 10
0.0
 20
0.0
 30
0.0
 70
   128
 71
   651
 72
  -563
 73
   656
  0
VERTEX
  8
RK-SINKB
  5
3B3D
 10
0.0
 20
0.0
 30
0.0
 70
   128
 71
   563
 72
   574
 73
  -656
  0
VERTEX
  8
RK-SINKB
  5
3B3E
 10
0.0
 20
0.0
 30
0.0
 70
   128
 71
   444
 72
  -624
 73
   439
  0
VERTEX
  8
RK-SINKB
  5
3B3F
 10
0.0
 20
0.0
 30
0.0
 70
   128
 71
  -439
 72
   624
 73
   632
  0
VERTEX
  8
RK-SINKB
  5
3B40
 10
0.0
 20
0.0
 30
0.0
 70
   128
 71
   623
 72
  -624
 73
   643
  0
VERTEX
  8
RK-SINKB
  5
3B41
 10
0.0
 20
0.0
 30
0.0
 70
   128
 71
   444
 72
  -643
 73
   624
  0
VERTEX
  8
RK-SINKB
  5
3B42
 10
0.0
 20
0.0
 30
0.0
 70
   128
 71
   623
 72
  -643
 73
   628
  0
VERTEX
  8
RK-SINKB
  5
3B43
 10
0.0
 20
0.0
 30
0.0
 70
   128
 71
   648
 72
  -628
 73
   643
  0
VERTEX
  8
RK-SINKB
  5
3B44
 10
0.0
 20
0.0
 30
0.0
 70
   128
 71
   628
 72
  -648
 73
   639
  0
VERTEX
  8
RK-SINKB
  5
3B45
 10
0.0
 20
0.0
 30
0.0
 70
   128
 71
   648
 72
   655
 73
  -639
  0
VERTEX
  8
RK-SINKB
  5
3B46
 10
0.0
 20
0.0
 30
0.0
 70
   128
 71
   474
 72
  -580
 73
   436
  0
VERTEX
  8
RK-SINKB
  5
3B47
 10
0.0
 20
0.0
 30
0.0
 70
   128
 71
  -436
 72
   580
 73
   437
  0
VERTEX
  8
RK-SINKB
  5
3B48
 10
0.0
 20
0.0
 30
0.0
 70
   128
 71
   581
 72
  -580
 73
   485
  0
VERTEX
  8
RK-SINKB
  5
3B49
 10
0.0
 20
0.0
 30
0.0
 70
   128
 71
   474
 72
  -485
 73
   580
  0
VERTEX
  8
RK-SINKB
  5
3B4A
 10
0.0
 20
0.0
 30
0.0
 70
   128
 71
   581
 72
  -485
 73
   583
  0
VERTEX
  8
RK-SINKB
  5
3B4B
 10
0.0
 20
0.0
 30
0.0
 70
   128
 71
   487
 72
  -583
 73
   485
  0
VERTEX
  8
RK-SINKB
  5
3B4C
 10
0.0
 20
0.0
 30
0.0
 70
   128
 71
   487
 72
  -499
 73
   583
  0
VERTEX
  8
RK-SINKB
  5
3B4D
 10
0.0
 20
0.0
 30
0.0
 70
   128
 71
   499
 72
   599
 73
  -583
  0
VERTEX
  8
RK-SINKB
  5
3B4E
 10
0.0
 20
0.0
 30
0.0
 70
   128
 71
   431
 72
  -442
 73
   432
  0
VERTEX
  8
RK-SINKB
  5
3B4F
 10
0.0
 20
0.0
 30
0.0
 70
   128
 71
   405
 72
  -432
 73
   442
  0
VERTEX
  8
RK-SINKB
  5
3B50
 10
0.0
 20
0.0
 30
0.0
 70
   128
 71
  -659
 72
  -574
 73
   658
  0
VERTEX
  8
RK-SINKB
  5
3B51
 10
0.0
 20
0.0
 30
0.0
 70
   128
 71
   659
 72
  -660
 73
  -574
  0
VERTEX
  8
RK-SINKB
  5
3B52
 10
0.0
 20
0.0
 30
0.0
 70
   128
 71
  -574
 72
  -660
 73
   656
  0
VERTEX
  8
RK-SINKB
  5
3B53
 10
0.0
 20
0.0
 30
0.0
 70
   128
 71
   660
 72
  -661
 73
  -656
  0
VERTEX
  8
RK-SINKB
  5
3B54
 10
0.0
 20
0.0
 30
0.0
 70
   128
 71
   661
 72
  -662
 73
  -656
  0
VERTEX
  8
RK-SINKB
  5
3B55
 10
0.0
 20
0.0
 30
0.0
 70
   128
 71
   662
 72
  -663
 73
  -656
  0
VERTEX
  8
RK-SINKB
  5
3B56
 10
0.0
 20
0.0
 30
0.0
 70
   128
 71
   663
 72
  -664
 73
  -656
  0
VERTEX
  8
RK-SINKB
  5
3B57
 10
0.0
 20
0.0
 30
0.0
 70
   128
 71
  -656
 72
  -664
 73
   654
  0
VERTEX
  8
RK-SINKB
  5
3B58
 10
0.0
 20
0.0
 30
0.0
 70
   128
 71
  -654
 72
  -664
 73
   652
  0
VERTEX
  8
RK-SINKB
  5
3B59
 10
0.0
 20
0.0
 30
0.0
 70
   128
 71
  -652
 72
  -664
 73
   653
  0
VERTEX
  8
RK-SINKB
  5
3B5A
 10
0.0
 20
0.0
 30
0.0
 70
   128
 71
  -653
 72
  -664
 73
   655
  0
VERTEX
  8
RK-SINKB
  5
3B5B
 10
0.0
 20
0.0
 30
0.0
 70
   128
 71
  -655
 72
  -664
 73
   639
  0
VERTEX
  8
RK-SINKB
  5
3B5C
 10
0.0
 20
0.0
 30
0.0
 70
   128
 71
   607
 72
  -613
 73
   598
  0
VERTEX
  8
RK-SINKB
  5
3B5D
 10
0.0
 20
0.0
 30
0.0
 70
   128
 71
   605
 72
  -597
 73
   576
  0
VERTEX
  8
RK-SINKB
  5
3B5E
 10
0.0
 20
0.0
 30
0.0
 70
   128
 71
  -574
 72
  -567
 73
  -658
  0
VERTEX
  8
RK-SINKB
  5
3B5F
 10
0.0
 20
0.0
 30
0.0
 70
   128
 71
   664
 72
  -665
 73
  -639
  0
VERTEX
  8
RK-SINKB
  5
3B60
 10
0.0
 20
0.0
 30
0.0
 70
   128
 71
   665
 72
  -666
 73
  -639
  0
VERTEX
  8
RK-SINKB
  5
3B61
 10
0.0
 20
0.0
 30
0.0
 70
   128
 71
   666
 72
  -667
 73
  -639
  0
VERTEX
  8
RK-SINKB
  5
3B62
 10
0.0
 20
0.0
 30
0.0
 70
   128
 71
   667
 72
  -668
 73
  -639
  0
VERTEX
  8
RK-SINKB
  5
3B63
 10
0.0
 20
0.0
 30
0.0
 70
   128
 71
  -639
 72
  -668
 73
  -629
  0
VERTEX
  8
RK-SINKB
  5
3B64
 10
0.0
 20
0.0
 30
0.0
 70
   128
 71
  -629
 72
  -668
 73
  -613
  0
VERTEX
  8
RK-SINKB
  5
3B65
 10
0.0
 20
0.0
 30
0.0
 70
   128
 71
  -613
 72
  -668
 73
  -598
  0
VERTEX
  8
RK-SINKB
  5
3B66
 10
0.0
 20
0.0
 30
0.0
 70
   128
 71
  -597
 72
  -598
 73
  -576
  0
VERTEX
  8
RK-SINKB
  5
3B67
 10
0.0
 20
0.0
 30
0.0
 70
   128
 71
  -567
 72
  -576
 73
  -658
  0
VERTEX
  8
RK-SINKB
  5
3B68
 10
0.0
 20
0.0
 30
0.0
 70
   128
 71
  -658
 72
  -576
 73
   669
  0
VERTEX
  8
RK-SINKB
  5
3B69
 10
0.0
 20
0.0
 30
0.0
 70
   128
 71
   668
 72
  -670
 73
  -598
  0
VERTEX
  8
RK-SINKB
  5
3B6A
 10
0.0
 20
0.0
 30
0.0
 70
   128
 71
   670
 72
  -671
 73
  -598
  0
VERTEX
  8
RK-SINKB
  5
3B6B
 10
0.0
 20
0.0
 30
0.0
 70
   128
 71
   671
 72
  -672
 73
  -598
  0
VERTEX
  8
RK-SINKB
  5
3B6C
 10
0.0
 20
0.0
 30
0.0
 70
   128
 71
  -669
 72
  -576
 73
   673
  0
VERTEX
  8
RK-SINKB
  5
3B6D
 10
0.0
 20
0.0
 30
0.0
 70
   128
 71
  -673
 72
  -576
 73
   672
  0
VERTEX
  8
RK-SINKB
  5
3B6E
 10
0.0
 20
0.0
 30
0.0
 70
   128
 71
  -598
 72
  -672
 73
  -576
  0
VERTEX
  8
RK-SINKB
  5
3B6F
 10
0.0
 20
0.0
 30
0.0
 70
   128
 71
   501
 72
  -674
 73
   502
  0
VERTEX
  8
RK-SINKB
  5
3B70
 10
0.0
 20
0.0
 30
0.0
 70
   128
 71
   463
 72
  -511
 73
   609
  0
VERTEX
  8
RK-SINKB
  5
3B71
 10
0.0
 20
0.0
 30
0.0
 70
   128
 71
  -609
 72
   511
 73
   616
  0
VERTEX
  8
RK-SINKB
  5
3B72
 10
0.0
 20
0.0
 30
0.0
 70
   128
 71
   513
 72
  -617
 73
   511
  0
VERTEX
  8
RK-SINKB
  5
3B73
 10
0.0
 20
0.0
 30
0.0
 70
   128
 71
   616
 72
  -511
 73
   617
  0
VERTEX
  8
RK-SINKB
  5
3B74
 10
0.0
 20
0.0
 30
0.0
 70
   128
 71
   619
 72
  -617
 73
   515
  0
VERTEX
  8
RK-SINKB
  5
3B75
 10
0.0
 20
0.0
 30
0.0
 70
   128
 71
   513
 72
  -515
 73
   617
  0
VERTEX
  8
RK-SINKB
  5
3B76
 10
0.0
 20
0.0
 30
0.0
 70
   128
 71
   619
 72
  -515
 73
   632
  0
VERTEX
  8
RK-SINKB
  5
3B77
 10
0.0
 20
0.0
 30
0.0
 70
   128
 71
   515
 72
   447
 73
  -632
  0
VERTEX
  8
RK-SINKB
  5
3B78
 10
0.0
 20
0.0
 30
0.0
 70
   128
 71
   599
 72
  -499
 73
   609
  0
VERTEX
  8
RK-SINKB
  5
3B79
 10
0.0
 20
0.0
 30
0.0
 70
   128
 71
   463
 72
  -609
 73
   674
  0
VERTEX
  8
RK-SINKB
  5
3B7A
 10
0.0
 20
0.0
 30
0.0
 70
   128
 71
   499
 72
  -674
 73
  -609
  0
VERTEX
  8
RK-SINKB
  5
3B7B
 10
0.0
 20
0.0
 30
0.0
 70
   128
 71
   447
 72
  -675
 73
   632
  0
VERTEX
  8
RK-SINKB
  5
3B7C
 10
0.0
 20
0.0
 30
0.0
 70
   128
 71
   439
 72
  -632
 73
   675
  0
VERTEX
  8
RK-SINKB
  5
3B7D
 10
0.0
 20
0.0
 30
0.0
 70
   128
 71
   501
 72
  -497
 73
   460
  0
VERTEX
  8
RK-SINKB
  5
3B7E
 10
0.0
 20
0.0
 30
0.0
 70
   128
 71
   497
 72
  -498
 73
  -460
  0
VERTEX
  8
RK-SINKB
  5
3B7F
 10
0.0
 20
0.0
 30
0.0
 70
   128
 71
   498
 72
  -452
 73
  -460
  0
VERTEX
  8
RK-SINKB
  5
3B80
 10
0.0
 20
0.0
 30
0.0
 70
   128
 71
   532
 72
  -460
 73
   530
  0
VERTEX
  8
RK-SINKB
  5
3B81
 10
0.0
 20
0.0
 30
0.0
 70
   128
 71
   529
 72
  -530
 73
   541
  0
VERTEX
  8
RK-SINKB
  5
3B82
 10
0.0
 20
0.0
 30
0.0
 70
   128
 71
  -455
 72
   -52
 73
   452
  0
VERTEX
  8
RK-SINKB
  5
3B83
 10
0.0
 20
0.0
 30
0.0
 70
   128
 71
  -460
 72
  -452
 73
  -530
  0
VERTEX
  8
RK-SINKB
  5
3B84
 10
0.0
 20
0.0
 30
0.0
 70
   128
 71
  -541
 72
  -530
 73
    52
  0
VERTEX
  8
RK-SINKB
  5
3B85
 10
0.0
 20
0.0
 30
0.0
 70
   128
 71
  -452
 72
   -52
 73
  -530
  0
VERTEX
  8
RK-SINKB
  5
3B86
 10
0.0
 20
0.0
 30
0.0
 70
   128
 71
  -678
 72
   676
 73
   677
  0
VERTEX
  8
RK-SINKB
  5
3B87
 10
0.0
 20
0.0
 30
0.0
 70
   128
 71
  -676
 72
   678
 73
   679
  0
VERTEX
  8
RK-SINKB
  5
3B88
 10
0.0
 20
0.0
 30
0.0
 70
   128
 71
  -678
 72
   680
 73
   679
  0
VERTEX
  8
RK-SINKB
  5
3B89
 10
0.0
 20
0.0
 30
0.0
 70
   128
 71
   678
 72
   681
 73
  -680
  0
VERTEX
  8
RK-SINKB
  5
3B8A
 10
0.0
 20
0.0
 30
0.0
 70
   128
 71
  -680
 72
   682
 73
   683
  0
VERTEX
  8
RK-SINKB
  5
3B8B
 10
0.0
 20
0.0
 30
0.0
 70
   128
 71
   681
 72
  -682
 73
   680
  0
VERTEX
  8
RK-SINKB
  5
3B8C
 10
0.0
 20
0.0
 30
0.0
 70
   128
 71
  -685
 72
   682
 73
   684
  0
VERTEX
  8
RK-SINKB
  5
3B8D
 10
0.0
 20
0.0
 30
0.0
 70
   128
 71
  -682
 72
   685
 73
   683
  0
VERTEX
  8
RK-SINKB
  5
3B8E
 10
0.0
 20
0.0
 30
0.0
 70
   128
 71
  -688
 72
   686
 73
   687
  0
VERTEX
  8
RK-SINKB
  5
3B8F
 10
0.0
 20
0.0
 30
0.0
 70
   128
 71
  -686
 72
   688
 73
   689
  0
VERTEX
  8
RK-SINKB
  5
3B90
 10
0.0
 20
0.0
 30
0.0
 70
   128
 71
  -688
 72
   690
 73
   689
  0
VERTEX
  8
RK-SINKB
  5
3B91
 10
0.0
 20
0.0
 30
0.0
 70
   128
 71
   688
 72
   691
 73
  -690
  0
VERTEX
  8
RK-SINKB
  5
3B92
 10
0.0
 20
0.0
 30
0.0
 70
   128
 71
  -690
 72
   692
 73
   693
  0
VERTEX
  8
RK-SINKB
  5
3B93
 10
0.0
 20
0.0
 30
0.0
 70
   128
 71
   691
 72
  -692
 73
   690
  0
VERTEX
  8
RK-SINKB
  5
3B94
 10
0.0
 20
0.0
 30
0.0
 70
   128
 71
  -695
 72
   692
 73
   694
  0
VERTEX
  8
RK-SINKB
  5
3B95
 10
0.0
 20
0.0
 30
0.0
 70
   128
 71
  -692
 72
   695
 73
   693
  0
VERTEX
  8
RK-SINKB
  5
3B96
 10
0.0
 20
0.0
 30
0.0
 70
   128
 71
  -684
 72
   686
 73
   685
  0
VERTEX
  8
RK-SINKB
  5
3B97
 10
0.0
 20
0.0
 30
0.0
 70
   128
 71
  -686
 72
   684
 73
   687
  0
VERTEX
  8
RK-SINKB
  5
3B98
 10
0.0
 20
0.0
 30
0.0
 70
   128
 71
   -46
 72
   695
 73
   694
  0
VERTEX
  8
RK-SINKB
  5
3B99
 10
0.0
 20
0.0
 30
0.0
 70
   128
 71
    22
 72
  -695
 73
   -46
  0
VERTEX
  8
RK-SINKB
  5
3B9A
 10
0.0
 20
0.0
 30
0.0
 70
   128
 71
  -676
 72
    48
 73
   677
  0
VERTEX
  8
RK-SINKB
  5
3B9B
 10
0.0
 20
0.0
 30
0.0
 70
   128
 71
   676
 72
   -14
 73
   -48
  0
VERTEX
  8
RK-SINKB
  5
3B9C
 10
0.0
 20
0.0
 30
0.0
 70
   128
 71
  -677
 72
   681
 73
   678
  0
VERTEX
  8
RK-SINKB
  5
3B9D
 10
0.0
 20
0.0
 30
0.0
 70
   128
 71
   -35
 72
   677
 73
   -48
  0
VERTEX
  8
RK-SINKB
  5
3B9E
 10
0.0
 20
0.0
 30
0.0
 70
   128
 71
   -46
 72
   546
 73
   -47
  0
VERTEX
  8
RK-SINKB
  5
3B9F
 10
0.0
 20
0.0
 30
0.0
 70
   128
 71
  -694
 72
  -546
 73
    46
  0
VERTEX
  8
RK-SINKB
  5
3BA0
 10
0.0
 20
0.0
 30
0.0
 70
   128
 71
  -694
 72
   539
 73
  -546
  0
VERTEX
  8
RK-SINKB
  5
3BA1
 10
0.0
 20
0.0
 30
0.0
 70
   128
 71
  -694
 72
   538
 73
  -539
  0
VERTEX
  8
RK-SINKB
  5
3BA2
 10
0.0
 20
0.0
 30
0.0
 70
   128
 71
  -694
 72
   540
 73
  -538
  0
VERTEX
  8
RK-SINKB
  5
3BA3
 10
0.0
 20
0.0
 30
0.0
 70
   128
 71
  -694
 72
   469
 73
  -540
  0
VERTEX
  8
RK-SINKB
  5
3BA4
 10
0.0
 20
0.0
 30
0.0
 70
   128
 71
  -692
 72
  -469
 73
   694
  0
VERTEX
  8
RK-SINKB
  5
3BA5
 10
0.0
 20
0.0
 30
0.0
 70
   128
 71
  -688
 72
   692
 73
   691
  0
VERTEX
  8
RK-SINKB
  5
3BA6
 10
0.0
 20
0.0
 30
0.0
 70
   128
 71
  -684
 72
   688
 73
   687
  0
VERTEX
  8
RK-SINKB
  5
3BA7
 10
0.0
 20
0.0
 30
0.0
 70
   128
 71
  -682
 72
  -688
 73
   684
  0
VERTEX
  8
RK-SINKB
  5
3BA8
 10
0.0
 20
0.0
 30
0.0
 70
   128
 71
  -677
 72
   682
 73
  -681
  0
VERTEX
  8
RK-SINKB
  5
3BA9
 10
0.0
 20
0.0
 30
0.0
 70
   128
 71
  -451
 72
  -677
 73
    35
  0
VERTEX
  8
RK-SINKB
  5
3BAA
 10
0.0
 20
0.0
 30
0.0
 70
   128
 71
  -688
 72
  -468
 73
  -692
  0
VERTEX
  8
RK-SINKB
  5
3BAB
 10
0.0
 20
0.0
 30
0.0
 70
   128
 71
  -682
 72
  -468
 73
  -688
  0
VERTEX
  8
RK-SINKB
  5
3BAC
 10
0.0
 20
0.0
 30
0.0
 70
   128
 71
  -682
 72
   472
 73
  -468
  0
VERTEX
  8
RK-SINKB
  5
3BAD
 10
0.0
 20
0.0
 30
0.0
 70
   128
 71
  -677
 72
  -472
 73
  -682
  0
VERTEX
  8
RK-SINKB
  5
3BAE
 10
0.0
 20
0.0
 30
0.0
 70
   128
 71
  -521
 72
  -677
 73
   451
  0
VERTEX
  8
RK-SINKB
  5
3BAF
 10
0.0
 20
0.0
 30
0.0
 70
   128
 71
  -677
 72
   520
 73
  -472
  0
VERTEX
  8
RK-SINKB
  5
3BB0
 10
0.0
 20
0.0
 30
0.0
 70
   128
 71
  -520
 72
  -677
 73
   521
  0
VERTEX
  8
RK-SINKB
  5
3BB1
 10
0.0
 20
0.0
 30
0.0
 70
   128
 71
   680
 72
  -683
 73
   679
  0
VERTEX
  8
RK-SINKB
  5
3BB2
 10
0.0
 20
0.0
 30
0.0
 70
   128
 71
   676
 72
  -679
 73
    14
  0
VERTEX
  8
RK-SINKB
  5
3BB3
 10
0.0
 20
0.0
 30
0.0
 70
   128
 71
   -22
 72
  -696
 73
   695
  0
VERTEX
  8
RK-SINKB
  5
3BB4
 10
0.0
 20
0.0
 30
0.0
 70
   128
 71
  -695
 72
  -697
 73
   693
  0
VERTEX
  8
RK-SINKB
  5
3BB5
 10
0.0
 20
0.0
 30
0.0
 70
   128
 71
  -693
 72
  -698
 73
   690
  0
VERTEX
  8
RK-SINKB
  5
3BB6
 10
0.0
 20
0.0
 30
0.0
 70
   128
 71
   689
 72
  -690
 73
   686
  0
VERTEX
  8
RK-SINKB
  5
3BB7
 10
0.0
 20
0.0
 30
0.0
 70
   128
 71
   685
 72
  -686
 73
   683
  0
VERTEX
  8
RK-SINKB
  5
3BB8
 10
0.0
 20
0.0
 30
0.0
 70
   128
 71
   -14
 72
  -679
 73
  -699
  0
VERTEX
  8
RK-SINKB
  5
3BB9
 10
0.0
 20
0.0
 30
0.0
 70
   128
 71
  -690
 72
  -700
 73
  -686
  0
VERTEX
  8
RK-SINKB
  5
3BBA
 10
0.0
 20
0.0
 30
0.0
 70
   128
 71
  -686
 72
  -701
 73
  -683
  0
VERTEX
  8
RK-SINKB
  5
3BBB
 10
0.0
 20
0.0
 30
0.0
 70
   128
 71
  -679
 72
  -683
 73
  -702
  0
SEQEND
  8
RK-SINKB
  5
3BBC
  0
POLYLINE
  8
RK-DRAIN
  5
3BBD
 66
     1
 10
0.0
 20
0.0
 30
0.0
 70
    64
 71
     6
 72
     3
  0
VERTEX
  8
RK-DRAIN
  5
3BBE
 10
24.125
 20
-12.0
 30
0.5
 70
   192
  0
VERTEX
  8
RK-DRAIN
  5
3BBF
 10
24.125
 20
-12.0
 30
0.0
 70
   192
  0
VERTEX
  8
RK-DRAIN
  5
3BC0
 10
24.12074072828613
 20
-11.96764761936218
 30
0.0
 70
   192
  0
VERTEX
  8
RK-DRAIN
  5
3BC1
 10
24.12074072828613
 20
-11.96764761936218
 30
0.5
 70
   192
  0
VERTEX
  8
RK-DRAIN
  5
3BC2
 10
25.75
 20
-12.0
 30
0.0
 70
   192
  0
VERTEX
  8
RK-DRAIN
  5
3BC3
 10
25.75
 20
-12.0
 30
0.8125
 70
   192
  0
VERTEX
  8
RK-DRAIN
  5
3BC4
 10
25.69037019600587
 20
-11.54706667107059
 30
0.8125
 70
   192
  0
VERTEX
  8
RK-DRAIN
  5
3BC5
 10
25.69037019600587
 20
-11.54706667107059
 30
0.0
 70
   192
  0
VERTEX
  8
RK-DRAIN
  5
3BC6
 10
24.10825317547305
 20
-11.9375
 30
0.0
 70
   192
  0
VERTEX
  8
RK-DRAIN
  5
3BC7
 10
24.10825317547305
 20
-11.9375
 30
0.5
 70
   192
  0
VERTEX
  8
RK-DRAIN
  5
3BC8
 10
25.51554445662277
 20
-11.125
 30
0.8125
 70
   192
  0
VERTEX
  8
RK-DRAIN
  5
3BC9
 10
25.51554445662277
 20
-11.125
 30
0.0
 70
   192
  0
VERTEX
  8
RK-DRAIN
  5
3BCA
 10
24.08838834764832
 20
-11.91161165235168
 30
0.0
 70
   192
  0
VERTEX
  8
RK-DRAIN
  5
3BCB
 10
24.08838834764832
 20
-11.91161165235168
 30
0.5
 70
   192
  0
VERTEX
  8
RK-DRAIN
  5
3BCC
 10
25.23743686707646
 20
-10.76256313292354
 30
0.8125
 70
   192
  0
VERTEX
  8
RK-DRAIN
  5
3BCD
 10
25.23743686707646
 20
-10.76256313292354
 30
0.0
 70
   192
  0
VERTEX
  8
RK-DRAIN
  5
3BCE
 10
24.0625
 20
-11.89174682452694
 30
0.0
 70
   192
  0
VERTEX
  8
RK-DRAIN
  5
3BCF
 10
24.0625
 20
-11.89174682452694
 30
0.5
 70
   192
  0
VERTEX
  8
RK-DRAIN
  5
3BD0
 10
24.875
 20
-10.48445554337723
 30
0.8125
 70
   192
  0
VERTEX
  8
RK-DRAIN
  5
3BD1
 10
24.875
 20
-10.48445554337723
 30
0.0
 70
   192
  0
VERTEX
  8
RK-DRAIN
  5
3BD2
 10
24.03235238063782
 20
-11.87925927171386
 30
0.0
 70
   192
  0
VERTEX
  8
RK-DRAIN
  5
3BD3
 10
24.03235238063782
 20
-11.87925927171386
 30
0.5
 70
   192
  0
VERTEX
  8
RK-DRAIN
  5
3BD4
 10
24.45293332892941
 20
-10.30962980399413
 30
0.8125
 70
   192
  0
VERTEX
  8
RK-DRAIN
  5
3BD5
 10
24.45293332892941
 20
-10.30962980399413
 30
0.0
 70
   192
  0
VERTEX
  8
RK-DRAIN
  5
3BD6
 10
24.0
 20
-11.875
 30
0.0
 70
   192
  0
VERTEX
  8
RK-DRAIN
  5
3BD7
 10
24.0
 20
-11.875
 30
0.5
 70
   192
  0
VERTEX
  8
RK-DRAIN
  5
3BD8
 10
24.0
 20
-10.25
 30
0.8125
 70
   192
  0
VERTEX
  8
RK-DRAIN
  5
3BD9
 10
24.0
 20
-10.25
 30
0.0
 70
   192
  0
VERTEX
  8
RK-DRAIN
  5
3BDA
 10
23.96764761936218
 20
-11.87925927171386
 30
0.0
 70
   192
  0
VERTEX
  8
RK-DRAIN
  5
3BDB
 10
23.96764761936218
 20
-11.87925927171386
 30
0.5
 70
   192
  0
VERTEX
  8
RK-DRAIN
  5
3BDC
 10
23.54706667107059
 20
-10.30962980399413
 30
0.8125
 70
   192
  0
VERTEX
  8
RK-DRAIN
  5
3BDD
 10
23.54706667107059
 20
-10.30962980399413
 30
0.0
 70
   192
  0
VERTEX
  8
RK-DRAIN
  5
3BDE
 10
23.9375
 20
-11.89174682452694
 30
0.0
 70
   192
  0
VERTEX
  8
RK-DRAIN
  5
3BDF
 10
23.9375
 20
-11.89174682452694
 30
0.5
 70
   192
  0
VERTEX
  8
RK-DRAIN
  5
3BE0
 10
23.125
 20
-10.48445554337723
 30
0.8125
 70
   192
  0
VERTEX
  8
RK-DRAIN
  5
3BE1
 10
23.125
 20
-10.48445554337723
 30
0.0
 70
   192
  0
VERTEX
  8
RK-DRAIN
  5
3BE2
 10
23.91161165235168
 20
-11.91161165235168
 30
0.0
 70
   192
  0
VERTEX
  8
RK-DRAIN
  5
3BE3
 10
23.91161165235168
 20
-11.91161165235168
 30
0.5
 70
   192
  0
VERTEX
  8
RK-DRAIN
  5
3BE4
 10
22.76256313292353
 20
-10.76256313292354
 30
0.8125
 70
   192
  0
VERTEX
  8
RK-DRAIN
  5
3BE5
 10
22.76256313292353
 20
-10.76256313292354
 30
0.0
 70
   192
  0
VERTEX
  8
RK-DRAIN
  5
3BE6
 10
23.89174682452694
 20
-11.9375
 30
0.0
 70
   192
  0
VERTEX
  8
RK-DRAIN
  5
3BE7
 10
23.89174682452694
 20
-11.9375
 30
0.5
 70
   192
  0
VERTEX
  8
RK-DRAIN
  5
3BE8
 10
22.48445554337723
 20
-11.125
 30
0.8125
 70
   192
  0
VERTEX
  8
RK-DRAIN
  5
3BE9
 10
22.48445554337723
 20
-11.125
 30
0.0
 70
   192
  0
VERTEX
  8
RK-DRAIN
  5
3BEA
 10
23.87925927171386
 20
-11.96764761936218
 30
0.0
 70
   192
  0
VERTEX
  8
RK-DRAIN
  5
3BEB
 10
23.87925927171386
 20
-11.96764761936218
 30
0.5
 70
   192
  0
VERTEX
  8
RK-DRAIN
  5
3BEC
 10
22.30962980399412
 20
-11.54706667107059
 30
0.8125
 70
   192
  0
VERTEX
  8
RK-DRAIN
  5
3BED
 10
22.30962980399412
 20
-11.54706667107059
 30
0.0
 70
   192
  0
VERTEX
  8
RK-DRAIN
  5
3BEE
 10
23.875
 20
-12.0
 30
0.0
 70
   192
  0
VERTEX
  8
RK-DRAIN
  5
3BEF
 10
23.875
 20
-12.0
 30
0.5
 70
   192
  0
VERTEX
  8
RK-DRAIN
  5
3BF0
 10
22.25
 20
-12.0
 30
0.8125
 70
   192
  0
VERTEX
  8
RK-DRAIN
  5
3BF1
 10
22.25
 20
-12.0
 30
0.0
 70
   192
  0
VERTEX
  8
RK-DRAIN
  5
3BF2
 10
23.87925927171386
 20
-12.03235238063781
 30
0.0
 70
   192
  0
VERTEX
  8
RK-DRAIN
  5
3BF3
 10
23.87925927171386
 20
-12.03235238063781
 30
0.5
 70
   192
  0
VERTEX
  8
RK-DRAIN
  5
3BF4
 10
22.30962980399412
 20
-12.45293332892941
 30
0.8125
 70
   192
  0
VERTEX
  8
RK-DRAIN
  5
3BF5
 10
22.30962980399412
 20
-12.45293332892941
 30
0.0
 70
   192
  0
VERTEX
  8
RK-DRAIN
  5
3BF6
 10
23.89174682452694
 20
-12.0625
 30
0.0
 70
   192
  0
VERTEX
  8
RK-DRAIN
  5
3BF7
 10
23.89174682452694
 20
-12.0625
 30
0.5
 70
   192
  0
VERTEX
  8
RK-DRAIN
  5
3BF8
 10
22.48445554337723
 20
-12.875
 30
0.8125
 70
   192
  0
VERTEX
  8
RK-DRAIN
  5
3BF9
 10
22.48445554337723
 20
-12.875
 30
0.0
 70
   192
  0
VERTEX
  8
RK-DRAIN
  5
3BFA
 10
23.91161165235168
 20
-12.08838834764832
 30
0.0
 70
   192
  0
VERTEX
  8
RK-DRAIN
  5
3BFB
 10
23.91161165235168
 20
-12.08838834764832
 30
0.5
 70
   192
  0
VERTEX
  8
RK-DRAIN
  5
3BFC
 10
22.76256313292354
 20
-13.23743686707646
 30
0.8125
 70
   192
  0
VERTEX
  8
RK-DRAIN
  5
3BFD
 10
22.76256313292354
 20
-13.23743686707646
 30
0.0
 70
   192
  0
VERTEX
  8
RK-DRAIN
  5
3BFE
 10
23.9375
 20
-12.10825317547306
 30
0.0
 70
   192
  0
VERTEX
  8
RK-DRAIN
  5
3BFF
 10
23.9375
 20
-12.10825317547306
 30
0.5
 70
   192
  0
VERTEX
  8
RK-DRAIN
  5
3C00
 10
23.125
 20
-13.51554445662277
 30
0.8125
 70
   192
  0
VERTEX
  8
RK-DRAIN
  5
3C01
 10
23.125
 20
-13.51554445662277
 30
0.0
 70
   192
  0
VERTEX
  8
RK-DRAIN
  5
3C02
 10
23.96764761936218
 20
-12.12074072828614
 30
0.0
 70
   192
  0
VERTEX
  8
RK-DRAIN
  5
3C03
 10
23.96764761936218
 20
-12.12074072828614
 30
0.5
 70
   192
  0
VERTEX
  8
RK-DRAIN
  5
3C04
 10
23.54706667107059
 20
-13.69037019600587
 30
0.8125
 70
   192
  0
VERTEX
  8
RK-DRAIN
  5
3C05
 10
23.54706667107059
 20
-13.69037019600587
 30
0.0
 70
   192
  0
VERTEX
  8
RK-DRAIN
  5
3C06
 10
24.0
 20
-12.125
 30
0.0
 70
   192
  0
VERTEX
  8
RK-DRAIN
  5
3C07
 10
24.0
 20
-12.125
 30
0.5
 70
   192
  0
VERTEX
  8
RK-DRAIN
  5
3C08
 10
24.0
 20
-13.75
 30
0.8125
 70
   192
  0
VERTEX
  8
RK-DRAIN
  5
3C09
 10
24.0
 20
-13.75
 30
0.0
 70
   192
  0
VERTEX
  8
RK-DRAIN
  5
3C0A
 10
24.03235238063782
 20
-12.12074072828614
 30
0.0
 70
   192
  0
VERTEX
  8
RK-DRAIN
  5
3C0B
 10
24.03235238063782
 20
-12.12074072828614
 30
0.5
 70
   192
  0
VERTEX
  8
RK-DRAIN
  5
3C0C
 10
24.45293332892941
 20
-13.69037019600587
 30
0.8125
 70
   192
  0
VERTEX
  8
RK-DRAIN
  5
3C0D
 10
24.45293332892941
 20
-13.69037019600587
 30
0.0
 70
   192
  0
VERTEX
  8
RK-DRAIN
  5
3C0E
 10
24.0625
 20
-12.10825317547306
 30
0.0
 70
   192
  0
VERTEX
  8
RK-DRAIN
  5
3C0F
 10
24.0625
 20
-12.10825317547306
 30
0.5
 70
   192
  0
VERTEX
  8
RK-DRAIN
  5
3C10
 10
24.875
 20
-13.51554445662277
 30
0.8125
 70
   192
  0
VERTEX
  8
RK-DRAIN
  5
3C11
 10
24.875
 20
-13.51554445662277
 30
0.0
 70
   192
  0
VERTEX
  8
RK-DRAIN
  5
3C12
 10
24.08838834764832
 20
-12.08838834764832
 30
0.0
 70
   192
  0
VERTEX
  8
RK-DRAIN
  5
3C13
 10
24.08838834764832
 20
-12.08838834764832
 30
0.5
 70
   192
  0
VERTEX
  8
RK-DRAIN
  5
3C14
 10
25.23743686707645
 20
-13.23743686707646
 30
0.8125
 70
   192
  0
VERTEX
  8
RK-DRAIN
  5
3C15
 10
25.23743686707645
 20
-13.23743686707646
 30
0.0
 70
   192
  0
VERTEX
  8
RK-DRAIN
  5
3C16
 10
24.10825317547305
 20
-12.0625
 30
0.0
 70
   192
  0
VERTEX
  8
RK-DRAIN
  5
3C17
 10
24.10825317547305
 20
-12.0625
 30
0.5
 70
   192
  0
VERTEX
  8
RK-DRAIN
  5
3C18
 10
25.51554445662277
 20
-12.875
 30
0.8125
 70
   192
  0
VERTEX
  8
RK-DRAIN
  5
3C19
 10
25.51554445662277
 20
-12.875
 30
0.0
 70
   192
  0
VERTEX
  8
RK-DRAIN
  5
3C1A
 10
24.12074072828613
 20
-12.03235238063781
 30
0.0
 70
   192
  0
VERTEX
  8
RK-DRAIN
  5
3C1B
 10
24.12074072828613
 20
-12.03235238063781
 30
0.5
 70
   192
  0
VERTEX
  8
RK-DRAIN
  5
3C1C
 10
25.69037019600587
 20
-12.45293332892941
 30
0.8125
 70
   192
  0
VERTEX
  8
RK-DRAIN
  5
3C1D
 10
25.69037019600587
 20
-12.45293332892941
 30
0.0
 70
   192
  0
VERTEX
  8
RK-DRAIN
  5
3C1E
 10
21.70592616256346
 20
-12.61469523211849
 30
0.8125
 70
   192
  0
VERTEX
  8
RK-DRAIN
  5
3C1F
 10
21.94318966601195
 20
-13.1875
 30
0.8125
 70
   192
  0
VERTEX
  8
RK-DRAIN
  5
3C20
 10
21.70592616256346
 20
-12.61469523211849
 30
0.75
 70
   192
  0
VERTEX
  8
RK-DRAIN
  5
3C21
 10
21.94318966601195
 20
-13.1875
 30
0.75
 70
   192
  0
VERTEX
  8
RK-DRAIN
  5
3C22
 10
22.32062139468195
 20
-13.67937860531805
 30
0.8125
 70
   192
  0
VERTEX
  8
RK-DRAIN
  5
3C23
 10
25.67937860531805
 20
-13.67937860531805
 30
0.8125
 70
   192
  0
VERTEX
  8
RK-DRAIN
  5
3C24
 10
26.05681033398804
 20
-13.1875
 30
0.8125
 70
   192
  0
VERTEX
  8
RK-DRAIN
  5
3C25
 10
26.29407383743654
 20
-12.61469523211849
 30
0.8125
 70
   192
  0
VERTEX
  8
RK-DRAIN
  5
3C26
 10
26.05681033398804
 20
-13.1875
 30
0.75
 70
   192
  0
VERTEX
  8
RK-DRAIN
  5
3C27
 10
26.29407383743654
 20
-12.61469523211849
 30
0.75
 70
   192
  0
VERTEX
  8
RK-DRAIN
  5
3C28
 10
24.61469523211848
 20
-14.29407383743654
 30
0.8125
 70
   192
  0
VERTEX
  8
RK-DRAIN
  5
3C29
 10
25.1875
 20
-14.05681033398804
 30
0.8125
 70
   192
  0
VERTEX
  8
RK-DRAIN
  5
3C2A
 10
24.61469523211848
 20
-14.29407383743654
 30
0.75
 70
   192
  0
VERTEX
  8
RK-DRAIN
  5
3C2B
 10
25.1875
 20
-14.05681033398804
 30
0.75
 70
   192
  0
VERTEX
  8
RK-DRAIN
  5
3C2C
 10
22.32062139468195
 20
-13.67937860531805
 30
0.75
 70
   192
  0
VERTEX
  8
RK-DRAIN
  5
3C2D
 10
22.8125
 20
-14.05681033398804
 30
0.75
 70
   192
  0
VERTEX
  8
RK-DRAIN
  5
3C2E
 10
22.8125
 20
-14.05681033398804
 30
0.8125
 70
   192
  0
VERTEX
  8
RK-DRAIN
  5
3C2F
 10
23.38530476788151
 20
-14.29407383743654
 30
0.75
 70
   192
  0
VERTEX
  8
RK-DRAIN
  5
3C30
 10
23.38530476788151
 20
-14.29407383743654
 30
0.8125
 70
   192
  0
VERTEX
  8
RK-DRAIN
  5
3C31
 10
24.0
 20
-14.375
 30
0.75
 70
   192
  0
VERTEX
  8
RK-DRAIN
  5
3C32
 10
24.0
 20
-14.375
 30
0.8125
 70
   192
  0
VERTEX
  8
RK-DRAIN
  5
3C33
 10
25.67937860531805
 20
-13.67937860531805
 30
0.75
 70
   192
  0
VERTEX
  8
RK-DRAIN
  5
3C34
 10
25.1875
 20
-9.94318966601196
 30
0.8125
 70
   192
  0
VERTEX
  8
RK-DRAIN
  5
3C35
 10
24.61469523211848
 20
-9.705926162563464
 30
0.8125
 70
   192
  0
VERTEX
  8
RK-DRAIN
  5
3C36
 10
25.1875
 20
-9.94318966601196
 30
0.75
 70
   192
  0
VERTEX
  8
RK-DRAIN
  5
3C37
 10
24.61469523211848
 20
-9.705926162563464
 30
0.75
 70
   192
  0
VERTEX
  8
RK-DRAIN
  5
3C38
 10
23.38530476788151
 20
-9.705926162563464
 30
0.8125
 70
   192
  0
VERTEX
  8
RK-DRAIN
  5
3C39
 10
22.8125
 20
-9.94318966601196
 30
0.8125
 70
   192
  0
VERTEX
  8
RK-DRAIN
  5
3C3A
 10
22.32062139468195
 20
-10.32062139468195
 30
0.8125
 70
   192
  0
VERTEX
  8
RK-DRAIN
  5
3C3B
 10
22.8125
 20
-9.94318966601196
 30
0.75
 70
   192
  0
VERTEX
  8
RK-DRAIN
  5
3C3C
 10
22.32062139468195
 20
-10.32062139468195
 30
0.75
 70
   192
  0
VERTEX
  8
RK-DRAIN
  5
3C3D
 10
24.25
 20
-12.0
 30
0.625
 70
   192
  0
VERTEX
  8
RK-DRAIN
  5
3C3E
 10
24.25
 20
-12.0
 30
0.5
 70
   192
  0
VERTEX
  8
RK-DRAIN
  5
3C3F
 10
24.24148145657226
 20
-11.93529523872437
 30
0.5
 70
   192
  0
VERTEX
  8
RK-DRAIN
  5
3C40
 10
24.24148145657226
 20
-11.93529523872437
 30
0.625
 70
   192
  0
VERTEX
  8
RK-DRAIN
  5
3C41
 10
24.21650635094611
 20
-11.875
 30
0.5
 70
   192
  0
VERTEX
  8
RK-DRAIN
  5
3C42
 10
24.21650635094611
 20
-11.875
 30
0.625
 70
   192
  0
VERTEX
  8
RK-DRAIN
  5
3C43
 10
24.17677669529664
 20
-11.82322330470336
 30
0.5
 70
   192
  0
VERTEX
  8
RK-DRAIN
  5
3C44
 10
24.17677669529664
 20
-11.82322330470336
 30
0.625
 70
   192
  0
VERTEX
  8
RK-DRAIN
  5
3C45
 10
24.125
 20
-11.78349364905389
 30
0.5
 70
   192
  0
VERTEX
  8
RK-DRAIN
  5
3C46
 10
24.125
 20
-11.78349364905389
 30
0.625
 70
   192
  0
VERTEX
  8
RK-DRAIN
  5
3C47
 10
24.06470476127563
 20
-11.75851854342773
 30
0.5
 70
   192
  0
VERTEX
  8
RK-DRAIN
  5
3C48
 10
24.06470476127563
 20
-11.75851854342773
 30
0.625
 70
   192
  0
VERTEX
  8
RK-DRAIN
  5
3C49
 10
24.0
 20
-11.75
 30
0.5
 70
   192
  0
VERTEX
  8
RK-DRAIN
  5
3C4A
 10
24.0
 20
-11.75
 30
0.625
 70
   192
  0
VERTEX
  8
RK-DRAIN
  5
3C4B
 10
23.93529523872437
 20
-11.75851854342773
 30
0.5
 70
   192
  0
VERTEX
  8
RK-DRAIN
  5
3C4C
 10
23.93529523872437
 20
-11.75851854342773
 30
0.625
 70
   192
  0
VERTEX
  8
RK-DRAIN
  5
3C4D
 10
23.875
 20
-11.78349364905389
 30
0.5
 70
   192
  0
VERTEX
  8
RK-DRAIN
  5
3C4E
 10
23.875
 20
-11.78349364905389
 30
0.625
 70
   192
  0
VERTEX
  8
RK-DRAIN
  5
3C4F
 10
23.82322330470336
 20
-11.82322330470336
 30
0.5
 70
   192
  0
VERTEX
  8
RK-DRAIN
  5
3C50
 10
23.82322330470336
 20
-11.82322330470336
 30
0.625
 70
   192
  0
VERTEX
  8
RK-DRAIN
  5
3C51
 10
23.78349364905389
 20
-11.875
 30
0.5
 70
   192
  0
VERTEX
  8
RK-DRAIN
  5
3C52
 10
23.78349364905389
 20
-11.875
 30
0.625
 70
   192
  0
VERTEX
  8
RK-DRAIN
  5
3C53
 10
23.75851854342772
 20
-11.93529523872437
 30
0.5
 70
   192
  0
VERTEX
  8
RK-DRAIN
  5
3C54
 10
23.75851854342772
 20
-11.93529523872437
 30
0.625
 70
   192
  0
VERTEX
  8
RK-DRAIN
  5
3C55
 10
23.75
 20
-12.0
 30
0.5
 70
   192
  0
VERTEX
  8
RK-DRAIN
  5
3C56
 10
23.75
 20
-12.0
 30
0.625
 70
   192
  0
VERTEX
  8
RK-DRAIN
  5
3C57
 10
23.75851854342773
 20
-12.06470476127563
 30
0.5
 70
   192
  0
VERTEX
  8
RK-DRAIN
  5
3C58
 10
23.75851854342773
 20
-12.06470476127563
 30
0.625
 70
   192
  0
VERTEX
  8
RK-DRAIN
  5
3C59
 10
23.78349364905389
 20
-12.125
 30
0.5
 70
   192
  0
VERTEX
  8
RK-DRAIN
  5
3C5A
 10
23.78349364905389
 20
-12.125
 30
0.625
 70
   192
  0
VERTEX
  8
RK-DRAIN
  5
3C5B
 10
23.82322330470336
 20
-12.17677669529664
 30
0.5
 70
   192
  0
VERTEX
  8
RK-DRAIN
  5
3C5C
 10
23.82322330470336
 20
-12.17677669529664
 30
0.625
 70
   192
  0
VERTEX
  8
RK-DRAIN
  5
3C5D
 10
23.875
 20
-12.21650635094611
 30
0.5
 70
   192
  0
VERTEX
  8
RK-DRAIN
  5
3C5E
 10
23.875
 20
-12.21650635094611
 30
0.625
 70
   192
  0
VERTEX
  8
RK-DRAIN
  5
3C5F
 10
23.93529523872437
 20
-12.24148145657227
 30
0.5
 70
   192
  0
VERTEX
  8
RK-DRAIN
  5
3C60
 10
23.93529523872437
 20
-12.24148145657227
 30
0.625
 70
   192
  0
VERTEX
  8
RK-DRAIN
  5
3C61
 10
24.0
 20
-12.25
 30
0.5
 70
   192
  0
VERTEX
  8
RK-DRAIN
  5
3C62
 10
24.0
 20
-12.25
 30
0.625
 70
   192
  0
VERTEX
  8
RK-DRAIN
  5
3C63
 10
24.06470476127563
 20
-12.24148145657227
 30
0.5
 70
   192
  0
VERTEX
  8
RK-DRAIN
  5
3C64
 10
24.06470476127563
 20
-12.24148145657227
 30
0.625
 70
   192
  0
VERTEX
  8
RK-DRAIN
  5
3C65
 10
24.125
 20
-12.21650635094611
 30
0.5
 70
   192
  0
VERTEX
  8
RK-DRAIN
  5
3C66
 10
24.125
 20
-12.21650635094611
 30
0.625
 70
   192
  0
VERTEX
  8
RK-DRAIN
  5
3C67
 10
24.17677669529664
 20
-12.17677669529664
 30
0.5
 70
   192
  0
VERTEX
  8
RK-DRAIN
  5
3C68
 10
24.17677669529664
 20
-12.17677669529664
 30
0.625
 70
   192
  0
VERTEX
  8
RK-DRAIN
  5
3C69
 10
24.21650635094611
 20
-12.125
 30
0.5
 70
   192
  0
VERTEX
  8
RK-DRAIN
  5
3C6A
 10
24.21650635094611
 20
-12.125
 30
0.625
 70
   192
  0
VERTEX
  8
RK-DRAIN
  5
3C6B
 10
24.24148145657226
 20
-12.06470476127563
 30
0.5
 70
   192
  0
VERTEX
  8
RK-DRAIN
  5
3C6C
 10
24.24148145657226
 20
-12.06470476127563
 30
0.625
 70
   192
  0
VERTEX
  8
RK-DRAIN
  5
3C6D
 10
24.0
 20
-12.0
 30
0.625
 70
   192
  0
VERTEX
  8
RK-DRAIN
  5
3C6E
 10
21.94318966601195
 20
-10.8125
 30
0.8125
 70
   192
  0
VERTEX
  8
RK-DRAIN
  5
3C6F
 10
21.94318966601195
 20
-10.8125
 30
0.75
 70
   192
  0
VERTEX
  8
RK-DRAIN
  5
3C70
 10
21.70592616256346
 20
-11.38530476788151
 30
0.8125
 70
   192
  0
VERTEX
  8
RK-DRAIN
  5
3C71
 10
21.625
 20
-12.0
 30
0.8125
 70
   192
  0
VERTEX
  8
RK-DRAIN
  5
3C72
 10
21.70592616256346
 20
-11.38530476788151
 30
0.75
 70
   192
  0
VERTEX
  8
RK-DRAIN
  5
3C73
 10
21.625
 20
-12.0
 30
0.75
 70
   192
  0
VERTEX
  8
RK-DRAIN
  5
3C74
 10
24.0
 20
-9.625000000000003
 30
0.75
 70
   192
  0
VERTEX
  8
RK-DRAIN
  5
3C75
 10
24.0
 20
-9.625000000000003
 30
0.8125
 70
   192
  0
VERTEX
  8
RK-DRAIN
  5
3C76
 10
23.38530476788151
 20
-9.705926162563464
 30
0.75
 70
   192
  0
VERTEX
  8
RK-DRAIN
  5
3C77
 10
25.67937860531805
 20
-10.32062139468195
 30
0.8125
 70
   192
  0
VERTEX
  8
RK-DRAIN
  5
3C78
 10
25.67937860531805
 20
-10.32062139468195
 30
0.75
 70
   192
  0
VERTEX
  8
RK-DRAIN
  5
3C79
 10
26.375
 20
-12.0
 30
0.8125
 70
   192
  0
VERTEX
  8
RK-DRAIN
  5
3C7A
 10
26.29407383743654
 20
-11.38530476788151
 30
0.8125
 70
   192
  0
VERTEX
  8
RK-DRAIN
  5
3C7B
 10
26.375
 20
-12.0
 30
0.75
 70
   192
  0
VERTEX
  8
RK-DRAIN
  5
3C7C
 10
26.29407383743654
 20
-11.38530476788151
 30
0.75
 70
   192
  0
VERTEX
  8
RK-DRAIN
  5
3C7D
 10
26.05681033398804
 20
-10.8125
 30
0.75
 70
   192
  0
VERTEX
  8
RK-DRAIN
  5
3C7E
 10
26.05681033398804
 20
-10.8125
 30
0.8125
 70
   192
  0
VERTEX
  8
RK-DRAIN
  5
3C7F
 10
8.125000000000001
 20
-12.0
 30
0.5
 70
   192
  0
VERTEX
  8
RK-DRAIN
  5
3C80
 10
8.125000000000001
 20
-12.0
 30
0.0
 70
   192
  0
VERTEX
  8
RK-DRAIN
  5
3C81
 10
8.120740728286135
 20
-11.96764761936218
 30
0.0
 70
   192
  0
VERTEX
  8
RK-DRAIN
  5
3C82
 10
8.120740728286135
 20
-11.96764761936218
 30
0.5
 70
   192
  0
VERTEX
  8
RK-DRAIN
  5
3C83
 10
9.750000000000001
 20
-12.0
 30
0.0
 70
   192
  0
VERTEX
  8
RK-DRAIN
  5
3C84
 10
9.750000000000001
 20
-12.0
 30
0.8125
 70
   192
  0
VERTEX
  8
RK-DRAIN
  5
3C85
 10
9.69037019600587
 20
-11.54706667107059
 30
0.8125
 70
   192
  0
VERTEX
  8
RK-DRAIN
  5
3C86
 10
9.69037019600587
 20
-11.54706667107059
 30
0.0
 70
   192
  0
VERTEX
  8
RK-DRAIN
  5
3C87
 10
8.108253175473056
 20
-11.9375
 30
0.0
 70
   192
  0
VERTEX
  8
RK-DRAIN
  5
3C88
 10
8.108253175473056
 20
-11.9375
 30
0.5
 70
   192
  0
VERTEX
  8
RK-DRAIN
  5
3C89
 10
9.51554445662277
 20
-11.125
 30
0.8125
 70
   192
  0
VERTEX
  8
RK-DRAIN
  5
3C8A
 10
9.51554445662277
 20
-11.125
 30
0.0
 70
   192
  0
VERTEX
  8
RK-DRAIN
  5
3C8B
 10
8.088388347648319
 20
-11.91161165235168
 30
0.0
 70
   192
  0
VERTEX
  8
RK-DRAIN
  5
3C8C
 10
8.088388347648319
 20
-11.91161165235168
 30
0.5
 70
   192
  0
VERTEX
  8
RK-DRAIN
  5
3C8D
 10
9.237436867076459
 20
-10.76256313292354
 30
0.8125
 70
   192
  0
VERTEX
  8
RK-DRAIN
  5
3C8E
 10
9.237436867076459
 20
-10.76256313292354
 30
0.0
 70
   192
  0
VERTEX
  8
RK-DRAIN
  5
3C8F
 10
8.0625
 20
-11.89174682452694
 30
0.0
 70
   192
  0
VERTEX
  8
RK-DRAIN
  5
3C90
 10
8.0625
 20
-11.89174682452694
 30
0.5
 70
   192
  0
VERTEX
  8
RK-DRAIN
  5
3C91
 10
8.875000000000001
 20
-10.48445554337723
 30
0.8125
 70
   192
  0
VERTEX
  8
RK-DRAIN
  5
3C92
 10
8.875000000000001
 20
-10.48445554337723
 30
0.0
 70
   192
  0
VERTEX
  8
RK-DRAIN
  5
3C93
 10
8.032352380637815
 20
-11.87925927171386
 30
0.0
 70
   192
  0
VERTEX
  8
RK-DRAIN
  5
3C94
 10
8.032352380637815
 20
-11.87925927171386
 30
0.5
 70
   192
  0
VERTEX
  8
RK-DRAIN
  5
3C95
 10
8.452933328929411
 20
-10.30962980399413
 30
0.8125
 70
   192
  0
VERTEX
  8
RK-DRAIN
  5
3C96
 10
8.452933328929411
 20
-10.30962980399413
 30
0.0
 70
   192
  0
VERTEX
  8
RK-DRAIN
  5
3C97
 10
8.0
 20
-11.875
 30
0.0
 70
   192
  0
VERTEX
  8
RK-DRAIN
  5
3C98
 10
8.0
 20
-11.875
 30
0.5
 70
   192
  0
VERTEX
  8
RK-DRAIN
  5
3C99
 10
8.0
 20
-10.25
 30
0.8125
 70
   192
  0
VERTEX
  8
RK-DRAIN
  5
3C9A
 10
8.0
 20
-10.25
 30
0.0
 70
   192
  0
VERTEX
  8
RK-DRAIN
  5
3C9B
 10
7.967647619362184
 20
-11.87925927171386
 30
0.0
 70
   192
  0
VERTEX
  8
RK-DRAIN
  5
3C9C
 10
7.967647619362184
 20
-11.87925927171386
 30
0.5
 70
   192
  0
VERTEX
  8
RK-DRAIN
  5
3C9D
 10
7.547066671070588
 20
-10.30962980399413
 30
0.8125
 70
   192
  0
VERTEX
  8
RK-DRAIN
  5
3C9E
 10
7.547066671070588
 20
-10.30962980399413
 30
0.0
 70
   192
  0
VERTEX
  8
RK-DRAIN
  5
3C9F
 10
7.9375
 20
-11.89174682452694
 30
0.0
 70
   192
  0
VERTEX
  8
RK-DRAIN
  5
3CA0
 10
7.9375
 20
-11.89174682452694
 30
0.5
 70
   192
  0
VERTEX
  8
RK-DRAIN
  5
3CA1
 10
7.125
 20
-10.48445554337723
 30
0.8125
 70
   192
  0
VERTEX
  8
RK-DRAIN
  5
3CA2
 10
7.125
 20
-10.48445554337723
 30
0.0
 70
   192
  0
VERTEX
  8
RK-DRAIN
  5
3CA3
 10
7.91161165235168
 20
-11.91161165235168
 30
0.0
 70
   192
  0
VERTEX
  8
RK-DRAIN
  5
3CA4
 10
7.91161165235168
 20
-11.91161165235168
 30
0.5
 70
   192
  0
VERTEX
  8
RK-DRAIN
  5
3CA5
 10
6.76256313292354
 20
-10.76256313292354
 30
0.8125
 70
   192
  0
VERTEX
  8
RK-DRAIN
  5
3CA6
 10
6.76256313292354
 20
-10.76256313292354
 30
0.0
 70
   192
  0
VERTEX
  8
RK-DRAIN
  5
3CA7
 10
7.891746824526943
 20
-11.9375
 30
0.0
 70
   192
  0
VERTEX
  8
RK-DRAIN
  5
3CA8
 10
7.891746824526943
 20
-11.9375
 30
0.5
 70
   192
  0
VERTEX
  8
RK-DRAIN
  5
3CA9
 10
6.484455543377229
 20
-11.125
 30
0.8125
 70
   192
  0
VERTEX
  8
RK-DRAIN
  5
3CAA
 10
6.484455543377229
 20
-11.125
 30
0.0
 70
   192
  0
VERTEX
  8
RK-DRAIN
  5
3CAB
 10
7.879259271713864
 20
-11.96764761936218
 30
0.0
 70
   192
  0
VERTEX
  8
RK-DRAIN
  5
3CAC
 10
7.879259271713864
 20
-11.96764761936218
 30
0.5
 70
   192
  0
VERTEX
  8
RK-DRAIN
  5
3CAD
 10
6.309629803994127
 20
-11.54706667107059
 30
0.8125
 70
   192
  0
VERTEX
  8
RK-DRAIN
  5
3CAE
 10
6.309629803994127
 20
-11.54706667107059
 30
0.0
 70
   192
  0
VERTEX
  8
RK-DRAIN
  5
3CAF
 10
7.874999999999998
 20
-12.0
 30
0.0
 70
   192
  0
VERTEX
  8
RK-DRAIN
  5
3CB0
 10
7.874999999999998
 20
-12.0
 30
0.5
 70
   192
  0
VERTEX
  8
RK-DRAIN
  5
3CB1
 10
6.249999999999998
 20
-12.0
 30
0.8125
 70
   192
  0
VERTEX
  8
RK-DRAIN
  5
3CB2
 10
6.249999999999998
 20
-12.0
 30
0.0
 70
   192
  0
VERTEX
  8
RK-DRAIN
  5
3CB3
 10
7.879259271713864
 20
-12.03235238063781
 30
0.0
 70
   192
  0
VERTEX
  8
RK-DRAIN
  5
3CB4
 10
7.879259271713864
 20
-12.03235238063781
 30
0.5
 70
   192
  0
VERTEX
  8
RK-DRAIN
  5
3CB5
 10
6.309629803994129
 20
-12.45293332892941
 30
0.8125
 70
   192
  0
VERTEX
  8
RK-DRAIN
  5
3CB6
 10
6.309629803994129
 20
-12.45293332892941
 30
0.0
 70
   192
  0
VERTEX
  8
RK-DRAIN
  5
3CB7
 10
7.891746824526943
 20
-12.0625
 30
0.0
 70
   192
  0
VERTEX
  8
RK-DRAIN
  5
3CB8
 10
7.891746824526943
 20
-12.0625
 30
0.5
 70
   192
  0
VERTEX
  8
RK-DRAIN
  5
3CB9
 10
6.484455543377231
 20
-12.875
 30
0.8125
 70
   192
  0
VERTEX
  8
RK-DRAIN
  5
3CBA
 10
6.484455543377231
 20
-12.875
 30
0.0
 70
   192
  0
VERTEX
  8
RK-DRAIN
  5
3CBB
 10
7.91161165235168
 20
-12.08838834764832
 30
0.0
 70
   192
  0
VERTEX
  8
RK-DRAIN
  5
3CBC
 10
7.91161165235168
 20
-12.08838834764832
 30
0.5
 70
   192
  0
VERTEX
  8
RK-DRAIN
  5
3CBD
 10
6.762563132923542
 20
-13.23743686707646
 30
0.8125
 70
   192
  0
VERTEX
  8
RK-DRAIN
  5
3CBE
 10
6.762563132923542
 20
-13.23743686707646
 30
0.0
 70
   192
  0
VERTEX
  8
RK-DRAIN
  5
3CBF
 10
7.9375
 20
-12.10825317547306
 30
0.0
 70
   192
  0
VERTEX
  8
RK-DRAIN
  5
3CC0
 10
7.9375
 20
-12.10825317547306
 30
0.5
 70
   192
  0
VERTEX
  8
RK-DRAIN
  5
3CC1
 10
7.125
 20
-13.51554445662277
 30
0.8125
 70
   192
  0
VERTEX
  8
RK-DRAIN
  5
3CC2
 10
7.125
 20
-13.51554445662277
 30
0.0
 70
   192
  0
VERTEX
  8
RK-DRAIN
  5
3CC3
 10
7.967647619362184
 20
-12.12074072828614
 30
0.0
 70
   192
  0
VERTEX
  8
RK-DRAIN
  5
3CC4
 10
7.967647619362184
 20
-12.12074072828614
 30
0.5
 70
   192
  0
VERTEX
  8
RK-DRAIN
  5
3CC5
 10
7.547066671070588
 20
-13.69037019600587
 30
0.8125
 70
   192
  0
VERTEX
  8
RK-DRAIN
  5
3CC6
 10
7.547066671070588
 20
-13.69037019600587
 30
0.0
 70
   192
  0
VERTEX
  8
RK-DRAIN
  5
3CC7
 10
8.0
 20
-12.125
 30
0.0
 70
   192
  0
VERTEX
  8
RK-DRAIN
  5
3CC8
 10
8.0
 20
-12.125
 30
0.5
 70
   192
  0
VERTEX
  8
RK-DRAIN
  5
3CC9
 10
8.0
 20
-13.75
 30
0.8125
 70
   192
  0
VERTEX
  8
RK-DRAIN
  5
3CCA
 10
8.0
 20
-13.75
 30
0.0
 70
   192
  0
VERTEX
  8
RK-DRAIN
  5
3CCB
 10
8.032352380637815
 20
-12.12074072828614
 30
0.0
 70
   192
  0
VERTEX
  8
RK-DRAIN
  5
3CCC
 10
8.032352380637815
 20
-12.12074072828614
 30
0.5
 70
   192
  0
VERTEX
  8
RK-DRAIN
  5
3CCD
 10
8.452933328929411
 20
-13.69037019600587
 30
0.8125
 70
   192
  0
VERTEX
  8
RK-DRAIN
  5
3CCE
 10
8.452933328929411
 20
-13.69037019600587
 30
0.0
 70
   192
  0
VERTEX
  8
RK-DRAIN
  5
3CCF
 10
8.0625
 20
-12.10825317547306
 30
0.0
 70
   192
  0
VERTEX
  8
RK-DRAIN
  5
3CD0
 10
8.0625
 20
-12.10825317547306
 30
0.5
 70
   192
  0
VERTEX
  8
RK-DRAIN
  5
3CD1
 10
8.875
 20
-13.51554445662277
 30
0.8125
 70
   192
  0
VERTEX
  8
RK-DRAIN
  5
3CD2
 10
8.875
 20
-13.51554445662277
 30
0.0
 70
   192
  0
VERTEX
  8
RK-DRAIN
  5
3CD3
 10
8.088388347648319
 20
-12.08838834764832
 30
0.0
 70
   192
  0
VERTEX
  8
RK-DRAIN
  5
3CD4
 10
8.088388347648319
 20
-12.08838834764832
 30
0.5
 70
   192
  0
VERTEX
  8
RK-DRAIN
  5
3CD5
 10
9.237436867076457
 20
-13.23743686707646
 30
0.8125
 70
   192
  0
VERTEX
  8
RK-DRAIN
  5
3CD6
 10
9.237436867076457
 20
-13.23743686707646
 30
0.0
 70
   192
  0
VERTEX
  8
RK-DRAIN
  5
3CD7
 10
8.108253175473056
 20
-12.0625
 30
0.0
 70
   192
  0
VERTEX
  8
RK-DRAIN
  5
3CD8
 10
8.108253175473056
 20
-12.0625
 30
0.5
 70
   192
  0
VERTEX
  8
RK-DRAIN
  5
3CD9
 10
9.515544456622768
 20
-12.875
 30
0.8125
 70
   192
  0
VERTEX
  8
RK-DRAIN
  5
3CDA
 10
9.515544456622768
 20
-12.875
 30
0.0
 70
   192
  0
VERTEX
  8
RK-DRAIN
  5
3CDB
 10
8.120740728286135
 20
-12.03235238063781
 30
0.0
 70
   192
  0
VERTEX
  8
RK-DRAIN
  5
3CDC
 10
8.120740728286135
 20
-12.03235238063781
 30
0.5
 70
   192
  0
VERTEX
  8
RK-DRAIN
  5
3CDD
 10
9.69037019600587
 20
-12.45293332892941
 30
0.8125
 70
   192
  0
VERTEX
  8
RK-DRAIN
  5
3CDE
 10
9.69037019600587
 20
-12.45293332892941
 30
0.0
 70
   192
  0
VERTEX
  8
RK-DRAIN
  5
3CDF
 10
5.705926162563461
 20
-12.61469523211849
 30
0.8125
 70
   192
  0
VERTEX
  8
RK-DRAIN
  5
3CE0
 10
5.943189666011958
 20
-13.1875
 30
0.8125
 70
   192
  0
VERTEX
  8
RK-DRAIN
  5
3CE1
 10
5.705926162563461
 20
-12.61469523211849
 30
0.75
 70
   192
  0
VERTEX
  8
RK-DRAIN
  5
3CE2
 10
5.943189666011958
 20
-13.1875
 30
0.75
 70
   192
  0
VERTEX
  8
RK-DRAIN
  5
3CE3
 10
6.32062139468195
 20
-13.67937860531805
 30
0.8125
 70
   192
  0
VERTEX
  8
RK-DRAIN
  5
3CE4
 10
9.679378605318049
 20
-13.67937860531805
 30
0.8125
 70
   192
  0
VERTEX
  8
RK-DRAIN
  5
3CE5
 10
10.05681033398804
 20
-13.1875
 30
0.8125
 70
   192
  0
VERTEX
  8
RK-DRAIN
  5
3CE6
 10
10.29407383743653
 20
-12.61469523211849
 30
0.8125
 70
   192
  0
VERTEX
  8
RK-DRAIN
  5
3CE7
 10
10.05681033398804
 20
-13.1875
 30
0.75
 70
   192
  0
VERTEX
  8
RK-DRAIN
  5
3CE8
 10
10.29407383743653
 20
-12.61469523211849
 30
0.75
 70
   192
  0
VERTEX
  8
RK-DRAIN
  5
3CE9
 10
8.614695232118485
 20
-14.29407383743654
 30
0.8125
 70
   192
  0
VERTEX
  8
RK-DRAIN
  5
3CEA
 10
9.1875
 20
-14.05681033398804
 30
0.8125
 70
   192
  0
VERTEX
  8
RK-DRAIN
  5
3CEB
 10
8.614695232118485
 20
-14.29407383743654
 30
0.75
 70
   192
  0
VERTEX
  8
RK-DRAIN
  5
3CEC
 10
9.1875
 20
-14.05681033398804
 30
0.75
 70
   192
  0
VERTEX
  8
RK-DRAIN
  5
3CED
 10
6.32062139468195
 20
-13.67937860531805
 30
0.75
 70
   192
  0
VERTEX
  8
RK-DRAIN
  5
3CEE
 10
6.8125
 20
-14.05681033398804
 30
0.75
 70
   192
  0
VERTEX
  8
RK-DRAIN
  5
3CEF
 10
6.8125
 20
-14.05681033398804
 30
0.8125
 70
   192
  0
VERTEX
  8
RK-DRAIN
  5
3CF0
 10
7.385304767881512
 20
-14.29407383743654
 30
0.75
 70
   192
  0
VERTEX
  8
RK-DRAIN
  5
3CF1
 10
7.385304767881512
 20
-14.29407383743654
 30
0.8125
 70
   192
  0
VERTEX
  8
RK-DRAIN
  5
3CF2
 10
8.0
 20
-14.375
 30
0.75
 70
   192
  0
VERTEX
  8
RK-DRAIN
  5
3CF3
 10
8.0
 20
-14.375
 30
0.8125
 70
   192
  0
VERTEX
  8
RK-DRAIN
  5
3CF4
 10
9.679378605318049
 20
-13.67937860531805
 30
0.75
 70
   192
  0
VERTEX
  8
RK-DRAIN
  5
3CF5
 10
9.187500000000001
 20
-9.94318966601196
 30
0.8125
 70
   192
  0
VERTEX
  8
RK-DRAIN
  5
3CF6
 10
8.614695232118487
 20
-9.705926162563464
 30
0.8125
 70
   192
  0
VERTEX
  8
RK-DRAIN
  5
3CF7
 10
9.187500000000001
 20
-9.94318966601196
 30
0.75
 70
   192
  0
VERTEX
  8
RK-DRAIN
  5
3CF8
 10
8.614695232118487
 20
-9.705926162563464
 30
0.75
 70
   192
  0
VERTEX
  8
RK-DRAIN
  5
3CF9
 10
7.385304767881512
 20
-9.705926162563464
 30
0.8125
 70
   192
  0
VERTEX
  8
RK-DRAIN
  5
3CFA
 10
6.8125
 20
-9.94318966601196
 30
0.8125
 70
   192
  0
VERTEX
  8
RK-DRAIN
  5
3CFB
 10
6.320621394681948
 20
-10.32062139468195
 30
0.8125
 70
   192
  0
VERTEX
  8
RK-DRAIN
  5
3CFC
 10
6.8125
 20
-9.94318966601196
 30
0.75
 70
   192
  0
VERTEX
  8
RK-DRAIN
  5
3CFD
 10
6.320621394681948
 20
-10.32062139468195
 30
0.75
 70
   192
  0
VERTEX
  8
RK-DRAIN
  5
3CFE
 10
8.250000000000001
 20
-12.0
 30
0.625
 70
   192
  0
VERTEX
  8
RK-DRAIN
  5
3CFF
 10
8.250000000000001
 20
-12.0
 30
0.5
 70
   192
  0
VERTEX
  8
RK-DRAIN
  5
3D00
 10
8.241481456572268
 20
-11.93529523872437
 30
0.5
 70
   192
  0
VERTEX
  8
RK-DRAIN
  5
3D01
 10
8.241481456572268
 20
-11.93529523872437
 30
0.625
 70
   192
  0
VERTEX
  8
RK-DRAIN
  5
3D02
 10
8.216506350946112
 20
-11.875
 30
0.5
 70
   192
  0
VERTEX
  8
RK-DRAIN
  5
3D03
 10
8.216506350946112
 20
-11.875
 30
0.625
 70
   192
  0
VERTEX
  8
RK-DRAIN
  5
3D04
 10
8.176776695296638
 20
-11.82322330470336
 30
0.5
 70
   192
  0
VERTEX
  8
RK-DRAIN
  5
3D05
 10
8.176776695296638
 20
-11.82322330470336
 30
0.625
 70
   192
  0
VERTEX
  8
RK-DRAIN
  5
3D06
 10
8.125
 20
-11.78349364905389
 30
0.5
 70
   192
  0
VERTEX
  8
RK-DRAIN
  5
3D07
 10
8.125
 20
-11.78349364905389
 30
0.625
 70
   192
  0
VERTEX
  8
RK-DRAIN
  5
3D08
 10
8.064704761275629
 20
-11.75851854342773
 30
0.5
 70
   192
  0
VERTEX
  8
RK-DRAIN
  5
3D09
 10
8.064704761275629
 20
-11.75851854342773
 30
0.625
 70
   192
  0
VERTEX
  8
RK-DRAIN
  5
3D0A
 10
8.0
 20
-11.75
 30
0.5
 70
   192
  0
VERTEX
  8
RK-DRAIN
  5
3D0B
 10
8.0
 20
-11.75
 30
0.625
 70
   192
  0
VERTEX
  8
RK-DRAIN
  5
3D0C
 10
7.93529523872437
 20
-11.75851854342773
 30
0.5
 70
   192
  0
VERTEX
  8
RK-DRAIN
  5
3D0D
 10
7.93529523872437
 20
-11.75851854342773
 30
0.625
 70
   192
  0
VERTEX
  8
RK-DRAIN
  5
3D0E
 10
7.875
 20
-11.78349364905389
 30
0.5
 70
   192
  0
VERTEX
  8
RK-DRAIN
  5
3D0F
 10
7.875
 20
-11.78349364905389
 30
0.625
 70
   192
  0
VERTEX
  8
RK-DRAIN
  5
3D10
 10
7.823223304703361
 20
-11.82322330470336
 30
0.5
 70
   192
  0
VERTEX
  8
RK-DRAIN
  5
3D11
 10
7.823223304703361
 20
-11.82322330470336
 30
0.625
 70
   192
  0
VERTEX
  8
RK-DRAIN
  5
3D12
 10
7.783493649053887
 20
-11.875
 30
0.5
 70
   192
  0
VERTEX
  8
RK-DRAIN
  5
3D13
 10
7.783493649053887
 20
-11.875
 30
0.625
 70
   192
  0
VERTEX
  8
RK-DRAIN
  5
3D14
 10
7.758518543427731
 20
-11.93529523872437
 30
0.5
 70
   192
  0
VERTEX
  8
RK-DRAIN
  5
3D15
 10
7.758518543427731
 20
-11.93529523872437
 30
0.625
 70
   192
  0
VERTEX
  8
RK-DRAIN
  5
3D16
 10
7.749999999999998
 20
-12.0
 30
0.5
 70
   192
  0
VERTEX
  8
RK-DRAIN
  5
3D17
 10
7.749999999999998
 20
-12.0
 30
0.625
 70
   192
  0
VERTEX
  8
RK-DRAIN
  5
3D18
 10
7.758518543427731
 20
-12.06470476127563
 30
0.5
 70
   192
  0
VERTEX
  8
RK-DRAIN
  5
3D19
 10
7.758518543427731
 20
-12.06470476127563
 30
0.625
 70
   192
  0
VERTEX
  8
RK-DRAIN
  5
3D1A
 10
7.783493649053889
 20
-12.125
 30
0.5
 70
   192
  0
VERTEX
  8
RK-DRAIN
  5
3D1B
 10
7.783493649053889
 20
-12.125
 30
0.625
 70
   192
  0
VERTEX
  8
RK-DRAIN
  5
3D1C
 10
7.823223304703361
 20
-12.17677669529664
 30
0.5
 70
   192
  0
VERTEX
  8
RK-DRAIN
  5
3D1D
 10
7.823223304703361
 20
-12.17677669529664
 30
0.625
 70
   192
  0
VERTEX
  8
RK-DRAIN
  5
3D1E
 10
7.875
 20
-12.21650635094611
 30
0.5
 70
   192
  0
VERTEX
  8
RK-DRAIN
  5
3D1F
 10
7.875
 20
-12.21650635094611
 30
0.625
 70
   192
  0
VERTEX
  8
RK-DRAIN
  5
3D20
 10
7.93529523872437
 20
-12.24148145657227
 30
0.5
 70
   192
  0
VERTEX
  8
RK-DRAIN
  5
3D21
 10
7.93529523872437
 20
-12.24148145657227
 30
0.625
 70
   192
  0
VERTEX
  8
RK-DRAIN
  5
3D22
 10
8.0
 20
-12.25
 30
0.5
 70
   192
  0
VERTEX
  8
RK-DRAIN
  5
3D23
 10
8.0
 20
-12.25
 30
0.625
 70
   192
  0
VERTEX
  8
RK-DRAIN
  5
3D24
 10
8.064704761275629
 20
-12.24148145657227
 30
0.5
 70
   192
  0
VERTEX
  8
RK-DRAIN
  5
3D25
 10
8.064704761275629
 20
-12.24148145657227
 30
0.625
 70
   192
  0
VERTEX
  8
RK-DRAIN
  5
3D26
 10
8.125
 20
-12.21650635094611
 30
0.5
 70
   192
  0
VERTEX
  8
RK-DRAIN
  5
3D27
 10
8.125
 20
-12.21650635094611
 30
0.625
 70
   192
  0
VERTEX
  8
RK-DRAIN
  5
3D28
 10
8.176776695296638
 20
-12.17677669529664
 30
0.5
 70
   192
  0
VERTEX
  8
RK-DRAIN
  5
3D29
 10
8.176776695296638
 20
-12.17677669529664
 30
0.625
 70
   192
  0
VERTEX
  8
RK-DRAIN
  5
3D2A
 10
8.216506350946112
 20
-12.125
 30
0.5
 70
   192
  0
VERTEX
  8
RK-DRAIN
  5
3D2B
 10
8.216506350946112
 20
-12.125
 30
0.625
 70
   192
  0
VERTEX
  8
RK-DRAIN
  5
3D2C
 10
8.241481456572268
 20
-12.06470476127563
 30
0.5
 70
   192
  0
VERTEX
  8
RK-DRAIN
  5
3D2D
 10
8.241481456572268
 20
-12.06470476127563
 30
0.625
 70
   192
  0
VERTEX
  8
RK-DRAIN
  5
3D2E
 10
8.0
 20
-12.0
 30
0.625
 70
   192
  0
VERTEX
  8
RK-DRAIN
  5
3D2F
 10
5.943189666011956
 20
-10.8125
 30
0.8125
 70
   192
  0
VERTEX
  8
RK-DRAIN
  5
3D30
 10
5.943189666011956
 20
-10.8125
 30
0.75
 70
   192
  0
VERTEX
  8
RK-DRAIN
  5
3D31
 10
5.705926162563461
 20
-11.38530476788151
 30
0.8125
 70
   192
  0
VERTEX
  8
RK-DRAIN
  5
3D32
 10
5.624999999999998
 20
-12.0
 30
0.8125
 70
   192
  0
VERTEX
  8
RK-DRAIN
  5
3D33
 10
5.705926162563461
 20
-11.38530476788151
 30
0.75
 70
   192
  0
VERTEX
  8
RK-DRAIN
  5
3D34
 10
5.624999999999998
 20
-12.0
 30
0.75
 70
   192
  0
VERTEX
  8
RK-DRAIN
  5
3D35
 10
8.0
 20
-9.625000000000003
 30
0.75
 70
   192
  0
VERTEX
  8
RK-DRAIN
  5
3D36
 10
8.0
 20
-9.625000000000003
 30
0.8125
 70
   192
  0
VERTEX
  8
RK-DRAIN
  5
3D37
 10
7.385304767881512
 20
-9.705926162563464
 30
0.75
 70
   192
  0
VERTEX
  8
RK-DRAIN
  5
3D38
 10
9.679378605318051
 20
-10.32062139468195
 30
0.8125
 70
   192
  0
VERTEX
  8
RK-DRAIN
  5
3D39
 10
9.679378605318051
 20
-10.32062139468195
 30
0.75
 70
   192
  0
VERTEX
  8
RK-DRAIN
  5
3D3A
 10
10.375
 20
-12.0
 30
0.8125
 70
   192
  0
VERTEX
  8
RK-DRAIN
  5
3D3B
 10
10.29407383743653
 20
-11.38530476788151
 30
0.8125
 70
   192
  0
VERTEX
  8
RK-DRAIN
  5
3D3C
 10
10.375
 20
-12.0
 30
0.75
 70
   192
  0
VERTEX
  8
RK-DRAIN
  5
3D3D
 10
10.29407383743653
 20
-11.38530476788151
 30
0.75
 70
   192
  0
VERTEX
  8
RK-DRAIN
  5
3D3E
 10
10.05681033398804
 20
-10.8125
 30
0.75
 70
   192
  0
VERTEX
  8
RK-DRAIN
  5
3D3F
 10
10.05681033398804
 20
-10.8125
 30
0.8125
 70
   192
  0
VERTEX
  8
RK-DRAIN
  5
3D40
 10
0.0
 20
0.0
 30
0.0
 70
   128
 71
     2
 72
     3
 73
     4
 74
     1
  0
VERTEX
  8
RK-DRAIN
  5
3D41
 10
0.0
 20
0.0
 30
0.0
 70
   128
 71
     6
 72
     7
 73
     8
 74
     5
  0
VERTEX
  8
RK-DRAIN
  5
3D42
 10
0.0
 20
0.0
 30
0.0
 70
   128
 71
     3
 72
     9
 73
    10
 74
     4
  0
VERTEX
  8
RK-DRAIN
  5
3D43
 10
0.0
 20
0.0
 30
0.0
 70
   128
 71
     7
 72
    11
 73
    12
 74
     8
  0
VERTEX
  8
RK-DRAIN
  5
3D44
 10
0.0
 20
0.0
 30
0.0
 70
   128
 71
     9
 72
    13
 73
    14
 74
    10
  0
VERTEX
  8
RK-DRAIN
  5
3D45
 10
0.0
 20
0.0
 30
0.0
 70
   128
 71
    11
 72
    15
 73
    16
 74
    12
  0
VERTEX
  8
RK-DRAIN
  5
3D46
 10
0.0
 20
0.0
 30
0.0
 70
   128
 71
    13
 72
    17
 73
    18
 74
    14
  0
VERTEX
  8
RK-DRAIN
  5
3D47
 10
0.0
 20
0.0
 30
0.0
 70
   128
 71
    15
 72
    19
 73
    20
 74
    16
  0
VERTEX
  8
RK-DRAIN
  5
3D48
 10
0.0
 20
0.0
 30
0.0
 70
   128
 71
    17
 72
    21
 73
    22
 74
    18
  0
VERTEX
  8
RK-DRAIN
  5
3D49
 10
0.0
 20
0.0
 30
0.0
 70
   128
 71
    19
 72
    23
 73
    24
 74
    20
  0
VERTEX
  8
RK-DRAIN
  5
3D4A
 10
0.0
 20
0.0
 30
0.0
 70
   128
 71
    21
 72
    25
 73
    26
 74
    22
  0
VERTEX
  8
RK-DRAIN
  5
3D4B
 10
0.0
 20
0.0
 30
0.0
 70
   128
 71
    23
 72
    27
 73
    28
 74
    24
  0
VERTEX
  8
RK-DRAIN
  5
3D4C
 10
0.0
 20
0.0
 30
0.0
 70
   128
 71
    25
 72
    29
 73
    30
 74
    26
  0
VERTEX
  8
RK-DRAIN
  5
3D4D
 10
0.0
 20
0.0
 30
0.0
 70
   128
 71
    27
 72
    31
 73
    32
 74
    28
  0
VERTEX
  8
RK-DRAIN
  5
3D4E
 10
0.0
 20
0.0
 30
0.0
 70
   128
 71
    29
 72
    33
 73
    34
 74
    30
  0
VERTEX
  8
RK-DRAIN
  5
3D4F
 10
0.0
 20
0.0
 30
0.0
 70
   128
 71
    31
 72
    35
 73
    36
 74
    32
  0
VERTEX
  8
RK-DRAIN
  5
3D50
 10
0.0
 20
0.0
 30
0.0
 70
   128
 71
    33
 72
    37
 73
    38
 74
    34
  0
VERTEX
  8
RK-DRAIN
  5
3D51
 10
0.0
 20
0.0
 30
0.0
 70
   128
 71
    35
 72
    39
 73
    40
 74
    36
  0
VERTEX
  8
RK-DRAIN
  5
3D52
 10
0.0
 20
0.0
 30
0.0
 70
   128
 71
    37
 72
    41
 73
    42
 74
    38
  0
VERTEX
  8
RK-DRAIN
  5
3D53
 10
0.0
 20
0.0
 30
0.0
 70
   128
 71
    39
 72
    43
 73
    44
 74
    40
  0
VERTEX
  8
RK-DRAIN
  5
3D54
 10
0.0
 20
0.0
 30
0.0
 70
   128
 71
    41
 72
    45
 73
    46
 74
    42
  0
VERTEX
  8
RK-DRAIN
  5
3D55
 10
0.0
 20
0.0
 30
0.0
 70
   128
 71
    43
 72
    47
 73
    48
 74
    44
  0
VERTEX
  8
RK-DRAIN
  5
3D56
 10
0.0
 20
0.0
 30
0.0
 70
   128
 71
    45
 72
    49
 73
    50
 74
    46
  0
VERTEX
  8
RK-DRAIN
  5
3D57
 10
0.0
 20
0.0
 30
0.0
 70
   128
 71
    47
 72
    51
 73
    52
 74
    48
  0
VERTEX
  8
RK-DRAIN
  5
3D58
 10
0.0
 20
0.0
 30
0.0
 70
   128
 71
    49
 72
    53
 73
    54
 74
    50
  0
VERTEX
  8
RK-DRAIN
  5
3D59
 10
0.0
 20
0.0
 30
0.0
 70
   128
 71
    51
 72
    55
 73
    56
 74
    52
  0
VERTEX
  8
RK-DRAIN
  5
3D5A
 10
0.0
 20
0.0
 30
0.0
 70
   128
 71
    53
 72
    57
 73
    58
 74
    54
  0
VERTEX
  8
RK-DRAIN
  5
3D5B
 10
0.0
 20
0.0
 30
0.0
 70
   128
 71
    55
 72
    59
 73
    60
 74
    56
  0
VERTEX
  8
RK-DRAIN
  5
3D5C
 10
0.0
 20
0.0
 30
0.0
 70
   128
 71
    57
 72
    61
 73
    62
 74
    58
  0
VERTEX
  8
RK-DRAIN
  5
3D5D
 10
0.0
 20
0.0
 30
0.0
 70
   128
 71
    59
 72
    63
 73
    64
 74
    60
  0
VERTEX
  8
RK-DRAIN
  5
3D5E
 10
0.0
 20
0.0
 30
0.0
 70
   128
 71
    61
 72
    65
 73
    66
 74
    62
  0
VERTEX
  8
RK-DRAIN
  5
3D5F
 10
0.0
 20
0.0
 30
0.0
 70
   128
 71
    63
 72
    67
 73
    68
 74
    64
  0
VERTEX
  8
RK-DRAIN
  5
3D60
 10
0.0
 20
0.0
 30
0.0
 70
   128
 71
    65
 72
    69
 73
    70
 74
    66
  0
VERTEX
  8
RK-DRAIN
  5
3D61
 10
0.0
 20
0.0
 30
0.0
 70
   128
 71
    67
 72
    71
 73
    72
 74
    68
  0
VERTEX
  8
RK-DRAIN
  5
3D62
 10
0.0
 20
0.0
 30
0.0
 70
   128
 71
    69
 72
    73
 73
    74
 74
    70
  0
VERTEX
  8
RK-DRAIN
  5
3D63
 10
0.0
 20
0.0
 30
0.0
 70
   128
 71
    71
 72
    75
 73
    76
 74
    72
  0
VERTEX
  8
RK-DRAIN
  5
3D64
 10
0.0
 20
0.0
 30
0.0
 70
   128
 71
    73
 72
    77
 73
    78
 74
    74
  0
VERTEX
  8
RK-DRAIN
  5
3D65
 10
0.0
 20
0.0
 30
0.0
 70
   128
 71
    75
 72
    79
 73
    80
 74
    76
  0
VERTEX
  8
RK-DRAIN
  5
3D66
 10
0.0
 20
0.0
 30
0.0
 70
   128
 71
    77
 72
    81
 73
    82
 74
    78
  0
VERTEX
  8
RK-DRAIN
  5
3D67
 10
0.0
 20
0.0
 30
0.0
 70
   128
 71
    79
 72
    83
 73
    84
 74
    80
  0
VERTEX
  8
RK-DRAIN
  5
3D68
 10
0.0
 20
0.0
 30
0.0
 70
   128
 71
    81
 72
    85
 73
    86
 74
    82
  0
VERTEX
  8
RK-DRAIN
  5
3D69
 10
0.0
 20
0.0
 30
0.0
 70
   128
 71
    83
 72
    87
 73
    88
 74
    84
  0
VERTEX
  8
RK-DRAIN
  5
3D6A
 10
0.0
 20
0.0
 30
0.0
 70
   128
 71
    85
 72
    89
 73
    90
 74
    86
  0
VERTEX
  8
RK-DRAIN
  5
3D6B
 10
0.0
 20
0.0
 30
0.0
 70
   128
 71
    87
 72
    91
 73
    92
 74
    88
  0
VERTEX
  8
RK-DRAIN
  5
3D6C
 10
0.0
 20
0.0
 30
0.0
 70
   128
 71
    89
 72
    93
 73
    94
 74
    90
  0
VERTEX
  8
RK-DRAIN
  5
3D6D
 10
0.0
 20
0.0
 30
0.0
 70
   128
 71
    91
 72
    95
 73
    96
 74
    92
  0
VERTEX
  8
RK-DRAIN
  5
3D6E
 10
0.0
 20
0.0
 30
0.0
 70
   128
 71
    93
 72
     2
 73
     1
 74
    94
  0
VERTEX
  8
RK-DRAIN
  5
3D6F
 10
0.0
 20
0.0
 30
0.0
 70
   128
 71
    95
 72
     6
 73
     5
 74
    96
  0
VERTEX
  8
RK-DRAIN
  5
3D70
 10
0.0
 20
0.0
 30
0.0
 70
   128
 71
    60
 72
   -64
 73
    61
 74
   -57
  0
VERTEX
  8
RK-DRAIN
  5
3D71
 10
0.0
 20
0.0
 30
0.0
 70
   128
 71
    64
 72
   -68
 73
    65
 74
   -61
  0
VERTEX
  8
RK-DRAIN
  5
3D72
 10
0.0
 20
0.0
 30
0.0
 70
   128
 71
    68
 72
   -72
 73
    69
 74
   -65
  0
VERTEX
  8
RK-DRAIN
  5
3D73
 10
0.0
 20
0.0
 30
0.0
 70
   128
 71
    72
 72
   -76
 73
    73
 74
   -69
  0
VERTEX
  8
RK-DRAIN
  5
3D74
 10
0.0
 20
0.0
 30
0.0
 70
   128
 71
    76
 72
   -80
 73
    77
 74
   -73
  0
VERTEX
  8
RK-DRAIN
  5
3D75
 10
0.0
 20
0.0
 30
0.0
 70
   128
 71
    80
 72
   -84
 73
    81
 74
   -77
  0
VERTEX
  8
RK-DRAIN
  5
3D76
 10
0.0
 20
0.0
 30
0.0
 70
   128
 71
    84
 72
   -88
 73
    85
 74
   -81
  0
VERTEX
  8
RK-DRAIN
  5
3D77
 10
0.0
 20
0.0
 30
0.0
 70
   128
 71
    88
 72
   -92
 73
    89
 74
   -85
  0
VERTEX
  8
RK-DRAIN
  5
3D78
 10
0.0
 20
0.0
 30
0.0
 70
   128
 71
     5
 72
    -8
 73
     3
 74
    -2
  0
VERTEX
  8
RK-DRAIN
  5
3D79
 10
0.0
 20
0.0
 30
0.0
 70
   128
 71
     8
 72
   -12
 73
     9
 74
    -3
  0
VERTEX
  8
RK-DRAIN
  5
3D7A
 10
0.0
 20
0.0
 30
0.0
 70
   128
 71
    12
 72
   -16
 73
    13
 74
    -9
  0
VERTEX
  8
RK-DRAIN
  5
3D7B
 10
0.0
 20
0.0
 30
0.0
 70
   128
 71
    16
 72
   -20
 73
    17
 74
   -13
  0
VERTEX
  8
RK-DRAIN
  5
3D7C
 10
0.0
 20
0.0
 30
0.0
 70
   128
 71
    20
 72
   -24
 73
    21
 74
   -17
  0
VERTEX
  8
RK-DRAIN
  5
3D7D
 10
0.0
 20
0.0
 30
0.0
 70
   128
 71
    92
 72
   -96
 73
    93
 74
   -89
  0
VERTEX
  8
RK-DRAIN
  5
3D7E
 10
0.0
 20
0.0
 30
0.0
 70
   128
 71
    96
 72
    -5
 73
     2
 74
   -93
  0
VERTEX
  8
RK-DRAIN
  5
3D7F
 10
0.0
 20
0.0
 30
0.0
 70
   128
 71
    24
 72
   -28
 73
    25
 74
   -21
  0
VERTEX
  8
RK-DRAIN
  5
3D80
 10
0.0
 20
0.0
 30
0.0
 70
   128
 71
    28
 72
   -32
 73
    29
 74
   -25
  0
VERTEX
  8
RK-DRAIN
  5
3D81
 10
0.0
 20
0.0
 30
0.0
 70
   128
 71
    32
 72
   -36
 73
    33
 74
   -29
  0
VERTEX
  8
RK-DRAIN
  5
3D82
 10
0.0
 20
0.0
 30
0.0
 70
   128
 71
    36
 72
   -40
 73
    37
 74
   -33
  0
VERTEX
  8
RK-DRAIN
  5
3D83
 10
0.0
 20
0.0
 30
0.0
 70
   128
 71
    40
 72
   -44
 73
    41
 74
   -37
  0
VERTEX
  8
RK-DRAIN
  5
3D84
 10
0.0
 20
0.0
 30
0.0
 70
   128
 71
    44
 72
   -48
 73
    45
 74
   -41
  0
VERTEX
  8
RK-DRAIN
  5
3D85
 10
0.0
 20
0.0
 30
0.0
 70
   128
 71
    48
 72
   -52
 73
    49
 74
   -45
  0
VERTEX
  8
RK-DRAIN
  5
3D86
 10
0.0
 20
0.0
 30
0.0
 70
   128
 71
    52
 72
   -56
 73
    53
 74
   -49
  0
VERTEX
  8
RK-DRAIN
  5
3D87
 10
0.0
 20
0.0
 30
0.0
 70
   128
 71
    56
 72
   -60
 73
    57
 74
   -53
  0
VERTEX
  8
RK-DRAIN
  5
3D88
 10
0.0
 20
0.0
 30
0.0
 70
   128
 71
    97
 72
   -98
 73
    59
 74
   -55
  0
VERTEX
  8
RK-DRAIN
  5
3D89
 10
0.0
 20
0.0
 30
0.0
 70
   128
 71
    99
 72
   100
 73
    98
 74
    97
  0
VERTEX
  8
RK-DRAIN
  5
3D8A
 10
0.0
 20
0.0
 30
0.0
 70
   128
 71
    98
 72
  -101
 73
    63
 74
   -59
  0
VERTEX
  8
RK-DRAIN
  5
3D8B
 10
0.0
 20
0.0
 30
0.0
 70
   128
 71
   102
 72
  -103
 73
    91
 74
   -87
  0
VERTEX
  8
RK-DRAIN
  5
3D8C
 10
0.0
 20
0.0
 30
0.0
 70
   128
 71
   103
 72
  -104
 73
    95
 74
   -91
  0
VERTEX
  8
RK-DRAIN
  5
3D8D
 10
0.0
 20
0.0
 30
0.0
 70
   128
 71
   105
 72
   106
 73
   104
 74
   103
  0
VERTEX
  8
RK-DRAIN
  5
3D8E
 10
0.0
 20
0.0
 30
0.0
 70
   128
 71
   107
 72
  -108
 73
    83
 74
   -79
  0
VERTEX
  8
RK-DRAIN
  5
3D8F
 10
0.0
 20
0.0
 30
0.0
 70
   128
 71
   109
 72
   110
 73
   108
 74
   107
  0
VERTEX
  8
RK-DRAIN
  5
3D90
 10
0.0
 20
0.0
 30
0.0
 70
   128
 71
   100
 72
   111
 73
   101
 74
    98
  0
VERTEX
  8
RK-DRAIN
  5
3D91
 10
0.0
 20
0.0
 30
0.0
 70
   128
 71
   111
 72
   112
 73
   113
 74
   101
  0
VERTEX
  8
RK-DRAIN
  5
3D92
 10
0.0
 20
0.0
 30
0.0
 70
   128
 71
   112
 72
   114
 73
   115
 74
   113
  0
VERTEX
  8
RK-DRAIN
  5
3D93
 10
0.0
 20
0.0
 30
0.0
 70
   128
 71
   114
 72
   116
 73
   117
 74
   115
  0
VERTEX
  8
RK-DRAIN
  5
3D94
 10
0.0
 20
0.0
 30
0.0
 70
   128
 71
   116
 72
   109
 73
   107
 74
   117
  0
VERTEX
  8
RK-DRAIN
  5
3D95
 10
0.0
 20
0.0
 30
0.0
 70
   128
 71
   113
 72
  -115
 73
    71
 74
   -67
  0
VERTEX
  8
RK-DRAIN
  5
3D96
 10
0.0
 20
0.0
 30
0.0
 70
   128
 71
   115
 72
  -117
 73
    75
 74
   -71
  0
VERTEX
  8
RK-DRAIN
  5
3D97
 10
0.0
 20
0.0
 30
0.0
 70
   128
 71
   101
 72
  -113
 73
    67
 74
   -63
  0
VERTEX
  8
RK-DRAIN
  5
3D98
 10
0.0
 20
0.0
 30
0.0
 70
   128
 71
   117
 72
  -107
 73
    79
 74
   -75
  0
VERTEX
  8
RK-DRAIN
  5
3D99
 10
0.0
 20
0.0
 30
0.0
 70
   128
 71
   110
 72
   118
 73
   102
 74
   108
  0
VERTEX
  8
RK-DRAIN
  5
3D9A
 10
0.0
 20
0.0
 30
0.0
 70
   128
 71
   118
 72
   105
 73
   103
 74
   102
  0
VERTEX
  8
RK-DRAIN
  5
3D9B
 10
0.0
 20
0.0
 30
0.0
 70
   128
 71
   108
 72
  -102
 73
    87
 74
   -83
  0
VERTEX
  8
RK-DRAIN
  5
3D9C
 10
0.0
 20
0.0
 30
0.0
 70
   128
 71
   119
 72
  -120
 73
    23
 74
   -19
  0
VERTEX
  8
RK-DRAIN
  5
3D9D
 10
0.0
 20
0.0
 30
0.0
 70
   128
 71
   121
 72
   122
 73
   120
 74
   119
  0
VERTEX
  8
RK-DRAIN
  5
3D9E
 10
0.0
 20
0.0
 30
0.0
 70
   128
 71
   123
 72
  -124
 73
    35
 74
   -31
  0
VERTEX
  8
RK-DRAIN
  5
3D9F
 10
0.0
 20
0.0
 30
0.0
 70
   128
 71
   124
 72
  -125
 73
    39
 74
   -35
  0
VERTEX
  8
RK-DRAIN
  5
3DA0
 10
0.0
 20
0.0
 30
0.0
 70
   128
 71
   126
 72
   127
 73
   125
 74
   124
  0
VERTEX
  8
RK-DRAIN
  5
3DA1
 10
0.0
 20
0.0
 30
0.0
 70
   128
 71
   129
 72
   130
 73
   131
 74
   128
  0
VERTEX
  8
RK-DRAIN
  5
3DA2
 10
0.0
 20
0.0
 30
0.0
 70
   128
 71
   130
 72
   132
 73
   133
 74
   131
  0
VERTEX
  8
RK-DRAIN
  5
3DA3
 10
0.0
 20
0.0
 30
0.0
 70
   128
 71
   132
 72
   134
 73
   135
 74
   133
  0
VERTEX
  8
RK-DRAIN
  5
3DA4
 10
0.0
 20
0.0
 30
0.0
 70
   128
 71
   134
 72
   136
 73
   137
 74
   135
  0
VERTEX
  8
RK-DRAIN
  5
3DA5
 10
0.0
 20
0.0
 30
0.0
 70
   128
 71
   136
 72
   138
 73
   139
 74
   137
  0
VERTEX
  8
RK-DRAIN
  5
3DA6
 10
0.0
 20
0.0
 30
0.0
 70
   128
 71
   138
 72
   140
 73
   141
 74
   139
  0
VERTEX
  8
RK-DRAIN
  5
3DA7
 10
0.0
 20
0.0
 30
0.0
 70
   128
 71
   140
 72
   142
 73
   143
 74
   141
  0
VERTEX
  8
RK-DRAIN
  5
3DA8
 10
0.0
 20
0.0
 30
0.0
 70
   128
 71
   142
 72
   144
 73
   145
 74
   143
  0
VERTEX
  8
RK-DRAIN
  5
3DA9
 10
0.0
 20
0.0
 30
0.0
 70
   128
 71
   144
 72
   146
 73
   147
 74
   145
  0
VERTEX
  8
RK-DRAIN
  5
3DAA
 10
0.0
 20
0.0
 30
0.0
 70
   128
 71
   146
 72
   148
 73
   149
 74
   147
  0
VERTEX
  8
RK-DRAIN
  5
3DAB
 10
0.0
 20
0.0
 30
0.0
 70
   128
 71
   148
 72
   150
 73
   151
 74
   149
  0
VERTEX
  8
RK-DRAIN
  5
3DAC
 10
0.0
 20
0.0
 30
0.0
 70
   128
 71
   150
 72
   152
 73
   153
 74
   151
  0
VERTEX
  8
RK-DRAIN
  5
3DAD
 10
0.0
 20
0.0
 30
0.0
 70
   128
 71
   152
 72
   154
 73
   155
 74
   153
  0
VERTEX
  8
RK-DRAIN
  5
3DAE
 10
0.0
 20
0.0
 30
0.0
 70
   128
 71
   154
 72
   156
 73
   157
 74
   155
  0
VERTEX
  8
RK-DRAIN
  5
3DAF
 10
0.0
 20
0.0
 30
0.0
 70
   128
 71
   156
 72
   158
 73
   159
 74
   157
  0
VERTEX
  8
RK-DRAIN
  5
3DB0
 10
0.0
 20
0.0
 30
0.0
 70
   128
 71
   158
 72
   160
 73
   161
 74
   159
  0
VERTEX
  8
RK-DRAIN
  5
3DB1
 10
0.0
 20
0.0
 30
0.0
 70
   128
 71
   160
 72
   162
 73
   163
 74
   161
  0
VERTEX
  8
RK-DRAIN
  5
3DB2
 10
0.0
 20
0.0
 30
0.0
 70
   128
 71
   162
 72
   164
 73
   165
 74
   163
  0
VERTEX
  8
RK-DRAIN
  5
3DB3
 10
0.0
 20
0.0
 30
0.0
 70
   128
 71
   164
 72
   166
 73
   167
 74
   165
  0
VERTEX
  8
RK-DRAIN
  5
3DB4
 10
0.0
 20
0.0
 30
0.0
 70
   128
 71
   166
 72
   168
 73
   169
 74
   167
  0
VERTEX
  8
RK-DRAIN
  5
3DB5
 10
0.0
 20
0.0
 30
0.0
 70
   128
 71
   168
 72
   170
 73
   171
 74
   169
  0
VERTEX
  8
RK-DRAIN
  5
3DB6
 10
0.0
 20
0.0
 30
0.0
 70
   128
 71
   170
 72
   172
 73
   173
 74
   171
  0
VERTEX
  8
RK-DRAIN
  5
3DB7
 10
0.0
 20
0.0
 30
0.0
 70
   128
 71
   172
 72
   174
 73
   175
 74
   173
  0
VERTEX
  8
RK-DRAIN
  5
3DB8
 10
0.0
 20
0.0
 30
0.0
 70
   128
 71
   174
 72
   129
 73
   128
 74
   175
  0
VERTEX
  8
RK-DRAIN
  5
3DB9
 10
0.0
 20
0.0
 30
0.0
 70
   128
 71
     4
 72
   -10
 73
   132
 74
  -130
  0
VERTEX
  8
RK-DRAIN
  5
3DBA
 10
0.0
 20
0.0
 30
0.0
 70
   128
 71
    10
 72
   -14
 73
   134
 74
  -132
  0
VERTEX
  8
RK-DRAIN
  5
3DBB
 10
0.0
 20
0.0
 30
0.0
 70
   128
 71
    14
 72
   -18
 73
   136
 74
  -134
  0
VERTEX
  8
RK-DRAIN
  5
3DBC
 10
0.0
 20
0.0
 30
0.0
 70
   128
 71
    18
 72
   -22
 73
   138
 74
  -136
  0
VERTEX
  8
RK-DRAIN
  5
3DBD
 10
0.0
 20
0.0
 30
0.0
 70
   128
 71
    78
 72
   -82
 73
   168
 74
  -166
  0
VERTEX
  8
RK-DRAIN
  5
3DBE
 10
0.0
 20
0.0
 30
0.0
 70
   128
 71
    82
 72
   -86
 73
   170
 74
  -168
  0
VERTEX
  8
RK-DRAIN
  5
3DBF
 10
0.0
 20
0.0
 30
0.0
 70
   128
 71
    86
 72
   -90
 73
   172
 74
  -170
  0
VERTEX
  8
RK-DRAIN
  5
3DC0
 10
0.0
 20
0.0
 30
0.0
 70
   128
 71
    90
 72
   -94
 73
   174
 74
  -172
  0
VERTEX
  8
RK-DRAIN
  5
3DC1
 10
0.0
 20
0.0
 30
0.0
 70
   128
 71
    54
 72
   -58
 73
   156
 74
  -154
  0
VERTEX
  8
RK-DRAIN
  5
3DC2
 10
0.0
 20
0.0
 30
0.0
 70
   128
 71
    58
 72
   -62
 73
   158
 74
  -156
  0
VERTEX
  8
RK-DRAIN
  5
3DC3
 10
0.0
 20
0.0
 30
0.0
 70
   128
 71
    70
 72
   -74
 73
   164
 74
  -162
  0
VERTEX
  8
RK-DRAIN
  5
3DC4
 10
0.0
 20
0.0
 30
0.0
 70
   128
 71
    74
 72
   -78
 73
   166
 74
  -164
  0
VERTEX
  8
RK-DRAIN
  5
3DC5
 10
0.0
 20
0.0
 30
0.0
 70
   128
 71
    66
 72
   -70
 73
   162
 74
  -160
  0
VERTEX
  8
RK-DRAIN
  5
3DC6
 10
0.0
 20
0.0
 30
0.0
 70
   128
 71
    62
 72
   -66
 73
   160
 74
  -158
  0
VERTEX
  8
RK-DRAIN
  5
3DC7
 10
0.0
 20
0.0
 30
0.0
 70
   128
 71
    38
 72
   -42
 73
   148
 74
  -146
  0
VERTEX
  8
RK-DRAIN
  5
3DC8
 10
0.0
 20
0.0
 30
0.0
 70
   128
 71
    42
 72
   -46
 73
   150
 74
  -148
  0
VERTEX
  8
RK-DRAIN
  5
3DC9
 10
0.0
 20
0.0
 30
0.0
 70
   128
 71
    46
 72
   -50
 73
   152
 74
  -150
  0
VERTEX
  8
RK-DRAIN
  5
3DCA
 10
0.0
 20
0.0
 30
0.0
 70
   128
 71
    50
 72
   -54
 73
   154
 74
  -152
  0
VERTEX
  8
RK-DRAIN
  5
3DCB
 10
0.0
 20
0.0
 30
0.0
 70
   128
 71
    34
 72
   -38
 73
   146
 74
  -144
  0
VERTEX
  8
RK-DRAIN
  5
3DCC
 10
0.0
 20
0.0
 30
0.0
 70
   128
 71
    26
 72
   -30
 73
   142
 74
  -140
  0
VERTEX
  8
RK-DRAIN
  5
3DCD
 10
0.0
 20
0.0
 30
0.0
 70
   128
 71
    30
 72
   -34
 73
   144
 74
  -142
  0
VERTEX
  8
RK-DRAIN
  5
3DCE
 10
0.0
 20
0.0
 30
0.0
 70
   128
 71
    22
 72
   -26
 73
   140
 74
  -138
  0
VERTEX
  8
RK-DRAIN
  5
3DCF
 10
0.0
 20
0.0
 30
0.0
 70
   128
 71
     1
 72
    -4
 73
   130
 74
  -129
  0
VERTEX
  8
RK-DRAIN
  5
3DD0
 10
0.0
 20
0.0
 30
0.0
 70
   128
 71
    94
 72
    -1
 73
   129
 74
  -174
  0
VERTEX
  8
RK-DRAIN
  5
3DD1
 10
0.0
 20
0.0
 30
0.0
 70
   128
 71
  -176
 72
   128
 73
  -131
  0
VERTEX
  8
RK-DRAIN
  5
3DD2
 10
0.0
 20
0.0
 30
0.0
 70
   128
 71
  -176
 72
   131
 73
  -133
  0
VERTEX
  8
RK-DRAIN
  5
3DD3
 10
0.0
 20
0.0
 30
0.0
 70
   128
 71
  -176
 72
   133
 73
  -135
  0
VERTEX
  8
RK-DRAIN
  5
3DD4
 10
0.0
 20
0.0
 30
0.0
 70
   128
 71
  -176
 72
   135
 73
  -137
  0
VERTEX
  8
RK-DRAIN
  5
3DD5
 10
0.0
 20
0.0
 30
0.0
 70
   128
 71
  -176
 72
   137
 73
  -139
  0
VERTEX
  8
RK-DRAIN
  5
3DD6
 10
0.0
 20
0.0
 30
0.0
 70
   128
 71
  -176
 72
   167
 73
  -169
  0
VERTEX
  8
RK-DRAIN
  5
3DD7
 10
0.0
 20
0.0
 30
0.0
 70
   128
 71
  -176
 72
   169
 73
  -171
  0
VERTEX
  8
RK-DRAIN
  5
3DD8
 10
0.0
 20
0.0
 30
0.0
 70
   128
 71
  -176
 72
   171
 73
  -173
  0
VERTEX
  8
RK-DRAIN
  5
3DD9
 10
0.0
 20
0.0
 30
0.0
 70
   128
 71
  -176
 72
   173
 73
  -175
  0
VERTEX
  8
RK-DRAIN
  5
3DDA
 10
0.0
 20
0.0
 30
0.0
 70
   128
 71
  -176
 72
   175
 73
  -128
  0
VERTEX
  8
RK-DRAIN
  5
3DDB
 10
0.0
 20
0.0
 30
0.0
 70
   128
 71
  -176
 72
   155
 73
  -157
  0
VERTEX
  8
RK-DRAIN
  5
3DDC
 10
0.0
 20
0.0
 30
0.0
 70
   128
 71
  -176
 72
   157
 73
  -159
  0
VERTEX
  8
RK-DRAIN
  5
3DDD
 10
0.0
 20
0.0
 30
0.0
 70
   128
 71
  -176
 72
   159
 73
  -161
  0
VERTEX
  8
RK-DRAIN
  5
3DDE
 10
0.0
 20
0.0
 30
0.0
 70
   128
 71
  -176
 72
   161
 73
  -163
  0
VERTEX
  8
RK-DRAIN
  5
3DDF
 10
0.0
 20
0.0
 30
0.0
 70
   128
 71
  -176
 72
   163
 73
  -165
  0
VERTEX
  8
RK-DRAIN
  5
3DE0
 10
0.0
 20
0.0
 30
0.0
 70
   128
 71
  -176
 72
   165
 73
  -167
  0
VERTEX
  8
RK-DRAIN
  5
3DE1
 10
0.0
 20
0.0
 30
0.0
 70
   128
 71
  -176
 72
   147
 73
  -149
  0
VERTEX
  8
RK-DRAIN
  5
3DE2
 10
0.0
 20
0.0
 30
0.0
 70
   128
 71
  -176
 72
   149
 73
  -151
  0
VERTEX
  8
RK-DRAIN
  5
3DE3
 10
0.0
 20
0.0
 30
0.0
 70
   128
 71
  -176
 72
   151
 73
  -153
  0
VERTEX
  8
RK-DRAIN
  5
3DE4
 10
0.0
 20
0.0
 30
0.0
 70
   128
 71
  -176
 72
   153
 73
  -155
  0
VERTEX
  8
RK-DRAIN
  5
3DE5
 10
0.0
 20
0.0
 30
0.0
 70
   128
 71
  -176
 72
   139
 73
  -141
  0
VERTEX
  8
RK-DRAIN
  5
3DE6
 10
0.0
 20
0.0
 30
0.0
 70
   128
 71
  -176
 72
   141
 73
  -143
  0
VERTEX
  8
RK-DRAIN
  5
3DE7
 10
0.0
 20
0.0
 30
0.0
 70
   128
 71
  -176
 72
   143
 73
  -145
  0
VERTEX
  8
RK-DRAIN
  5
3DE8
 10
0.0
 20
0.0
 30
0.0
 70
   128
 71
  -176
 72
   145
 73
  -147
  0
VERTEX
  8
RK-DRAIN
  5
3DE9
 10
0.0
 20
0.0
 30
0.0
 70
   128
 71
   125
 72
  -177
 73
    43
 74
   -39
  0
VERTEX
  8
RK-DRAIN
  5
3DEA
 10
0.0
 20
0.0
 30
0.0
 70
   128
 71
   127
 72
   178
 73
   177
 74
   125
  0
VERTEX
  8
RK-DRAIN
  5
3DEB
 10
0.0
 20
0.0
 30
0.0
 70
   128
 71
   177
 72
  -179
 73
    47
 74
   -43
  0
VERTEX
  8
RK-DRAIN
  5
3DEC
 10
0.0
 20
0.0
 30
0.0
 70
   128
 71
   179
 72
  -180
 73
    51
 74
   -47
  0
VERTEX
  8
RK-DRAIN
  5
3DED
 10
0.0
 20
0.0
 30
0.0
 70
   128
 71
   180
 72
   -97
 73
    55
 74
   -51
  0
VERTEX
  8
RK-DRAIN
  5
3DEE
 10
0.0
 20
0.0
 30
0.0
 70
   128
 71
   181
 72
   182
 73
   180
 74
   179
  0
VERTEX
  8
RK-DRAIN
  5
3DEF
 10
0.0
 20
0.0
 30
0.0
 70
   128
 71
   182
 72
    99
 73
    97
 74
   180
  0
VERTEX
  8
RK-DRAIN
  5
3DF0
 10
0.0
 20
0.0
 30
0.0
 70
   128
 71
   178
 72
   181
 73
   179
 74
   177
  0
VERTEX
  8
RK-DRAIN
  5
3DF1
 10
0.0
 20
0.0
 30
0.0
 70
   128
 71
   122
 72
   183
 73
   184
 74
   120
  0
VERTEX
  8
RK-DRAIN
  5
3DF2
 10
0.0
 20
0.0
 30
0.0
 70
   128
 71
   183
 72
   185
 73
   123
 74
   184
  0
VERTEX
  8
RK-DRAIN
  5
3DF3
 10
0.0
 20
0.0
 30
0.0
 70
   128
 71
   185
 72
   126
 73
   124
 74
   123
  0
VERTEX
  8
RK-DRAIN
  5
3DF4
 10
0.0
 20
0.0
 30
0.0
 70
   128
 71
   184
 72
  -123
 73
    31
 74
   -27
  0
VERTEX
  8
RK-DRAIN
  5
3DF5
 10
0.0
 20
0.0
 30
0.0
 70
   128
 71
   120
 72
  -184
 73
    27
 74
   -23
  0
VERTEX
  8
RK-DRAIN
  5
3DF6
 10
0.0
 20
0.0
 30
0.0
 70
   128
 71
   186
 72
  -119
 73
    19
 74
   -15
  0
VERTEX
  8
RK-DRAIN
  5
3DF7
 10
0.0
 20
0.0
 30
0.0
 70
   128
 71
   187
 72
   121
 73
   119
 74
   186
  0
VERTEX
  8
RK-DRAIN
  5
3DF8
 10
0.0
 20
0.0
 30
0.0
 70
   128
 71
   188
 72
  -189
 73
     7
 74
    -6
  0
VERTEX
  8
RK-DRAIN
  5
3DF9
 10
0.0
 20
0.0
 30
0.0
 70
   128
 71
   190
 72
   191
 73
   189
 74
   188
  0
VERTEX
  8
RK-DRAIN
  5
3DFA
 10
0.0
 20
0.0
 30
0.0
 70
   128
 71
   106
 72
   190
 73
   188
 74
   104
  0
VERTEX
  8
RK-DRAIN
  5
3DFB
 10
0.0
 20
0.0
 30
0.0
 70
   128
 71
   104
 72
  -188
 73
     6
 74
   -95
  0
VERTEX
  8
RK-DRAIN
  5
3DFC
 10
0.0
 20
0.0
 30
0.0
 70
   128
 71
   191
 72
   192
 73
   193
 74
   189
  0
VERTEX
  8
RK-DRAIN
  5
3DFD
 10
0.0
 20
0.0
 30
0.0
 70
   128
 71
   192
 72
   187
 73
   186
 74
   193
  0
VERTEX
  8
RK-DRAIN
  5
3DFE
 10
0.0
 20
0.0
 30
0.0
 70
   128
 71
   189
 72
  -193
 73
    11
 74
    -7
  0
VERTEX
  8
RK-DRAIN
  5
3DFF
 10
0.0
 20
0.0
 30
0.0
 70
   128
 71
   193
 72
  -186
 73
    15
 74
   -11
  0
VERTEX
  8
RK-DRAIN
  5
3E00
 10
0.0
 20
0.0
 30
0.0
 70
   128
 71
   195
 72
   196
 73
   197
 74
   194
  0
VERTEX
  8
RK-DRAIN
  5
3E01
 10
0.0
 20
0.0
 30
0.0
 70
   128
 71
   199
 72
   200
 73
   201
 74
   198
  0
VERTEX
  8
RK-DRAIN
  5
3E02
 10
0.0
 20
0.0
 30
0.0
 70
   128
 71
   196
 72
   202
 73
   203
 74
   197
  0
VERTEX
  8
RK-DRAIN
  5
3E03
 10
0.0
 20
0.0
 30
0.0
 70
   128
 71
   200
 72
   204
 73
   205
 74
   201
  0
VERTEX
  8
RK-DRAIN
  5
3E04
 10
0.0
 20
0.0
 30
0.0
 70
   128
 71
   202
 72
   206
 73
   207
 74
   203
  0
VERTEX
  8
RK-DRAIN
  5
3E05
 10
0.0
 20
0.0
 30
0.0
 70
   128
 71
   204
 72
   208
 73
   209
 74
   205
  0
VERTEX
  8
RK-DRAIN
  5
3E06
 10
0.0
 20
0.0
 30
0.0
 70
   128
 71
   206
 72
   210
 73
   211
 74
   207
  0
VERTEX
  8
RK-DRAIN
  5
3E07
 10
0.0
 20
0.0
 30
0.0
 70
   128
 71
   208
 72
   212
 73
   213
 74
   209
  0
VERTEX
  8
RK-DRAIN
  5
3E08
 10
0.0
 20
0.0
 30
0.0
 70
   128
 71
   210
 72
   214
 73
   215
 74
   211
  0
VERTEX
  8
RK-DRAIN
  5
3E09
 10
0.0
 20
0.0
 30
0.0
 70
   128
 71
   212
 72
   216
 73
   217
 74
   213
  0
VERTEX
  8
RK-DRAIN
  5
3E0A
 10
0.0
 20
0.0
 30
0.0
 70
   128
 71
   214
 72
   218
 73
   219
 74
   215
  0
VERTEX
  8
RK-DRAIN
  5
3E0B
 10
0.0
 20
0.0
 30
0.0
 70
   128
 71
   216
 72
   220
 73
   221
 74
   217
  0
VERTEX
  8
RK-DRAIN
  5
3E0C
 10
0.0
 20
0.0
 30
0.0
 70
   128
 71
   218
 72
   222
 73
   223
 74
   219
  0
VERTEX
  8
RK-DRAIN
  5
3E0D
 10
0.0
 20
0.0
 30
0.0
 70
   128
 71
   220
 72
   224
 73
   225
 74
   221
  0
VERTEX
  8
RK-DRAIN
  5
3E0E
 10
0.0
 20
0.0
 30
0.0
 70
   128
 71
   222
 72
   226
 73
   227
 74
   223
  0
VERTEX
  8
RK-DRAIN
  5
3E0F
 10
0.0
 20
0.0
 30
0.0
 70
   128
 71
   224
 72
   228
 73
   229
 74
   225
  0
VERTEX
  8
RK-DRAIN
  5
3E10
 10
0.0
 20
0.0
 30
0.0
 70
   128
 71
   226
 72
   230
 73
   231
 74
   227
  0
VERTEX
  8
RK-DRAIN
  5
3E11
 10
0.0
 20
0.0
 30
0.0
 70
   128
 71
   228
 72
   232
 73
   233
 74
   229
  0
VERTEX
  8
RK-DRAIN
  5
3E12
 10
0.0
 20
0.0
 30
0.0
 70
   128
 71
   230
 72
   234
 73
   235
 74
   231
  0
VERTEX
  8
RK-DRAIN
  5
3E13
 10
0.0
 20
0.0
 30
0.0
 70
   128
 71
   232
 72
   236
 73
   237
 74
   233
  0
VERTEX
  8
RK-DRAIN
  5
3E14
 10
0.0
 20
0.0
 30
0.0
 70
   128
 71
   234
 72
   238
 73
   239
 74
   235
  0
VERTEX
  8
RK-DRAIN
  5
3E15
 10
0.0
 20
0.0
 30
0.0
 70
   128
 71
   236
 72
   240
 73
   241
 74
   237
  0
VERTEX
  8
RK-DRAIN
  5
3E16
 10
0.0
 20
0.0
 30
0.0
 70
   128
 71
   238
 72
   242
 73
   243
 74
   239
  0
VERTEX
  8
RK-DRAIN
  5
3E17
 10
0.0
 20
0.0
 30
0.0
 70
   128
 71
   240
 72
   244
 73
   245
 74
   241
  0
VERTEX
  8
RK-DRAIN
  5
3E18
 10
0.0
 20
0.0
 30
0.0
 70
   128
 71
   242
 72
   246
 73
   247
 74
   243
  0
VERTEX
  8
RK-DRAIN
  5
3E19
 10
0.0
 20
0.0
 30
0.0
 70
   128
 71
   244
 72
   248
 73
   249
 74
   245
  0
VERTEX
  8
RK-DRAIN
  5
3E1A
 10
0.0
 20
0.0
 30
0.0
 70
   128
 71
   246
 72
   250
 73
   251
 74
   247
  0
VERTEX
  8
RK-DRAIN
  5
3E1B
 10
0.0
 20
0.0
 30
0.0
 70
   128
 71
   248
 72
   252
 73
   253
 74
   249
  0
VERTEX
  8
RK-DRAIN
  5
3E1C
 10
0.0
 20
0.0
 30
0.0
 70
   128
 71
   250
 72
   254
 73
   255
 74
   251
  0
VERTEX
  8
RK-DRAIN
  5
3E1D
 10
0.0
 20
0.0
 30
0.0
 70
   128
 71
   252
 72
   256
 73
   257
 74
   253
  0
VERTEX
  8
RK-DRAIN
  5
3E1E
 10
0.0
 20
0.0
 30
0.0
 70
   128
 71
   254
 72
   258
 73
   259
 74
   255
  0
VERTEX
  8
RK-DRAIN
  5
3E1F
 10
0.0
 20
0.0
 30
0.0
 70
   128
 71
   256
 72
   260
 73
   261
 74
   257
  0
VERTEX
  8
RK-DRAIN
  5
3E20
 10
0.0
 20
0.0
 30
0.0
 70
   128
 71
   258
 72
   262
 73
   263
 74
   259
  0
VERTEX
  8
RK-DRAIN
  5
3E21
 10
0.0
 20
0.0
 30
0.0
 70
   128
 71
   260
 72
   264
 73
   265
 74
   261
  0
VERTEX
  8
RK-DRAIN
  5
3E22
 10
0.0
 20
0.0
 30
0.0
 70
   128
 71
   262
 72
   266
 73
   267
 74
   263
  0
VERTEX
  8
RK-DRAIN
  5
3E23
 10
0.0
 20
0.0
 30
0.0
 70
   128
 71
   264
 72
   268
 73
   269
 74
   265
  0
VERTEX
  8
RK-DRAIN
  5
3E24
 10
0.0
 20
0.0
 30
0.0
 70
   128
 71
   266
 72
   270
 73
   271
 74
   267
  0
VERTEX
  8
RK-DRAIN
  5
3E25
 10
0.0
 20
0.0
 30
0.0
 70
   128
 71
   268
 72
   272
 73
   273
 74
   269
  0
VERTEX
  8
RK-DRAIN
  5
3E26
 10
0.0
 20
0.0
 30
0.0
 70
   128
 71
   270
 72
   274
 73
   275
 74
   271
  0
VERTEX
  8
RK-DRAIN
  5
3E27
 10
0.0
 20
0.0
 30
0.0
 70
   128
 71
   272
 72
   276
 73
   277
 74
   273
  0
VERTEX
  8
RK-DRAIN
  5
3E28
 10
0.0
 20
0.0
 30
0.0
 70
   128
 71
   274
 72
   278
 73
   279
 74
   275
  0
VERTEX
  8
RK-DRAIN
  5
3E29
 10
0.0
 20
0.0
 30
0.0
 70
   128
 71
   276
 72
   280
 73
   281
 74
   277
  0
VERTEX
  8
RK-DRAIN
  5
3E2A
 10
0.0
 20
0.0
 30
0.0
 70
   128
 71
   278
 72
   282
 73
   283
 74
   279
  0
VERTEX
  8
RK-DRAIN
  5
3E2B
 10
0.0
 20
0.0
 30
0.0
 70
   128
 71
   280
 72
   284
 73
   285
 74
   281
  0
VERTEX
  8
RK-DRAIN
  5
3E2C
 10
0.0
 20
0.0
 30
0.0
 70
   128
 71
   282
 72
   286
 73
   287
 74
   283
  0
VERTEX
  8
RK-DRAIN
  5
3E2D
 10
0.0
 20
0.0
 30
0.0
 70
   128
 71
   284
 72
   288
 73
   289
 74
   285
  0
VERTEX
  8
RK-DRAIN
  5
3E2E
 10
0.0
 20
0.0
 30
0.0
 70
   128
 71
   286
 72
   195
 73
   194
 74
   287
  0
VERTEX
  8
RK-DRAIN
  5
3E2F
 10
0.0
 20
0.0
 30
0.0
 70
   128
 71
   288
 72
   199
 73
   198
 74
   289
  0
VERTEX
  8
RK-DRAIN
  5
3E30
 10
0.0
 20
0.0
 30
0.0
 70
   128
 71
   253
 72
  -257
 73
   254
 74
  -250
  0
VERTEX
  8
RK-DRAIN
  5
3E31
 10
0.0
 20
0.0
 30
0.0
 70
   128
 71
   257
 72
  -261
 73
   258
 74
  -254
  0
VERTEX
  8
RK-DRAIN
  5
3E32
 10
0.0
 20
0.0
 30
0.0
 70
   128
 71
   261
 72
  -265
 73
   262
 74
  -258
  0
VERTEX
  8
RK-DRAIN
  5
3E33
 10
0.0
 20
0.0
 30
0.0
 70
   128
 71
   265
 72
  -269
 73
   266
 74
  -262
  0
VERTEX
  8
RK-DRAIN
  5
3E34
 10
0.0
 20
0.0
 30
0.0
 70
   128
 71
   269
 72
  -273
 73
   270
 74
  -266
  0
VERTEX
  8
RK-DRAIN
  5
3E35
 10
0.0
 20
0.0
 30
0.0
 70
   128
 71
   273
 72
  -277
 73
   274
 74
  -270
  0
VERTEX
  8
RK-DRAIN
  5
3E36
 10
0.0
 20
0.0
 30
0.0
 70
   128
 71
   277
 72
  -281
 73
   278
 74
  -274
  0
VERTEX
  8
RK-DRAIN
  5
3E37
 10
0.0
 20
0.0
 30
0.0
 70
   128
 71
   281
 72
  -285
 73
   282
 74
  -278
  0
VERTEX
  8
RK-DRAIN
  5
3E38
 10
0.0
 20
0.0
 30
0.0
 70
   128
 71
   198
 72
  -201
 73
   196
 74
  -195
  0
VERTEX
  8
RK-DRAIN
  5
3E39
 10
0.0
 20
0.0
 30
0.0
 70
   128
 71
   201
 72
  -205
 73
   202
 74
  -196
  0
VERTEX
  8
RK-DRAIN
  5
3E3A
 10
0.0
 20
0.0
 30
0.0
 70
   128
 71
   205
 72
  -209
 73
   206
 74
  -202
  0
VERTEX
  8
RK-DRAIN
  5
3E3B
 10
0.0
 20
0.0
 30
0.0
 70
   128
 71
   209
 72
  -213
 73
   210
 74
  -206
  0
VERTEX
  8
RK-DRAIN
  5
3E3C
 10
0.0
 20
0.0
 30
0.0
 70
   128
 71
   213
 72
  -217
 73
   214
 74
  -210
  0
VERTEX
  8
RK-DRAIN
  5
3E3D
 10
0.0
 20
0.0
 30
0.0
 70
   128
 71
   285
 72
  -289
 73
   286
 74
  -282
  0
VERTEX
  8
RK-DRAIN
  5
3E3E
 10
0.0
 20
0.0
 30
0.0
 70
   128
 71
   289
 72
  -198
 73
   195
 74
  -286
  0
VERTEX
  8
RK-DRAIN
  5
3E3F
 10
0.0
 20
0.0
 30
0.0
 70
   128
 71
   217
 72
  -221
 73
   218
 74
  -214
  0
VERTEX
  8
RK-DRAIN
  5
3E40
 10
0.0
 20
0.0
 30
0.0
 70
   128
 71
   221
 72
  -225
 73
   222
 74
  -218
  0
VERTEX
  8
RK-DRAIN
  5
3E41
 10
0.0
 20
0.0
 30
0.0
 70
   128
 71
   225
 72
  -229
 73
   226
 74
  -222
  0
VERTEX
  8
RK-DRAIN
  5
3E42
 10
0.0
 20
0.0
 30
0.0
 70
   128
 71
   229
 72
  -233
 73
   230
 74
  -226
  0
VERTEX
  8
RK-DRAIN
  5
3E43
 10
0.0
 20
0.0
 30
0.0
 70
   128
 71
   233
 72
  -237
 73
   234
 74
  -230
  0
VERTEX
  8
RK-DRAIN
  5
3E44
 10
0.0
 20
0.0
 30
0.0
 70
   128
 71
   237
 72
  -241
 73
   238
 74
  -234
  0
VERTEX
  8
RK-DRAIN
  5
3E45
 10
0.0
 20
0.0
 30
0.0
 70
   128
 71
   241
 72
  -245
 73
   242
 74
  -238
  0
VERTEX
  8
RK-DRAIN
  5
3E46
 10
0.0
 20
0.0
 30
0.0
 70
   128
 71
   245
 72
  -249
 73
   246
 74
  -242
  0
VERTEX
  8
RK-DRAIN
  5
3E47
 10
0.0
 20
0.0
 30
0.0
 70
   128
 71
   249
 72
  -253
 73
   250
 74
  -246
  0
VERTEX
  8
RK-DRAIN
  5
3E48
 10
0.0
 20
0.0
 30
0.0
 70
   128
 71
   290
 72
  -291
 73
   252
 74
  -248
  0
VERTEX
  8
RK-DRAIN
  5
3E49
 10
0.0
 20
0.0
 30
0.0
 70
   128
 71
   292
 72
   293
 73
   291
 74
   290
  0
VERTEX
  8
RK-DRAIN
  5
3E4A
 10
0.0
 20
0.0
 30
0.0
 70
   128
 71
   291
 72
  -294
 73
   256
 74
  -252
  0
VERTEX
  8
RK-DRAIN
  5
3E4B
 10
0.0
 20
0.0
 30
0.0
 70
   128
 71
   295
 72
  -296
 73
   284
 74
  -280
  0
VERTEX
  8
RK-DRAIN
  5
3E4C
 10
0.0
 20
0.0
 30
0.0
 70
   128
 71
   296
 72
  -297
 73
   288
 74
  -284
  0
VERTEX
  8
RK-DRAIN
  5
3E4D
 10
0.0
 20
0.0
 30
0.0
 70
   128
 71
   298
 72
   299
 73
   297
 74
   296
  0
VERTEX
  8
RK-DRAIN
  5
3E4E
 10
0.0
 20
0.0
 30
0.0
 70
   128
 71
   300
 72
  -301
 73
   276
 74
  -272
  0
VERTEX
  8
RK-DRAIN
  5
3E4F
 10
0.0
 20
0.0
 30
0.0
 70
   128
 71
   302
 72
   303
 73
   301
 74
   300
  0
VERTEX
  8
RK-DRAIN
  5
3E50
 10
0.0
 20
0.0
 30
0.0
 70
   128
 71
   293
 72
   304
 73
   294
 74
   291
  0
VERTEX
  8
RK-DRAIN
  5
3E51
 10
0.0
 20
0.0
 30
0.0
 70
   128
 71
   304
 72
   305
 73
   306
 74
   294
  0
VERTEX
  8
RK-DRAIN
  5
3E52
 10
0.0
 20
0.0
 30
0.0
 70
   128
 71
   305
 72
   307
 73
   308
 74
   306
  0
VERTEX
  8
RK-DRAIN
  5
3E53
 10
0.0
 20
0.0
 30
0.0
 70
   128
 71
   307
 72
   309
 73
   310
 74
   308
  0
VERTEX
  8
RK-DRAIN
  5
3E54
 10
0.0
 20
0.0
 30
0.0
 70
   128
 71
   309
 72
   302
 73
   300
 74
   310
  0
VERTEX
  8
RK-DRAIN
  5
3E55
 10
0.0
 20
0.0
 30
0.0
 70
   128
 71
   306
 72
  -308
 73
   264
 74
  -260
  0
VERTEX
  8
RK-DRAIN
  5
3E56
 10
0.0
 20
0.0
 30
0.0
 70
   128
 71
   308
 72
  -310
 73
   268
 74
  -264
  0
VERTEX
  8
RK-DRAIN
  5
3E57
 10
0.0
 20
0.0
 30
0.0
 70
   128
 71
   294
 72
  -306
 73
   260
 74
  -256
  0
VERTEX
  8
RK-DRAIN
  5
3E58
 10
0.0
 20
0.0
 30
0.0
 70
   128
 71
   310
 72
  -300
 73
   272
 74
  -268
  0
VERTEX
  8
RK-DRAIN
  5
3E59
 10
0.0
 20
0.0
 30
0.0
 70
   128
 71
   303
 72
   311
 73
   295
 74
   301
  0
VERTEX
  8
RK-DRAIN
  5
3E5A
 10
0.0
 20
0.0
 30
0.0
 70
   128
 71
   311
 72
   298
 73
   296
 74
   295
  0
VERTEX
  8
RK-DRAIN
  5
3E5B
 10
0.0
 20
0.0
 30
0.0
 70
   128
 71
   301
 72
  -295
 73
   280
 74
  -276
  0
VERTEX
  8
RK-DRAIN
  5
3E5C
 10
0.0
 20
0.0
 30
0.0
 70
   128
 71
   312
 72
  -313
 73
   216
 74
  -212
  0
VERTEX
  8
RK-DRAIN
  5
3E5D
 10
0.0
 20
0.0
 30
0.0
 70
   128
 71
   314
 72
   315
 73
   313
 74
   312
  0
VERTEX
  8
RK-DRAIN
  5
3E5E
 10
0.0
 20
0.0
 30
0.0
 70
   128
 71
   316
 72
  -317
 73
   228
 74
  -224
  0
VERTEX
  8
RK-DRAIN
  5
3E5F
 10
0.0
 20
0.0
 30
0.0
 70
   128
 71
   317
 72
  -318
 73
   232
 74
  -228
  0
VERTEX
  8
RK-DRAIN
  5
3E60
 10
0.0
 20
0.0
 30
0.0
 70
   128
 71
   319
 72
   320
 73
   318
 74
   317
  0
VERTEX
  8
RK-DRAIN
  5
3E61
 10
0.0
 20
0.0
 30
0.0
 70
   128
 71
   322
 72
   323
 73
   324
 74
   321
  0
VERTEX
  8
RK-DRAIN
  5
3E62
 10
0.0
 20
0.0
 30
0.0
 70
   128
 71
   323
 72
   325
 73
   326
 74
   324
  0
VERTEX
  8
RK-DRAIN
  5
3E63
 10
0.0
 20
0.0
 30
0.0
 70
   128
 71
   325
 72
   327
 73
   328
 74
   326
  0
VERTEX
  8
RK-DRAIN
  5
3E64
 10
0.0
 20
0.0
 30
0.0
 70
   128
 71
   327
 72
   329
 73
   330
 74
   328
  0
VERTEX
  8
RK-DRAIN
  5
3E65
 10
0.0
 20
0.0
 30
0.0
 70
   128
 71
   329
 72
   331
 73
   332
 74
   330
  0
VERTEX
  8
RK-DRAIN
  5
3E66
 10
0.0
 20
0.0
 30
0.0
 70
   128
 71
   331
 72
   333
 73
   334
 74
   332
  0
VERTEX
  8
RK-DRAIN
  5
3E67
 10
0.0
 20
0.0
 30
0.0
 70
   128
 71
   333
 72
   335
 73
   336
 74
   334
  0
VERTEX
  8
RK-DRAIN
  5
3E68
 10
0.0
 20
0.0
 30
0.0
 70
   128
 71
   335
 72
   337
 73
   338
 74
   336
  0
VERTEX
  8
RK-DRAIN
  5
3E69
 10
0.0
 20
0.0
 30
0.0
 70
   128
 71
   337
 72
   339
 73
   340
 74
   338
  0
VERTEX
  8
RK-DRAIN
  5
3E6A
 10
0.0
 20
0.0
 30
0.0
 70
   128
 71
   339
 72
   341
 73
   342
 74
   340
  0
VERTEX
  8
RK-DRAIN
  5
3E6B
 10
0.0
 20
0.0
 30
0.0
 70
   128
 71
   341
 72
   343
 73
   344
 74
   342
  0
VERTEX
  8
RK-DRAIN
  5
3E6C
 10
0.0
 20
0.0
 30
0.0
 70
   128
 71
   343
 72
   345
 73
   346
 74
   344
  0
VERTEX
  8
RK-DRAIN
  5
3E6D
 10
0.0
 20
0.0
 30
0.0
 70
   128
 71
   345
 72
   347
 73
   348
 74
   346
  0
VERTEX
  8
RK-DRAIN
  5
3E6E
 10
0.0
 20
0.0
 30
0.0
 70
   128
 71
   347
 72
   349
 73
   350
 74
   348
  0
VERTEX
  8
RK-DRAIN
  5
3E6F
 10
0.0
 20
0.0
 30
0.0
 70
   128
 71
   349
 72
   351
 73
   352
 74
   350
  0
VERTEX
  8
RK-DRAIN
  5
3E70
 10
0.0
 20
0.0
 30
0.0
 70
   128
 71
   351
 72
   353
 73
   354
 74
   352
  0
VERTEX
  8
RK-DRAIN
  5
3E71
 10
0.0
 20
0.0
 30
0.0
 70
   128
 71
   353
 72
   355
 73
   356
 74
   354
  0
VERTEX
  8
RK-DRAIN
  5
3E72
 10
0.0
 20
0.0
 30
0.0
 70
   128
 71
   355
 72
   357
 73
   358
 74
   356
  0
VERTEX
  8
RK-DRAIN
  5
3E73
 10
0.0
 20
0.0
 30
0.0
 70
   128
 71
   357
 72
   359
 73
   360
 74
   358
  0
VERTEX
  8
RK-DRAIN
  5
3E74
 10
0.0
 20
0.0
 30
0.0
 70
   128
 71
   359
 72
   361
 73
   362
 74
   360
  0
VERTEX
  8
RK-DRAIN
  5
3E75
 10
0.0
 20
0.0
 30
0.0
 70
   128
 71
   361
 72
   363
 73
   364
 74
   362
  0
VERTEX
  8
RK-DRAIN
  5
3E76
 10
0.0
 20
0.0
 30
0.0
 70
   128
 71
   363
 72
   365
 73
   366
 74
   364
  0
VERTEX
  8
RK-DRAIN
  5
3E77
 10
0.0
 20
0.0
 30
0.0
 70
   128
 71
   365
 72
   367
 73
   368
 74
   366
  0
VERTEX
  8
RK-DRAIN
  5
3E78
 10
0.0
 20
0.0
 30
0.0
 70
   128
 71
   367
 72
   322
 73
   321
 74
   368
  0
VERTEX
  8
RK-DRAIN
  5
3E79
 10
0.0
 20
0.0
 30
0.0
 70
   128
 71
   197
 72
  -203
 73
   325
 74
  -323
  0
VERTEX
  8
RK-DRAIN
  5
3E7A
 10
0.0
 20
0.0
 30
0.0
 70
   128
 71
   203
 72
  -207
 73
   327
 74
  -325
  0
VERTEX
  8
RK-DRAIN
  5
3E7B
 10
0.0
 20
0.0
 30
0.0
 70
   128
 71
   207
 72
  -211
 73
   329
 74
  -327
  0
VERTEX
  8
RK-DRAIN
  5
3E7C
 10
0.0
 20
0.0
 30
0.0
 70
   128
 71
   211
 72
  -215
 73
   331
 74
  -329
  0
VERTEX
  8
RK-DRAIN
  5
3E7D
 10
0.0
 20
0.0
 30
0.0
 70
   128
 71
   271
 72
  -275
 73
   361
 74
  -359
  0
VERTEX
  8
RK-DRAIN
  5
3E7E
 10
0.0
 20
0.0
 30
0.0
 70
   128
 71
   275
 72
  -279
 73
   363
 74
  -361
  0
VERTEX
  8
RK-DRAIN
  5
3E7F
 10
0.0
 20
0.0
 30
0.0
 70
   128
 71
   279
 72
  -283
 73
   365
 74
  -363
  0
VERTEX
  8
RK-DRAIN
  5
3E80
 10
0.0
 20
0.0
 30
0.0
 70
   128
 71
   283
 72
  -287
 73
   367
 74
  -365
  0
VERTEX
  8
RK-DRAIN
  5
3E81
 10
0.0
 20
0.0
 30
0.0
 70
   128
 71
   247
 72
  -251
 73
   349
 74
  -347
  0
VERTEX
  8
RK-DRAIN
  5
3E82
 10
0.0
 20
0.0
 30
0.0
 70
   128
 71
   251
 72
  -255
 73
   351
 74
  -349
  0
VERTEX
  8
RK-DRAIN
  5
3E83
 10
0.0
 20
0.0
 30
0.0
 70
   128
 71
   263
 72
  -267
 73
   357
 74
  -355
  0
VERTEX
  8
RK-DRAIN
  5
3E84
 10
0.0
 20
0.0
 30
0.0
 70
   128
 71
   267
 72
  -271
 73
   359
 74
  -357
  0
VERTEX
  8
RK-DRAIN
  5
3E85
 10
0.0
 20
0.0
 30
0.0
 70
   128
 71
   259
 72
  -263
 73
   355
 74
  -353
  0
VERTEX
  8
RK-DRAIN
  5
3E86
 10
0.0
 20
0.0
 30
0.0
 70
   128
 71
   255
 72
  -259
 73
   353
 74
  -351
  0
VERTEX
  8
RK-DRAIN
  5
3E87
 10
0.0
 20
0.0
 30
0.0
 70
   128
 71
   231
 72
  -235
 73
   341
 74
  -339
  0
VERTEX
  8
RK-DRAIN
  5
3E88
 10
0.0
 20
0.0
 30
0.0
 70
   128
 71
   235
 72
  -239
 73
   343
 74
  -341
  0
VERTEX
  8
RK-DRAIN
  5
3E89
 10
0.0
 20
0.0
 30
0.0
 70
   128
 71
   239
 72
  -243
 73
   345
 74
  -343
  0
VERTEX
  8
RK-DRAIN
  5
3E8A
 10
0.0
 20
0.0
 30
0.0
 70
   128
 71
   243
 72
  -247
 73
   347
 74
  -345
  0
VERTEX
  8
RK-DRAIN
  5
3E8B
 10
0.0
 20
0.0
 30
0.0
 70
   128
 71
   227
 72
  -231
 73
   339
 74
  -337
  0
VERTEX
  8
RK-DRAIN
  5
3E8C
 10
0.0
 20
0.0
 30
0.0
 70
   128
 71
   219
 72
  -223
 73
   335
 74
  -333
  0
VERTEX
  8
RK-DRAIN
  5
3E8D
 10
0.0
 20
0.0
 30
0.0
 70
   128
 71
   223
 72
  -227
 73
   337
 74
  -335
  0
VERTEX
  8
RK-DRAIN
  5
3E8E
 10
0.0
 20
0.0
 30
0.0
 70
   128
 71
   215
 72
  -219
 73
   333
 74
  -331
  0
VERTEX
  8
RK-DRAIN
  5
3E8F
 10
0.0
 20
0.0
 30
0.0
 70
   128
 71
   194
 72
  -197
 73
   323
 74
  -322
  0
VERTEX
  8
RK-DRAIN
  5
3E90
 10
0.0
 20
0.0
 30
0.0
 70
   128
 71
   287
 72
  -194
 73
   322
 74
  -367
  0
VERTEX
  8
RK-DRAIN
  5
3E91
 10
0.0
 20
0.0
 30
0.0
 70
   128
 71
  -369
 72
   321
 73
  -324
  0
VERTEX
  8
RK-DRAIN
  5
3E92
 10
0.0
 20
0.0
 30
0.0
 70
   128
 71
  -369
 72
   324
 73
  -326
  0
VERTEX
  8
RK-DRAIN
  5
3E93
 10
0.0
 20
0.0
 30
0.0
 70
   128
 71
  -369
 72
   326
 73
  -328
  0
VERTEX
  8
RK-DRAIN
  5
3E94
 10
0.0
 20
0.0
 30
0.0
 70
   128
 71
  -369
 72
   328
 73
  -330
  0
VERTEX
  8
RK-DRAIN
  5
3E95
 10
0.0
 20
0.0
 30
0.0
 70
   128
 71
  -369
 72
   330
 73
  -332
  0
VERTEX
  8
RK-DRAIN
  5
3E96
 10
0.0
 20
0.0
 30
0.0
 70
   128
 71
  -369
 72
   360
 73
  -362
  0
VERTEX
  8
RK-DRAIN
  5
3E97
 10
0.0
 20
0.0
 30
0.0
 70
   128
 71
  -369
 72
   362
 73
  -364
  0
VERTEX
  8
RK-DRAIN
  5
3E98
 10
0.0
 20
0.0
 30
0.0
 70
   128
 71
  -369
 72
   364
 73
  -366
  0
VERTEX
  8
RK-DRAIN
  5
3E99
 10
0.0
 20
0.0
 30
0.0
 70
   128
 71
  -369
 72
   366
 73
  -368
  0
VERTEX
  8
RK-DRAIN
  5
3E9A
 10
0.0
 20
0.0
 30
0.0
 70
   128
 71
  -369
 72
   368
 73
  -321
  0
VERTEX
  8
RK-DRAIN
  5
3E9B
 10
0.0
 20
0.0
 30
0.0
 70
   128
 71
  -369
 72
   348
 73
  -350
  0
VERTEX
  8
RK-DRAIN
  5
3E9C
 10
0.0
 20
0.0
 30
0.0
 70
   128
 71
  -369
 72
   350
 73
  -352
  0
VERTEX
  8
RK-DRAIN
  5
3E9D
 10
0.0
 20
0.0
 30
0.0
 70
   128
 71
  -369
 72
   352
 73
  -354
  0
VERTEX
  8
RK-DRAIN
  5
3E9E
 10
0.0
 20
0.0
 30
0.0
 70
   128
 71
  -369
 72
   354
 73
  -356
  0
VERTEX
  8
RK-DRAIN
  5
3E9F
 10
0.0
 20
0.0
 30
0.0
 70
   128
 71
  -369
 72
   356
 73
  -358
  0
VERTEX
  8
RK-DRAIN
  5
3EA0
 10
0.0
 20
0.0
 30
0.0
 70
   128
 71
  -369
 72
   358
 73
  -360
  0
VERTEX
  8
RK-DRAIN
  5
3EA1
 10
0.0
 20
0.0
 30
0.0
 70
   128
 71
  -369
 72
   340
 73
  -342
  0
VERTEX
  8
RK-DRAIN
  5
3EA2
 10
0.0
 20
0.0
 30
0.0
 70
   128
 71
  -369
 72
   342
 73
  -344
  0
VERTEX
  8
RK-DRAIN
  5
3EA3
 10
0.0
 20
0.0
 30
0.0
 70
   128
 71
  -369
 72
   344
 73
  -346
  0
VERTEX
  8
RK-DRAIN
  5
3EA4
 10
0.0
 20
0.0
 30
0.0
 70
   128
 71
  -369
 72
   346
 73
  -348
  0
VERTEX
  8
RK-DRAIN
  5
3EA5
 10
0.0
 20
0.0
 30
0.0
 70
   128
 71
  -369
 72
   332
 73
  -334
  0
VERTEX
  8
RK-DRAIN
  5
3EA6
 10
0.0
 20
0.0
 30
0.0
 70
   128
 71
  -369
 72
   334
 73
  -336
  0
VERTEX
  8
RK-DRAIN
  5
3EA7
 10
0.0
 20
0.0
 30
0.0
 70
   128
 71
  -369
 72
   336
 73
  -338
  0
VERTEX
  8
RK-DRAIN
  5
3EA8
 10
0.0
 20
0.0
 30
0.0
 70
   128
 71
  -369
 72
   338
 73
  -340
  0
VERTEX
  8
RK-DRAIN
  5
3EA9
 10
0.0
 20
0.0
 30
0.0
 70
   128
 71
   318
 72
  -370
 73
   236
 74
  -232
  0
VERTEX
  8
RK-DRAIN
  5
3EAA
 10
0.0
 20
0.0
 30
0.0
 70
   128
 71
   320
 72
   371
 73
   370
 74
   318
  0
VERTEX
  8
RK-DRAIN
  5
3EAB
 10
0.0
 20
0.0
 30
0.0
 70
   128
 71
   370
 72
  -372
 73
   240
 74
  -236
  0
VERTEX
  8
RK-DRAIN
  5
3EAC
 10
0.0
 20
0.0
 30
0.0
 70
   128
 71
   372
 72
  -373
 73
   244
 74
  -240
  0
VERTEX
  8
RK-DRAIN
  5
3EAD
 10
0.0
 20
0.0
 30
0.0
 70
   128
 71
   373
 72
  -290
 73
   248
 74
  -244
  0
VERTEX
  8
RK-DRAIN
  5
3EAE
 10
0.0
 20
0.0
 30
0.0
 70
   128
 71
   374
 72
   375
 73
   373
 74
   372
  0
VERTEX
  8
RK-DRAIN
  5
3EAF
 10
0.0
 20
0.0
 30
0.0
 70
   128
 71
   375
 72
   292
 73
   290
 74
   373
  0
VERTEX
  8
RK-DRAIN
  5
3EB0
 10
0.0
 20
0.0
 30
0.0
 70
   128
 71
   371
 72
   374
 73
   372
 74
   370
  0
VERTEX
  8
RK-DRAIN
  5
3EB1
 10
0.0
 20
0.0
 30
0.0
 70
   128
 71
   315
 72
   376
 73
   377
 74
   313
  0
VERTEX
  8
RK-DRAIN
  5
3EB2
 10
0.0
 20
0.0
 30
0.0
 70
   128
 71
   376
 72
   378
 73
   316
 74
   377
  0
VERTEX
  8
RK-DRAIN
  5
3EB3
 10
0.0
 20
0.0
 30
0.0
 70
   128
 71
   378
 72
   319
 73
   317
 74
   316
  0
VERTEX
  8
RK-DRAIN
  5
3EB4
 10
0.0
 20
0.0
 30
0.0
 70
   128
 71
   377
 72
  -316
 73
   224
 74
  -220
  0
VERTEX
  8
RK-DRAIN
  5
3EB5
 10
0.0
 20
0.0
 30
0.0
 70
   128
 71
   313
 72
  -377
 73
   220
 74
  -216
  0
VERTEX
  8
RK-DRAIN
  5
3EB6
 10
0.0
 20
0.0
 30
0.0
 70
   128
 71
   379
 72
  -312
 73
   212
 74
  -208
  0
VERTEX
  8
RK-DRAIN
  5
3EB7
 10
0.0
 20
0.0
 30
0.0
 70
   128
 71
   380
 72
   314
 73
   312
 74
   379
  0
VERTEX
  8
RK-DRAIN
  5
3EB8
 10
0.0
 20
0.0
 30
0.0
 70
   128
 71
   381
 72
  -382
 73
   200
 74
  -199
  0
VERTEX
  8
RK-DRAIN
  5
3EB9
 10
0.0
 20
0.0
 30
0.0
 70
   128
 71
   383
 72
   384
 73
   382
 74
   381
  0
VERTEX
  8
RK-DRAIN
  5
3EBA
 10
0.0
 20
0.0
 30
0.0
 70
   128
 71
   299
 72
   383
 73
   381
 74
   297
  0
VERTEX
  8
RK-DRAIN
  5
3EBB
 10
0.0
 20
0.0
 30
0.0
 70
   128
 71
   297
 72
  -381
 73
   199
 74
  -288
  0
VERTEX
  8
RK-DRAIN
  5
3EBC
 10
0.0
 20
0.0
 30
0.0
 70
   128
 71
   384
 72
   385
 73
   386
 74
   382
  0
VERTEX
  8
RK-DRAIN
  5
3EBD
 10
0.0
 20
0.0
 30
0.0
 70
   128
 71
   385
 72
   380
 73
   379
 74
   386
  0
VERTEX
  8
RK-DRAIN
  5
3EBE
 10
0.0
 20
0.0
 30
0.0
 70
   128
 71
   382
 72
  -386
 73
   204
 74
  -200
  0
VERTEX
  8
RK-DRAIN
  5
3EBF
 10
0.0
 20
0.0
 30
0.0
 70
   128
 71
   386
 72
  -379
 73
   208
 74
  -204
  0
SEQEND
  8
RK-DRAIN
  5
3EC0
  0
INSERT
  8
0
  5
3EC1
  2
05949PLN
 10
-0.0000776441051045
 20
-20.99294927813179
 30
8.679999999999999
  0
LINE
  8
RK-DRAIN
  5
3EC2
 10
24.0
 20
-9.625000000000003
 30
0.75
 11
24.0
 21
-9.750000000000003
 31
0.75
  0
LINE
  8
RK-DRAIN
  5
3EC3
 10
8.0
 20
-9.625000000000003
 30
0.75
 11
8.0
 21
-9.750000000000003
 31
0.75
  0
ENDSEC
  0
EOF
