  0
SECTION
  2
HEADER
  9
$ACADVER
  1
AC1009
  9
$INSBASE
 10
74.705206702105343
 20
-46.2522489925
 30
0.0
  9
$EXTMIN
 10
56.700165771099996
 20
-46.261996378943401
 30
0.0
  9
$EXTMAX
 10
92.704687870000015
 20
-22.267235713688319
 30
0.0
  9
$LIMMIN
 10
0.0
 20
0.0
  9
$LIMMAX
 10
22.0
 20
17.0
  9
$ORTHOMODE
 70
     0
  9
$REGENMODE
 70
     1
  9
$FILLMODE
 70
     1
  9
$QTEXTMODE
 70
     0
  9
$MIRRTEXT
 70
     0
  9
$DRAGMODE
 70
     2
  9
$LTSCALE
 40
1.2099999999999991
  9
$OSMODE
 70
    47
  9
$ATTMODE
 70
     1
  9
$TEXTSIZE
 40
0.2
  9
$TRACEWID
 40
0.05
  9
$TEXTSTYLE
  7
STANDARD
  9
$CLAYER
  8
0
  9
$CELTYPE
  6
BYLAYER
  9
$CECOLOR
 62
   256
  9
$DIMSCALE
 40
1.0
  9
$DIMASZ
 40
0.1875
  9
$DIMEXO
 40
0.0625
  9
$DIMDLI
 40
0.8359999999999999
  9
$DIMRND
 40
0.0
  9
$DIMDLE
 40
0.0
  9
$DIMEXE
 40
0.125
  9
$DIMTP
 40
0.0
  9
$DIMTM
 40
0.0
  9
$DIMTXT
 40
0.15625
  9
$DIMCEN
 40
0.198
  9
$DIMTSZ
 40
0.0
  9
$DIMTOL
 70
     0
  9
$DIMLIM
 70
     0
  9
$DIMTIH
 70
     1
  9
$DIMTOH
 70
     1
  9
$DIMSE1
 70
     0
  9
$DIMSE2
 70
     0
  9
$DIMTAD
 70
     0
  9
$DIMZIN
 70
     0
  9
$DIMBLK
  1

  9
$DIMASO
 70
     1
  9
$DIMSHO
 70
     1
  9
$DIMPOST
  1

  9
$DIMAPOST
  1

  9
$DIMALT
 70
     0
  9
$DIMALTD
 70
     2
  9
$DIMALTF
 40
25.399999999999999
  9
$DIMLFAC
 40
1.0
  9
$DIMTOFL
 70
     0
  9
$DIMTVP
 40
0.0
  9
$DIMTIX
 70
     0
  9
$DIMSOXD
 70
     0
  9
$DIMSAH
 70
     0
  9
$DIMBLK1
  1

  9
$DIMBLK2
  1

  9
$DIMSTYLE
  2
STANDARD
  9
$DIMCLRD
 70
     0
  9
$DIMCLRE
 70
     0
  9
$DIMCLRT
 70
     0
  9
$DIMTFAC
 40
1.0
  9
$DIMGAP
 40
0.09
  9
$LUNITS
 70
     2
  9
$LUPREC
 70
     4
  9
$SKETCHINC
 40
0.1
  9
$FILLETRAD
 40
0.0
  9
$AUNITS
 70
     0
  9
$AUPREC
 70
     0
  9
$MENU
  1
.
  9
$ELEVATION
 40
0.0
  9
$PELEVATION
 40
0.0
  9
$THICKNESS
 40
0.0
  9
$LIMCHECK
 70
     0
  9
$BLIPMODE
 70
     0
  9
$CHAMFERA
 40
0.0
  9
$CHAMFERB
 40
0.0
  9
$SKPOLY
 70
     0
  9
$TDCREATE
 40
2457354.5048670722
  9
$TDUPDATE
 40
2457428.6428858102
  9
$TDINDWG
 40
0.1018945602
  9
$TDUSRTIMER
 40
0.1018945602
  9
$USRTIMER
 70
     1
  9
$ANGBASE
 50
0.0
  9
$ANGDIR
 70
     0
  9
$PDMODE
 70
     0
  9
$PDSIZE
 40
0.3125
  9
$PLINEWID
 40
0.0
  9
$COORDS
 70
     0
  9
$SPLFRAME
 70
     0
  9
$SPLINETYPE
 70
     6
  9
$SPLINESEGS
 70
     8
  9
$ATTDIA
 70
     1
  9
$ATTREQ
 70
     1
  9
$HANDLING
 70
     1
  9
$HANDSEED
  5
914
  9
$SURFTAB1
 70
     6
  9
$SURFTAB2
 70
     6
  9
$SURFTYPE
 70
     6
  9
$SURFU
 70
     6
  9
$SURFV
 70
     6
  9
$UCSNAME
  2

  9
$UCSORG
 10
0.0
 20
0.0
 30
0.0
  9
$UCSXDIR
 10
1.0
 20
0.0
 30
0.0
  9
$UCSYDIR
 10
0.0
 20
1.0
 30
0.0
  9
$PUCSNAME
  2

  9
$PUCSORG
 10
0.0
 20
0.0
 30
0.0
  9
$PUCSXDIR
 10
1.0
 20
0.0
 30
0.0
  9
$PUCSYDIR
 10
0.0
 20
1.0
 30
0.0
  9
$USERI1
 70
     0
  9
$USERI2
 70
     0
  9
$USERI3
 70
     0
  9
$USERI4
 70
     0
  9
$USERI5
 70
     0
  9
$USERR1
 40
0.0
  9
$USERR2
 40
0.0
  9
$USERR3
 40
0.0
  9
$USERR4
 40
0.0
  9
$USERR5
 40
0.0
  9
$WORLDVIEW
 70
     1
  9
$SHADEDGE
 70
     3
  9
$SHADEDIF
 70
    70
  9
$TILEMODE
 70
     1
  9
$MAXACTVP
 70
    48
  9
$PLIMCHECK
 70
     0
  9
$PEXTMIN
 10
1.0000000000000000E+020
 20
1.0000000000000000E+020
 30
1.0000000000000000E+020
  9
$PEXTMAX
 10
-1.0000000000000000E+020
 20
-1.0000000000000000E+020
 30
-1.0000000000000000E+020
  9
$PLIMMIN
 10
0.0
 20
0.0
  9
$PLIMMAX
 10
12.0
 20
9.0
  9
$UNITMODE
 70
     0
  9
$VISRETAIN
 70
     1
  9
$PLINEGEN
 70
     0
  9
$PSLTSCALE
 70
     1
  0
ENDSEC
  0
SECTION
  2
TABLES
  0
TABLE
  2
VPORT
 70
     1
  0
VPORT
  2
*ACTIVE
 70
     0
 10
0.0
 20
0.0
 11
1.0
 21
1.0
 12
20.45662540247783
 22
-17.917319685241651
 13
0.0
 23
0.0
 14
1.0
 24
1.0
 15
0.0
 25
0.0
 16
-0.0000000000000284
 26
0.0
 36
118.6838847018273
 17
74.702426910400391
 27
-34.264767224811052
 37
0.0
 40
71.423281276735267
 41
2.0148619957537148
 42
50.0
 43
0.0
 44
0.0
 50
0.0
 51
0.0
 71
     0
 72
   100
 73
     1
 74
     1
 75
     0
 76
     0
 77
     0
 78
     0
  0
ENDTAB
  0
TABLE
  2
LTYPE
 70
     1
  0
LTYPE
  2
CONTINUOUS
 70
     0
  3
Solid line
 72
    65
 73
     0
 40
0.0
  0
ENDTAB
  0
TABLE
  2
LAYER
 70
     2
  0
LAYER
  2
0
 70
     0
 62
     7
  6
CONTINUOUS
  0
LAYER
  2
DEFPOINTS
 70
     0
 62
     7
  6
CONTINUOUS
  0
ENDTAB
  0
TABLE
  2
STYLE
 70
     1
  0
STYLE
  2
STANDARD
 70
     0
 40
0.0
 41
0.8
 50
0.0
 71
     0
 42
0.2
  3
txt
  4

  0
ENDTAB
  0
TABLE
  2
VIEW
 70
     0
  0
ENDTAB
  0
TABLE
  2
UCS
 70
     0
  0
ENDTAB
  0
TABLE
  2
APPID
 70
     5
  0
APPID
  2
ACAD
 70
     0
  0
APPID
  2
ACAD_MLEADERVER
 70
     0
  0
APPID
  2
ACAD_NAV_VCDISPLAY
 70
     0
  0
APPID
  2
ACAD_EXEMPT_FROM_CAD_STANDARDS
 70
     0
  0
APPID
  2
ACDBATTR
 70
     0
  0
ENDTAB
  0
TABLE
  2
DIMSTYLE
 70
     1
  0
DIMSTYLE
  2
STANDARD
 70
     0
  3

  4

  5

  6

  7

 40
1.0
 41
0.1875
 42
0.0625
 43
0.38
 44
0.125
 45
0.0
 46
0.0
 47
1.5
 48
1.5
140
0.15625
141
0.09
142
0.0
143
25.399999999999999
144
1.0
145
0.0
146
1.0
147
0.09
 71
     0
 72
     0
 73
     1
 74
     1
 75
     0
 76
     0
 77
     0
 78
     4
170
     0
171
     2
172
     0
173
     0
174
     0
175
     0
176
     0
177
     0
178
     0
  0
ENDTAB
  0
ENDSEC
  0
SECTION
  2
BLOCKS
  0
BLOCK
  8
0
  2
$MODEL_SPACE
 70
     0
 10
0.0
 20
0.0
 30
0.0
  3
$MODEL_SPACE
  1

  0
ENDBLK
  5
21
  8
0
  0
BLOCK
 67
     1
  8
0
  2
$PAPER_SPACE
 70
     0
 10
0.0
 20
0.0
 30
0.0
  3
$PAPER_SPACE
  1

  0
ENDBLK
  5
1D
 67
     1
  8
0
  0
ENDSEC
  0
SECTION
  2
ENTITIES
  0
LINE
  5
463
  8
0
 10
59.525637203400002
 20
-45.8390730813
 30
0.0
 11
59.277576159399999
 21
-44.4322489925
 31
0.0
  0
LINE
  5
48B
  8
0
 10
60.018041079899987
 20
-46.2522489925
 30
0.0
 11
89.392372324310685
 21
-46.252248992499993
 31
0.0
  0
LINE
  5
4EA
  8
0
 10
56.700165771099996
 20
-23.7522489925
 30
0.0
 11
92.704687870000001
 21
-23.7522489925
 31
0.0
  0
LINE
  5
4F5
  8
0
 10
92.327990463600003
 20
-22.267538639699989
 30
0.0
 11
57.076863177500002
 21
-22.2675386063
 31
0.0
  0
LINE
  5
657
  8
0
 10
56.763072158599989
 20
-22.551924025400002
 30
0.0
 11
56.700165771099996
 21
-23.7522489925
 31
0.0
  0
LINE
  5
65A
  8
0
 10
57.171633849899997
 20
-24.332808603
 30
0.0
 11
58.137290270000001
 21
-42.510599580099992
 31
0.0
  0
ARC
  5
65F
  8
0
 10
56.81556416194298
 20
-44.866366694306571
 30
0.0
 40
2.4999922509168129
 50
9.9999674950048014
 51
52.622030554111639
  0
ARC
  5
660
  8
0
 10
68.489627384895385
 20
-45.447232521771589
 30
0.0
 40
2.8255626162893108
 50
87.946444077857919
 51
152.21198048384679
  0
ARC
  5
662
  8
0
 10
57.063369441850931
 20
-22.567957221365969
 30
0.0
 40
0.3007215076776611
 50
87.428205966689646
 51
176.94378228993071
  0
ARC
  5
663
  8
0
 10
63.242559374537763
 20
-23.22886596596484
 30
0.0
 40
6.1704753125911553
 50
184.8657047889902
 51
190.3061073384894
  0
ARC
  5
664
  8
0
 10
58.691987499496229
 20
-42.452748331396812
 30
0.0
 40
0.5577058215469045
 50
185.9540451431462
 51
229.96434336754621
  0
ARC
  5
666
  8
0
 10
60.015261198344341
 20
-45.755561926344917
 30
0.0
 40
0.4966948453801218
 50
189.67932762678689
 51
270.32067236794398
  0
ARC
  5
68C
  8
0
 10
71.297965705816821
 20
-45.743675227456833
 30
0.0
 40
5.5479303743304609
 50
163.0899706592987
 51
185.25963627415331
  0
ARC
  5
68D
  8
0
 10
74.698624005004334
 20
-214.0787258085137
 30
0.0
 40
171.5638003842358
 50
87.959870977635134
 51
92.040181375734008
  0
ARC
  5
68E
  8
0
 10
58.363939272328757
 20
-115.9612263568641
 30
0.0
 40
73.450976465052875
 50
87.764836479632066
 51
90.176798900401835
  0
ARC
  5
68F
  8
0
 10
61.115590986584976
 20
-43.427963550423868
 30
0.0
 40
0.8692083093273133
 50
23.321979297006639
 51
82.529225503574693
  0
ARC
  5
690
  8
0
 10
59.005558323032638
 20
-44.708584595712829
 30
0.0
 40
3.3312956504619931
 50
5.9168409522726861
 51
29.1908176339536
  0
ARC
  5
691
  8
0
 10
62.970018554622349
 20
-45.773903075941043
 30
0.0
 40
0.4785578663079368
 50
179.59167360852311
 51
268.29471582662052
  0
LINE
  5
692
  8
0
 10
62.319105470399997
 20
-44.365179102200003
 30
0.0
 11
62.491472841000011
 21
-45.770492595199997
 31
0.0
  0
LINE
  5
6C6
  8
0
 10
89.879216437699995
 20
-45.8390730813
 30
0.0
 11
90.127277481700006
 21
-44.4322489925
 31
0.0
  0
LINE
  5
6C7
  8
0
 10
92.641781482500008
 20
-22.551924025400002
 30
0.0
 11
92.704687870000015
 21
-23.7522489925
 31
0.0
  0
LINE
  5
6C8
  8
0
 10
92.233219791199986
 20
-24.332808603
 30
0.0
 11
91.267563371099996
 21
-42.510599580099992
 31
0.0
  0
ARC
  5
6C9
  8
0
 10
92.589289479157046
 20
-44.866366694306571
 30
0.0
 40
2.4999922509168129
 50
127.3779694458878
 51
170.00003250499529
  0
ARC
  5
6CA
  8
0
 10
80.915226256204605
 20
-45.447232521771589
 30
0.0
 40
2.8255626162893108
 50
27.788019516152971
 51
92.053555922142507
  0
ARC
  5
6CB
  8
0
 10
92.341484199249066
 20
-22.567957221365969
 30
0.0
 40
0.3007215076776611
 50
3.0562177100692929
 51
92.571794033310397
  0
ARC
  5
6CC
  8
0
 10
86.162294266562228
 20
-23.22886596596484
 30
0.0
 40
6.1704753125911553
 50
349.69389266151069
 51
355.13429521100983
  0
ARC
  5
6CD
  8
0
 10
90.712866141603754
 20
-42.452748331396812
 30
0.0
 40
0.5577058215469045
 50
310.03565663245388
 51
354.04595485685371
  0
ARC
  5
6CE
  8
0
 10
89.389592442755657
 20
-45.755561926344917
 30
0.0
 40
0.4966948453801218
 50
269.67932763205641
 51
350.32067237321297
  0
ARC
  5
6CF
  8
0
 10
78.106887935283183
 20
-45.743675227456833
 30
0.0
 40
5.5479303743304609
 50
354.74036372584669
 51
16.910029340701421
  0
ARC
  5
6D0
  8
0
 10
91.040914368771254
 20
-115.9612263568641
 30
0.0
 40
73.450976465052875
 50
89.823201099598066
 51
92.235163520368289
  0
ARC
  5
6D1
  8
0
 10
88.289262654515028
 20
-43.427963550423868
 30
0.0
 40
0.8692083093273133
 50
97.470774496425307
 51
156.67802070299319
  0
ARC
  5
6D2
  8
0
 10
90.399295318067374
 20
-44.708584595712829
 30
0.0
 40
3.3312956504619931
 50
150.80918236604629
 51
174.08315904772741
  0
ARC
  5
6D3
  8
0
 10
86.434835086477648
 20
-45.773903075941043
 30
0.0
 40
0.4785578663079368
 50
271.70528417337931
 51
0.408326391476869
  0
LINE
  5
6D4
  8
0
 10
87.085748170700015
 20
-44.365179102200003
 30
0.0
 11
86.913380800100001
 21
-45.770492595199997
 31
0.0
  0
ATTDEF
  5
715
  8
DEFPOINTS
 10
74.700467855344641
 20
-46.256996378943391
 30
0.0
 40
0.001
  1
K-5702-GW
  3

  2
MODELNUMBER
 70
     0
1001
ACDBATTR
1070
     0
1070
     1
  0
ATTDEF
  5
716
  8
DEFPOINTS
 10
74.700467855344641
 20
-46.258663045610056
 30
0.0
 40
0.001
  1
UNDERSCORE
  3

  2
TRADENAME
 70
     0
1001
ACDBATTR
1070
     0
1070
     1
  0
ATTDEF
  5
717
  8
DEFPOINTS
 10
74.700467855344641
 20
-46.260329712276722
 30
0.0
 40
0.001
  1
BATH
  3

  2
PRODUCT
 70
     0
1001
ACDBATTR
1070
     0
1070
     1
  0
ATTDEF
  5
718
  8
DEFPOINTS
 10
74.700467855344641
 20
-46.261996378943387
 30
0.0
 40
0.001
  1
ACRYLIC
  3

  2
MATERIAL
 70
     0
1001
ACDBATTR
1070
     0
1070
     1
  0
ENDSEC
  0
EOF
