  0
SECTION
  2
HEADER
  9
$ACADVER
  1
AC1009
  9
$INSBASE
 10
8.2776391903500013
 20
-46.2522489925
 30
0.0
  9
$EXTMIN
 10
-21.722895464200001
 20
-46.261934248696733
 30
0.0
  9
$EXTMAX
 10
38.278173633400002
 20
-22.267538639699989
 30
0.0
  9
$LIMMIN
 10
0.0
 20
0.0
  9
$LIMMAX
 10
22.0
 20
17.0
  9
$ORTHOMODE
 70
     0
  9
$REGENMODE
 70
     1
  9
$FILLMODE
 70
     1
  9
$QTEXTMODE
 70
     0
  9
$MIRRTEXT
 70
     0
  9
$DRAGMODE
 70
     2
  9
$LTSCALE
 40
1.2099999999999991
  9
$OSMODE
 70
  3071
  9
$ATTMODE
 70
     1
  9
$TEXTSIZE
 40
0.2
  9
$TRACEWID
 40
0.05
  9
$TEXTSTYLE
  7
STANDARD
  9
$CLAYER
  8
0
  9
$CELTYPE
  6
BYLAYER
  9
$CECOLOR
 62
   256
  9
$DIMSCALE
 40
1.0
  9
$DIMASZ
 40
0.1875
  9
$DIMEXO
 40
0.0625
  9
$DIMDLI
 40
0.8359999999999999
  9
$DIMRND
 40
0.0
  9
$DIMDLE
 40
0.0
  9
$DIMEXE
 40
0.125
  9
$DIMTP
 40
0.0
  9
$DIMTM
 40
0.0
  9
$DIMTXT
 40
0.15625
  9
$DIMCEN
 40
0.198
  9
$DIMTSZ
 40
0.0
  9
$DIMTOL
 70
     0
  9
$DIMLIM
 70
     0
  9
$DIMTIH
 70
     1
  9
$DIMTOH
 70
     1
  9
$DIMSE1
 70
     0
  9
$DIMSE2
 70
     0
  9
$DIMTAD
 70
     0
  9
$DIMZIN
 70
     0
  9
$DIMBLK
  1

  9
$DIMASO
 70
     1
  9
$DIMSHO
 70
     1
  9
$DIMPOST
  1

  9
$DIMAPOST
  1

  9
$DIMALT
 70
     0
  9
$DIMALTD
 70
     2
  9
$DIMALTF
 40
25.399999999999999
  9
$DIMLFAC
 40
1.0
  9
$DIMTOFL
 70
     0
  9
$DIMTVP
 40
0.0
  9
$DIMTIX
 70
     0
  9
$DIMSOXD
 70
     0
  9
$DIMSAH
 70
     0
  9
$DIMBLK1
  1

  9
$DIMBLK2
  1

  9
$DIMSTYLE
  2
STANDARD
  9
$DIMCLRD
 70
     0
  9
$DIMCLRE
 70
     0
  9
$DIMCLRT
 70
     0
  9
$DIMTFAC
 40
1.0
  9
$DIMGAP
 40
0.09
  9
$LUNITS
 70
     2
  9
$LUPREC
 70
     4
  9
$SKETCHINC
 40
0.1
  9
$FILLETRAD
 40
0.0
  9
$AUNITS
 70
     0
  9
$AUPREC
 70
     0
  9
$MENU
  1
.
  9
$ELEVATION
 40
0.0
  9
$PELEVATION
 40
0.0
  9
$THICKNESS
 40
0.0
  9
$LIMCHECK
 70
     0
  9
$BLIPMODE
 70
     0
  9
$CHAMFERA
 40
0.0
  9
$CHAMFERB
 40
0.0
  9
$SKPOLY
 70
     0
  9
$TDCREATE
 40
2457354.5048670722
  9
$TDUPDATE
 40
2457354.7526524891
  9
$TDINDWG
 40
0.0723133796
  9
$TDUSRTIMER
 40
0.0723133796
  9
$USRTIMER
 70
     1
  9
$ANGBASE
 50
0.0
  9
$ANGDIR
 70
     0
  9
$PDMODE
 70
     0
  9
$PDSIZE
 40
0.3125
  9
$PLINEWID
 40
0.0
  9
$COORDS
 70
     1
  9
$SPLFRAME
 70
     0
  9
$SPLINETYPE
 70
     6
  9
$SPLINESEGS
 70
     8
  9
$ATTDIA
 70
     0
  9
$ATTREQ
 70
     1
  9
$HANDLING
 70
     1
  9
$HANDSEED
  5
7DD
  9
$SURFTAB1
 70
     6
  9
$SURFTAB2
 70
     6
  9
$SURFTYPE
 70
     6
  9
$SURFU
 70
     6
  9
$SURFV
 70
     6
  9
$UCSNAME
  2

  9
$UCSORG
 10
0.0
 20
0.0
 30
0.0
  9
$UCSXDIR
 10
1.0
 20
0.0
 30
0.0
  9
$UCSYDIR
 10
0.0
 20
1.0
 30
0.0
  9
$PUCSNAME
  2

  9
$PUCSORG
 10
0.0
 20
0.0
 30
0.0
  9
$PUCSXDIR
 10
1.0
 20
0.0
 30
0.0
  9
$PUCSYDIR
 10
0.0
 20
1.0
 30
0.0
  9
$USERI1
 70
     0
  9
$USERI2
 70
     0
  9
$USERI3
 70
     0
  9
$USERI4
 70
     0
  9
$USERI5
 70
     0
  9
$USERR1
 40
0.0
  9
$USERR2
 40
0.0
  9
$USERR3
 40
0.0
  9
$USERR4
 40
0.0
  9
$USERR5
 40
0.0
  9
$WORLDVIEW
 70
     1
  9
$SHADEDGE
 70
     3
  9
$SHADEDIF
 70
    70
  9
$TILEMODE
 70
     1
  9
$MAXACTVP
 70
    48
  9
$PLIMCHECK
 70
     0
  9
$PEXTMIN
 10
1.0000000000000000E+020
 20
1.0000000000000000E+020
 30
1.0000000000000000E+020
  9
$PEXTMAX
 10
-1.0000000000000000E+020
 20
-1.0000000000000000E+020
 30
-1.0000000000000000E+020
  9
$PLIMMIN
 10
0.0
 20
0.0
  9
$PLIMMAX
 10
12.0
 20
9.0
  9
$UNITMODE
 70
     0
  9
$VISRETAIN
 70
     1
  9
$PLINEGEN
 70
     0
  9
$PSLTSCALE
 70
     1
  0
ENDSEC
  0
SECTION
  2
TABLES
  0
TABLE
  2
VPORT
 70
     1
  0
VPORT
  2
*ACTIVE
 70
     0
 10
0.0
 20
0.0
 11
1.0
 21
1.0
 12
-25.10355308831527
 22
-27.24766868924036
 13
0.0
 23
0.0
 14
1.0
 24
1.0
 15
0.0
 25
0.0
 16
0.0
 26
0.0
 36
1.0
 17
35.488635063171387
 27
-9.5534486770629883
 37
0.0
 40
121.1526492231372
 41
2.0329087048832268
 42
50.0
 43
0.0
 44
0.0
 50
0.0
 51
0.0
 71
     0
 72
   100
 73
     1
 74
     1
 75
     0
 76
     0
 77
     0
 78
     0
  0
ENDTAB
  0
TABLE
  2
LTYPE
 70
     1
  0
LTYPE
  2
CONTINUOUS
 70
     0
  3
Solid line
 72
    65
 73
     0
 40
0.0
  0
ENDTAB
  0
TABLE
  2
LAYER
 70
     2
  0
LAYER
  2
0
 70
     0
 62
     7
  6
CONTINUOUS
  0
LAYER
  2
DEFPOINTS
 70
     0
 62
     7
  6
CONTINUOUS
  0
ENDTAB
  0
TABLE
  2
STYLE
 70
     1
  0
STYLE
  2
STANDARD
 70
     0
 40
0.0
 41
0.8
 50
0.0
 71
     0
 42
0.2
  3
txt
  4

  0
ENDTAB
  0
TABLE
  2
VIEW
 70
     0
  0
ENDTAB
  0
TABLE
  2
UCS
 70
     0
  0
ENDTAB
  0
TABLE
  2
APPID
 70
     4
  0
APPID
  2
ACAD
 70
     0
  0
APPID
  2
ACAD_MLEADERVER
 70
     0
  0
APPID
  2
ACAD_NAV_VCDISPLAY
 70
     0
  0
APPID
  2
ACDBATTR
 70
     0
  0
ENDTAB
  0
TABLE
  2
DIMSTYLE
 70
     1
  0
DIMSTYLE
  2
STANDARD
 70
     0
  3

  4

  5

  6

  7

 40
1.0
 41
0.1875
 42
0.0625
 43
0.38
 44
0.125
 45
0.0
 46
0.0
 47
1.5
 48
1.5
140
0.15625
141
0.09
142
0.0
143
25.399999999999999
144
1.0
145
0.0
146
1.0
147
0.09
 71
     0
 72
     0
 73
     1
 74
     1
 75
     0
 76
     0
 77
     0
 78
     4
170
     0
171
     2
172
     0
173
     0
174
     0
175
     0
176
     0
177
     0
178
     0
  0
ENDTAB
  0
ENDSEC
  0
SECTION
  2
BLOCKS
  0
BLOCK
  8
0
  2
$MODEL_SPACE
 70
     0
 10
0.0
 20
0.0
 30
0.0
  3
$MODEL_SPACE
  1

  0
ENDBLK
  5
21
  8
0
  0
BLOCK
 67
     1
  8
0
  2
$PAPER_SPACE
 70
     0
 10
0.0
 20
0.0
 30
0.0
  3
$PAPER_SPACE
  1

  0
ENDBLK
  5
1D
 67
     1
  8
0
  0
ENDSEC
  0
SECTION
  2
ENTITIES
  0
LINE
  5
381
  8
0
 10
-21.6594500699
 20
-22.5518378499
 30
0.0
 11
-21.722360952100001
 21
-23.7522489925
 31
0.0
  0
LINE
  5
38A
  8
0
 10
-16.694222406600002
 20
-43.594813685600002
 30
0.0
 11
-16.6308420093
 21
-43.826193578000002
 31
0.0
  0
LINE
  5
38E
  8
0
 10
-16.6308420093
 20
-43.826193578000002
 30
0.0
 11
-16.5528072408
 21
-44.225547677399987
 31
0.0
  0
LINE
  5
38F
  8
0
 10
-21.2650902257
 20
-24.332808636399999
 30
0.0
 11
-17.724933323599998
 21
-42.516528632300002
 31
0.0
  0
LINE
  5
392
  8
0
 10
-16.5528072408
 20
-44.225547677399987
 30
0.0
 11
-16.507836663199999
 21
-44.545032481
 31
0.0
  0
LINE
  5
3CF
  8
0
 10
-15.864492671000001
 20
-46.2522489925
 30
0.0
 11
32.41977105170001
 21
-46.2522489925
 31
0.0
  0
LINE
  5
400
  8
0
 10
-21.722895464200001
 20
-23.7522489925
 30
0.0
 11
38.278173633400002
 21
-23.7522489925
 31
0.0
  0
LINE
  5
40F
  8
0
 10
37.915139417799999
 20
-22.267538639899989
 30
0.0
 11
-21.359860898099999
 21
-22.267538639699989
 31
0.0
  0
ARC
  5
529
  8
0
 10
-18.735243413083971
 20
-44.979110559744221
 30
0.0
 40
2.4661801606278289
 50
34.146589916431687
 51
59.602725027643153
  0
ARC
  5
685
  8
0
 10
-10.78591889238305
 20
-45.690541652047081
 30
0.0
 40
2.7662626832829469
 50
87.657130045938359
 51
191.7157461654626
  0
ARC
  5
686
  8
0
 10
8.2775875130085481
 20
-3876.4487247716011
 30
0.0
 40
3833.5689729150008
 50
89.716767949775246
 51
90.283230511338147
  0
ARC
  5
687
  8
0
 10
-21.359860899754612
 20
-22.56753863470712
 30
0.0
 40
0.2999999950071199
 50
89.999999683992286
 51
177.00000038334969
  0
ARC
  5
688
  8
0
 10
-15.194164701062229
 20
-23.228865999364832
 30
0.0
 40
6.1704753125911553
 50
184.86570478899
 51
190.3061073384892
  0
ARC
  5
689
  8
0
 10
-17.233092429205001
 20
-42.420005393342272
 30
0.0
 40
0.5012227060480795
 50
191.10312872993191
 51
239.51433111869071
  0
ARC
  5
68A
  8
0
 10
-185.52864744283841
 20
-64.785734418852314
 30
0.0
 40
170.22843620130951
 50
6.4009547393677391
 51
6.8288060653137101
  0
ARC
  5
68B
  8
0
 10
-15.864492879856719
 20
-45.752248951157469
 30
0.0
 40
0.500000041310135
 50
186.37118256167511
 51
269.99951918035759
  0
LINE
  5
68C
  8
0
 10
38.214728250317513
 20
-22.551838129653799
 30
0.0
 11
38.277639121299998
 21
-23.752249272841691
 31
0.0
  0
LINE
  5
68D
  8
0
 10
33.249500390376738
 20
-43.594813918955133
 30
0.0
 11
33.186119990914548
 21
-43.826193810762859
 31
0.0
  0
LINE
  5
68E
  8
0
 10
33.186119990914548
 20
-43.826193810762859
 30
0.0
 11
33.10808521868271
 21
-44.225547909433629
 31
0.0
  0
LINE
  5
68F
  8
0
 10
37.820368389474837
 20
-24.332808912468622
 30
0.0
 11
34.280211317453009
 21
-42.516528875286838
 31
0.0
  0
LINE
  5
690
  8
0
 10
33.10808521868271
 20
-44.225547909433629
 30
0.0
 11
33.063114638097197
 21
-44.545032712613398
 31
0.0
  0
ARC
  5
691
  8
0
 10
35.290521383924712
 20
-44.979110812171982
 30
0.0
 40
2.466180160627649
 50
120.39727443694269
 51
145.85340954815609
  0
ARC
  5
692
  8
0
 10
27.341196856575792
 20
-45.690541830190753
 30
0.0
 40
2.7662626832829469
 50
348.2842532991242
 51
92.342869418648533
  0
ARC
  5
693
  8
0
 10
37.915139080025398
 20
-22.567538911661341
 30
0.0
 40
0.2999999950071199
 50
2.9999990812370552
 51
89.99999978059445
  0
ARC
  5
694
  8
0
 10
31.749442875153111
 20
-23.228866218702329
 30
0.0
 40
6.1704753125911553
 50
349.69389212609752
 51
355.13429467559678
  0
ARC
  5
695
  8
0
 10
33.788370423959996
 20
-42.420005631732977
 30
0.0
 40
0.5012227060480795
 50
300.4856683458961
 51
348.89687073465501
  0
ARC
  5
696
  8
0
 10
202.08392522859191
 20
-64.785736229918356
 30
0.0
 40
170.22843620130951
 50
173.17119339927311
 51
173.5990447252191
  0
ARC
  5
697
  8
0
 10
32.419770843472818
 20
-45.752249176759008
 30
0.0
 40
0.500000041310135
 50
270.00048028422913
 51
353.62881690291169
  0
ATTDEF
  5
6FC
  8
DEFPOINTS
 10
8.2734041224093744
 20
-46.256934248696723
 30
0.0
 40
0.001
  1
K-5701
  3

  2
MODELNUMBER
 70
     0
1001
ACDBATTR
1070
     0
1070
     1
  0
ATTDEF
  5
6FD
  8
DEFPOINTS
 10
8.2734041224093744
 20
-46.258600915363388
 30
0.0
 40
0.001
  1
UNDERSCORE
  3

  2
TRADENAME
 70
     0
1001
ACDBATTR
1070
     0
1070
     1
  0
ATTDEF
  5
6FE
  8
DEFPOINTS
 10
8.2734041224093744
 20
-46.26026758203006
 30
0.0
 40
0.001
  1
BATH
  3

  2
PRODUCT
 70
     0
1001
ACDBATTR
1070
     0
1070
     1
  0
ATTDEF
  5
6FF
  8
DEFPOINTS
 10
8.2734041224093744
 20
-46.261934248696718
 30
0.0
 40
0.001
  1
EXOCRYLIC
  3

  2
MATERIAL
 70
     0
1001
ACDBATTR
1070
     0
1070
     1
  0
ENDSEC
  0
EOF
