  0
SECTION
  2
HEADER
  9
$ACADVER
  1
AC1009
  9
$INSBASE
 10
3.6453234699000001
 20
21.836537162399999
 30
0.0
  9
$EXTMIN
 10
2.5794245658295898
 20
13.1864237605298
 30
-0.0000000349181948
  9
$EXTMAX
 10
6.6507233401319894
 20
22.902976929880619
 30
0.0000000814935746
  9
$LIMMIN
 10
0.0
 20
0.0
  9
$LIMMAX
 10
11.692913385800001
 20
8.2677165353999982
  9
$ORTHOMODE
 70
     0
  9
$REGENMODE
 70
     1
  9
$FILLMODE
 70
     1
  9
$QTEXTMODE
 70
     0
  9
$MIRRTEXT
 70
     0
  9
$DRAGMODE
 70
     2
  9
$LTSCALE
 40
0.6431102362
  9
$OSMODE
 70
   231
  9
$ATTMODE
 70
     1
  9
$TEXTSIZE
 40
0.2
  9
$TRACEWID
 40
0.05
  9
$TEXTSTYLE
  7
STANDARD
  9
$CLAYER
  8
0
  9
$CELTYPE
  6
BYLAYER
  9
$CECOLOR
 62
   256
  9
$DIMSCALE
 40
1.0
  9
$DIMASZ
 40
0.1875
  9
$DIMEXO
 40
0.0625
  9
$DIMDLI
 40
0.4443307087
  9
$DIMRND
 40
0.0
  9
$DIMDLE
 40
0.0
  9
$DIMEXE
 40
0.125
  9
$DIMTP
 40
0.0
  9
$DIMTM
 40
0.0
  9
$DIMTXT
 40
1.0
  9
$DIMCEN
 40
0.1052362205
  9
$DIMTSZ
 40
0.0
  9
$DIMTOL
 70
     0
  9
$DIMLIM
 70
     0
  9
$DIMTIH
 70
     1
  9
$DIMTOH
 70
     1
  9
$DIMSE1
 70
     0
  9
$DIMSE2
 70
     0
  9
$DIMTAD
 70
     0
  9
$DIMZIN
 70
     0
  9
$DIMBLK
  1

  9
$DIMASO
 70
     1
  9
$DIMSHO
 70
     1
  9
$DIMPOST
  1
\X
  9
$DIMAPOST
  1

  9
$DIMALT
 70
     1
  9
$DIMALTD
 70
     2
  9
$DIMALTF
 40
25.399999999999999
  9
$DIMLFAC
 40
1.0
  9
$DIMTOFL
 70
     0
  9
$DIMTVP
 40
0.0
  9
$DIMTIX
 70
     0
  9
$DIMSOXD
 70
     0
  9
$DIMSAH
 70
     0
  9
$DIMBLK1
  1

  9
$DIMBLK2
  1

  9
$DIMSTYLE
  2
STANDARD
  9
$DIMCLRD
 70
     0
  9
$DIMCLRE
 70
     0
  9
$DIMCLRT
 70
     0
  9
$DIMTFAC
 40
1.0
  9
$DIMGAP
 40
0.09
  9
$LUNITS
 70
     2
  9
$LUPREC
 70
     4
  9
$SKETCHINC
 40
0.1
  9
$FILLETRAD
 40
0.0
  9
$AUNITS
 70
     0
  9
$AUPREC
 70
     0
  9
$MENU
  1
.
  9
$ELEVATION
 40
0.0
  9
$PELEVATION
 40
0.0
  9
$THICKNESS
 40
0.0
  9
$LIMCHECK
 70
     0
  9
$BLIPMODE
 70
     0
  9
$CHAMFERA
 40
0.0
  9
$CHAMFERB
 40
0.0
  9
$SKPOLY
 70
     0
  9
$TDCREATE
 40
2457954.5844966322
  9
$TDUPDATE
 40
2457954.6754530212
  9
$TDINDWG
 40
0.0851014352
  9
$TDUSRTIMER
 40
0.0851014352
  9
$USRTIMER
 70
     1
  9
$ANGBASE
 50
0.0
  9
$ANGDIR
 70
     0
  9
$PDMODE
 70
     0
  9
$PDSIZE
 40
0.3125
  9
$PLINEWID
 40
0.0
  9
$COORDS
 70
     1
  9
$SPLFRAME
 70
     0
  9
$SPLINETYPE
 70
     6
  9
$SPLINESEGS
 70
     8
  9
$ATTDIA
 70
     1
  9
$ATTREQ
 70
     1
  9
$HANDLING
 70
     1
  9
$HANDSEED
  5
1F28
  9
$SURFTAB1
 70
     6
  9
$SURFTAB2
 70
     6
  9
$SURFTYPE
 70
     6
  9
$SURFU
 70
     6
  9
$SURFV
 70
     6
  9
$UCSNAME
  2

  9
$UCSORG
 10
0.0
 20
0.0
 30
0.0
  9
$UCSXDIR
 10
1.0
 20
0.0
 30
0.0
  9
$UCSYDIR
 10
0.0
 20
1.0
 30
0.0
  9
$PUCSNAME
  2

  9
$PUCSORG
 10
0.0
 20
0.0
 30
0.0
  9
$PUCSXDIR
 10
1.0
 20
0.0
 30
0.0
  9
$PUCSYDIR
 10
0.0
 20
1.0
 30
0.0
  9
$USERI1
 70
     0
  9
$USERI2
 70
     0
  9
$USERI3
 70
     0
  9
$USERI4
 70
     0
  9
$USERI5
 70
     0
  9
$USERR1
 40
0.0
  9
$USERR2
 40
0.0
  9
$USERR3
 40
0.0
  9
$USERR4
 40
0.0
  9
$USERR5
 40
0.0
  9
$WORLDVIEW
 70
     1
  9
$SHADEDGE
 70
     3
  9
$SHADEDIF
 70
    70
  9
$TILEMODE
 70
     1
  9
$MAXACTVP
 70
    48
  9
$PLIMCHECK
 70
     0
  9
$PEXTMIN
 10
1.0000000000000000E+020
 20
1.0000000000000000E+020
 30
1.0000000000000000E+020
  9
$PEXTMAX
 10
-1.0000000000000000E+020
 20
-1.0000000000000000E+020
 30
-1.0000000000000000E+020
  9
$PLIMMIN
 10
0.0
 20
0.0
  9
$PLIMMAX
 10
12.0
 20
9.0
  9
$UNITMODE
 70
     0
  9
$VISRETAIN
 70
     1
  9
$PLINEGEN
 70
     0
  9
$PSLTSCALE
 70
     1
  0
ENDSEC
  0
SECTION
  2
TABLES
  0
TABLE
  2
VPORT
 70
     1
  0
VPORT
  2
*ACTIVE
 70
     0
 10
0.0
 20
0.0
 11
1.0
 21
1.0
 12
4.6150739529807909
 22
18.044700345205211
 13
0.0
 23
0.0
 14
1.0
 24
1.0
 15
0.0
 25
0.0
 16
0.0
 26
0.0
 36
1.0
 17
0.0
 27
0.0
 37
0.0
 40
9.7819613019072484
 41
1.786624203821656
 42
50.0
 43
0.0
 44
0.0
 50
0.0
 51
0.0
 71
     0
 72
   100
 73
     1
 74
     1
 75
     0
 76
     0
 77
     0
 78
     0
  0
ENDTAB
  0
TABLE
  2
LTYPE
 70
     2
  0
LTYPE
  2
CONTINUOUS
 70
     0
  3
Solid line
 72
    65
 73
     0
 40
0.0
  0
LTYPE
  2
PHANTOM2
 70
     0
  3
___ _ _ ___ _ _ ___ _ _ ___ _ _
 72
    65
 73
     6
 40
1.25
 49
0.625
 49
-0.125
 49
0.125
 49
-0.125
 49
0.125
 49
-0.125
  0
ENDTAB
  0
TABLE
  2
LAYER
 70
     2
  0
LAYER
  2
0
 70
     0
 62
     7
  6
CONTINUOUS
  0
LAYER
  2
DEFPOINTS
 70
     0
 62
     7
  6
CONTINUOUS
  0
ENDTAB
  0
TABLE
  2
STYLE
 70
     1
  0
STYLE
  2
STANDARD
 70
     0
 40
0.0
 41
0.8
 50
0.0
 71
     0
 42
0.2
  3
txt
  4

  0
ENDTAB
  0
TABLE
  2
VIEW
 70
     0
  0
ENDTAB
  0
TABLE
  2
UCS
 70
     0
  0
ENDTAB
  0
TABLE
  2
APPID
 70
     7
  0
APPID
  2
ACAD
 70
     0
  0
APPID
  2
ACAD_MLEADERVER
 70
     0
  0
APPID
  2
ACAD_NAV_VCDISPLAY
 70
     0
  0
APPID
  2
ACAD_DSTYLE_DIMJAG
 70
     0
  0
APPID
  2
ACAD_DSTYLE_DIMTALN
 70
     0
  0
APPID
  2
ACAD_EXEMPT_FROM_CAD_STANDARDS
 70
     0
  0
APPID
  2
ACDBATTR
 70
     0
  0
ENDTAB
  0
TABLE
  2
DIMSTYLE
 70
     1
  0
DIMSTYLE
  2
STANDARD
 70
     0
  3

  4

  5

  6

  7

 40
1.0
 41
0.1875
 42
0.0625
 43
0.38
 44
0.125
 45
0.0
 46
0.0
 47
1.5
 48
1.5
140
0.15625
141
0.09
142
0.0
143
25.399999999999999
144
1.0
145
0.0
146
1.0
147
0.09
 71
     0
 72
     0
 73
     1
 74
     1
 75
     0
 76
     0
 77
     0
 78
     4
170
     0
171
     2
172
     0
173
     0
174
     0
175
     0
176
     0
177
     0
178
     0
  0
ENDTAB
  0
ENDSEC
  0
SECTION
  2
BLOCKS
  0
BLOCK
  8
0
  2
$MODEL_SPACE
 70
     0
 10
0.0
 20
0.0
 30
0.0
  3
$MODEL_SPACE
  1

  0
ENDBLK
  5
21
  8
0
  0
BLOCK
 67
     1
  8
0
  2
$PAPER_SPACE
 70
     0
 10
0.0
 20
0.0
 30
0.0
  3
$PAPER_SPACE
  1

  0
ENDBLK
  5
1D
 67
     1
  8
0
  0
ENDSEC
  0
SECTION
  2
ENTITIES
  0
LINE
  5
10C0
  8
0
 10
3.0828234699000001
 20
21.836537162399999
 30
0.0
 11
3.0828234699000001
 21
14.677083611
 31
0.0
  0
LINE
  5
10CF
  8
0
 10
4.2078234699000001
 20
21.836537162399999
 30
0.0
 11
4.2078234699000001
 21
14.677083611
 31
0.0
  0
LINE
  5
10DC
  8
0
 10
5.4153234698999988
 20
21.1067967171
 30
0.0
 11
5.4153234698999988
 21
22.566277616299999
 31
0.0
  0
LINE
  5
10DD
  8
0
 10
5.471189611699999
 20
22.534997467499998
 30
0.0
 11
5.471189611699999
 21
21.1380768571
 31
0.0
  0
LINE
  5
10FA
  8
0
 10
6.5390032047000002
 20
21.8258579164
 30
0.0
 11
6.5306887479999993
 21
21.723091722900001
 31
0.0
  0
LINE
  5
110D
  8
0
 10
5.5157249851999994
 20
21.0865333683
 30
0.0
 11
5.9107646857000002
 21
21.0865333683
 31
0.0
  0
LINE
  5
112E
  8
0
 10
5.5157257304999989
 20
22.5865409566
 30
0.0
 11
6.3847916002999989
 21
22.5865409566
 31
0.0
  0
ARC
  5
137D
  8
0
 10
3.6453234699000001
 20
21.836537162399999
 30
0.0
 40
1.0647424801000001
 50
58.020141349900001
 51
238.10955431877301
  0
ARC
  5
137F
  8
0
 10
3.649705568380865
 20
21.837591965715621
 30
0.0
 40
1.0192983334597601
 50
65.434589369673063
 51
236.21008478882919
  0
ARC
  5
1382
  8
0
 10
3.6453234699000001
 20
21.836537162399999
 30
0.0
 40
0.8725375826999998
 50
310.14104049382928
 51
229.85895950617069
  0
ARC
  5
1384
  8
0
 10
3.6453234699000001
 20
21.836537162399999
 30
0.0
 40
0.6340868123
 50
332.51137729145108
 51
207.48862270854889
  0
ARC
  5
1386
  8
0
 10
3.6453234699000001
 20
21.836537162399999
 30
0.0
 40
0.5625
 50
0.0
 51
180.0
  0
ARC
  5
1387
  8
0
 10
5.3266281780999991
 20
21.756746783899999
 30
0.0
 40
0.75
 50
78.883872983100005
 51
83.196788929199997
  0
ARC
  5
1388
  8
0
 10
5.3853231333
 20
21.106791966300001
 30
0.0
 40
0.0299999609
 50
273.42772389219999
 51
360.0
  0
ARC
  5
1389
  8
0
 10
5.3266281780999991
 20
21.916327540899999
 30
0.0
 40
0.75
 50
276.80321108020001
 51
281.11612654530001
  0
ARC
  5
138A
  8
0
 10
6.3847927837
 20
22.5364932753
 30
0.0
 40
0.0499999974
 50
8.3000133099000006
 51
90.000923226899985
  0
ARC
  5
138B
  8
0
 10
6.4539629026999989
 20
22.4607500515
 30
0.0
 40
0.0300003221
 50
13.069946336599999
 51
56.13720923999999
  0
ARC
  5
138C
  8
0
 10
5.3853231349000001
 20
22.566282378099999
 30
0.0
 40
0.0299999623
 50
0.0
 51
86.57273213629999
  0
ARC
  5
166D
  8
0
 10
6.0810073971996959
 20
10.307850843074799
 30
0.0
 40
10.791300357539191
 50
93.686576741627917
 51
99.996195269878797
  0
ARC
  5
166E
  8
0
 10
3.5532505733536519
 20
21.889402394477699
 30
0.0
 40
2.9864287495746158
 50
358.7807828369601
 51
11.162328496532711
  0
ARC
  5
166F
  8
0
 10
6.5344618860261701
 20
22.56604976912174
 30
0.0
 40
0.1026528952285668
 50
192.56891055577429
 51
231.57105066557409
  0
ARC
  5
1670
  8
0
 10
5.5205443513468504
 20
22.537365635942908
 30
0.0
 40
0.0494108416098413
 50
95.596466890718744
 51
182.73561936707051
  0
ARC
  5
1671
  8
0
 10
6.0084519085218799
 20
32.606845317094049
 30
0.0
 40
10.029854163601341
 50
259.6659849483778
 51
266.44842293537619
  0
ARC
  5
1675
  8
0
 10
4.3847041069103048
 20
24.07686105121174
 30
0.0
 40
1.3486366887567789
 50
256.65676538832201
 51
262.52407608792828
  0
ARC
  5
167D
  8
0
 10
6.2326989392026988
 20
24.295362505374179
 30
0.0
 40
3.3680854482299631
 50
268.065349064408
 51
271.96047939226168
  0
ARC
  5
167E
  8
0
 10
6.3444164829005221
 20
21.018743030745089
 30
0.0
 40
0.0895629447007942
 50
272.19698791945751
 51
279.2811492657508
  0
ARC
  5
167F
  8
0
 10
6.2635933915366984
 20
21.265944590749061
 30
0.0
 40
0.3488523242004724
 50
285.84816212097547
 51
335.01514959278472
  0
ARC
  5
1680
  8
0
 10
6.2721252165892949
 20
21.336949924774039
 30
0.0
 40
0.3772821351175108
 50
324.63713072003088
 51
3.6239294258666459
  0
ARC
  5
1681
  8
0
 10
6.123798313797721
 20
21.403517925743909
 30
0.0
 40
0.5265904126895915
 50
355.34662198717041
 51
27.33194756243789
  0
ARC
  5
1682
  8
0
 10
6.243068907907749
 20
21.435139425899582
 30
0.0
 40
0.4069910290934064
 50
31.08938078884508
 51
57.968171248917422
  0
ARC
  5
1683
  8
0
 10
6.2240809522589107
 20
21.3441834106744
 30
0.0
 40
0.4952147367338391
 50
61.689936972269457
 51
114.8106260338171
  0
ARC
  5
1684
  8
0
 10
6.171590493392781
 20
21.51369116200409
 30
0.0
 40
0.3200267409808934
 50
118.8596598214022
 51
149.52442275906211
  0
ARC
  5
1685
  8
0
 10
6.4228489775388597
 20
21.371107720019129
 30
0.0
 40
0.6089038797425019
 50
149.95220300158061
 51
187.96025790177131
  0
ARC
  5
1686
  8
0
 10
6.3556984597146142
 20
21.409400055875459
 30
0.0
 40
0.5497353556194492
 50
192.8880923609195
 51
236.47111810911159
  0
ARC
  5
1687
  8
0
 10
6.2128151735776509
 20
21.32858658278446
 30
0.0
 40
0.4102615871993095
 50
246.92942413191409
 51
256.78021728369828
  0
ARC
  5
1688
  8
0
 10
6.241752778072458
 20
21.369700840736311
 30
0.0
 40
0.4069975714423843
 50
358.74644044941061
 51
53.68939588532924
  0
ARC
  5
1689
  8
0
 10
6.2506742409192197
 20
21.319073780781022
 30
0.0
 40
0.444069082716443
 50
58.490661683226698
 51
92.255764976170795
  0
ARC
  5
168A
  8
0
 10
6.213390561756122
 20
21.335670421967219
 30
0.0
 40
0.427587232774057
 50
87.345227402956553
 51
132.38607622728881
  0
ARC
  5
168B
  8
0
 10
6.3010992862072008
 20
21.345349201980891
 30
0.0
 40
0.4848372877130866
 50
140.84360306470691
 51
186.93802680647761
  0
ARC
  5
168C
  8
0
 10
-452.39794888743648
 20
38.64154813185548
 30
0.0
 40
459.11452230565823
 50
357.89827662472072
 51
357.99063813446588
  0
ARC
  5
168D
  8
0
 10
5.5205444742686867
 20
21.135725136951311
 30
0.0
 40
0.0494108596042551
 50
177.2719648135745
 51
264.59734889791798
  0
ARC
  5
168E
  8
0
 10
3.6024226146349778
 20
13.99581756277545
 30
0.0
 40
0.7922644619142121
 50
184.30979637133939
 51
242.10422369219791
  0
ARC
  5
168F
  8
0
 10
3.6475168966421632
 20
14.039749700562361
 30
0.0
 40
0.8524082333425852
 50
240.80683456714371
 51
311.40512813629732
  0
ARC
  5
1690
  8
0
 10
3.760231315672466
 20
13.959355450341549
 30
0.0
 40
0.7182468330608312
 50
308.90184591529868
 51
358.44376606450629
  0
ARC
  5
1691
  8
0
 10
3.652246564992415
 20
14.078140555151149
 30
0.0
 40
0.8374636747142524
 50
350.49514942552759
 51
48.439985172400341
  0
ARC
  5
1692
  8
0
 10
3.6384889852779332
 20
14.0780971869229
 30
0.0
 40
0.837554793029899
 50
131.5625895556278
 51
189.4910238629441
  0
ARC
  5
1693
  8
0
 10
3.6309224212536551
 20
14.684199713152321
 30
0.0
 40
0.548137506191977
 50
180.76226525499121
 51
271.98790021928778
  0
ARC
  5
1694
  8
0
 10
3.6498539156429262
 20
14.694633852115199
 30
0.0
 40
0.5582417683176454
 50
270.00847184935822
 51
358.179840584673
  0
ARC
  5
1695
  8
0
 10
4.373221193973797
 20
13.78440428759578
 30
0.0
 40
1.584574045395837
 50
144.53969674054031
 51
155.7420502153243
  0
ARC
  5
1696
  8
0
 10
3.8353485881935199
 20
14.05262364718519
 30
0.0
 40
0.9842780757900259
 50
157.11331031677739
 51
177.77055814604429
  0
ARC
  5
1697
  8
0
 10
3.5464881167410831
 20
14.0631332328339
 30
0.0
 40
0.6952278073782378
 50
177.70995063208889
 51
225.91526696468881
  0
ARC
  5
1698
  8
0
 10
3.6273938424076788
 20
14.23831301975863
 30
0.0
 40
0.8796631815906671
 50
230.0718934185582
 51
271.16790775716248
  0
ARC
  5
1699
  8
0
 10
3.6959624568864911
 20
14.126755534914849
 30
0.0
 40
0.7695907631152875
 50
266.22722936775892
 51
332.23529910575093
  0
ARC
  5
169A
  8
0
 10
3.5990815124139459
 20
14.084675855847911
 30
0.0
 40
0.8397642587505027
 50
337.86405940980558
 51
24.688744586819471
  0
ARC
  5
169B
  8
0
 10
3.0966863625718979
 20
13.88956645848176
 30
0.0
 40
1.378115496627256
 50
23.334496409239279
 51
36.266639200491333
  0
ATTDEF
  5
1C0B
  8
DEFPOINTS
 10
3.64359174009192
 20
21.829540559203949
 30
0.0
 40
0.001
  1
METAL
  3

  2
MATERIAL
 70
     0
1001
ACDBATTR
1070
     0
1070
     1
  0
ATTDEF
  5
1C0C
  8
DEFPOINTS
 10
3.64359174009192
 20
21.831207225870621
 30
0.0
 40
0.001
  1
KITCHEN SINK FAUCET
  3

  2
PRODUCT
 70
     0
1001
ACDBATTR
1070
     0
1070
     1
  0
ATTDEF
  5
1C0D
  8
DEFPOINTS
 10
3.64359174009192
 20
21.83287389253729
 30
0.0
 40
0.001
  1
BELLERA
  3

  2
TRADENAME
 70
     0
1001
ACDBATTR
1070
     0
1070
     1
  0
ATTDEF
  5
1C0E
  8
DEFPOINTS
 10
3.64359174009192
 20
21.834540559203951
 30
0.0
 40
0.001
  1
K-560
  3

  2
MODELNUMBER
 70
     0
1001
ACDBATTR
1070
     0
1070
     1
  0
ENDSEC
  0
EOF
