  0
SECTION
  2
HEADER
  9
$ACADVER
  1
AC1015
  9
$ACADMAINTVER
 70
    20
  9
$DWGCODEPAGE
  3
ANSI_1252
  9
$INSBASE
 10
0.0
 20
0.0
 30
0.0
  9
$EXTMIN
 10
-5.00002384185791
 20
-0.449800729751587
 30
-7.895176887512207
  9
$EXTMAX
 10
5.00002384185791
 20
0.449800729751587
 30
7.895176887512207
  9
$LIMMIN
 10
0.0
 20
0.0
  9
$LIMMAX
 10
12.0
 20
9.0
  9
$ORTHOMODE
 70
     0
  9
$REGENMODE
 70
     1
  9
$FILLMODE
 70
     1
  9
$QTEXTMODE
 70
     0
  9
$MIRRTEXT
 70
     1
  9
$LTSCALE
 40
1.0
  9
$ATTMODE
 70
     1
  9
$TEXTSIZE
 40
0.2
  9
$TRACEWID
 40
0.05
  9
$TEXTSTYLE
  7
Standard
  9
$CLAYER
  8
0
  9
$CELTYPE
  6
ByLayer
  9
$CECOLOR
 62
   256
  9
$CELTSCALE
 40
1.0
  9
$DISPSILH
 70
     0
  9
$DIMSCALE
 40
1.0
  9
$DIMASZ
 40
0.18
  9
$DIMEXO
 40
0.0625
  9
$DIMDLI
 40
0.38
  9
$DIMRND
 40
0.0
  9
$DIMDLE
 40
0.0
  9
$DIMEXE
 40
0.18
  9
$DIMTP
 40
0.0
  9
$DIMTM
 40
0.0
  9
$DIMTXT
 40
0.18
  9
$DIMCEN
 40
0.09
  9
$DIMTSZ
 40
0.0
  9
$DIMTOL
 70
     0
  9
$DIMLIM
 70
     0
  9
$DIMTIH
 70
     1
  9
$DIMTOH
 70
     1
  9
$DIMSE1
 70
     0
  9
$DIMSE2
 70
     0
  9
$DIMTAD
 70
     0
  9
$DIMZIN
 70
     0
  9
$DIMBLK
  1

  9
$DIMASO
 70
     1
  9
$DIMSHO
 70
     1
  9
$DIMPOST
  1

  9
$DIMAPOST
  1

  9
$DIMALT
 70
     0
  9
$DIMALTD
 70
     2
  9
$DIMALTF
 40
25.4
  9
$DIMLFAC
 40
1.0
  9
$DIMTOFL
 70
     0
  9
$DIMTVP
 40
0.0
  9
$DIMTIX
 70
     0
  9
$DIMSOXD
 70
     0
  9
$DIMSAH
 70
     0
  9
$DIMBLK1
  1

  9
$DIMBLK2
  1

  9
$DIMSTYLE
  2
Standard
  9
$DIMCLRD
 70
     0
  9
$DIMCLRE
 70
     0
  9
$DIMCLRT
 70
     0
  9
$DIMTFAC
 40
1.0
  9
$DIMGAP
 40
0.09
  9
$DIMJUST
 70
     0
  9
$DIMSD1
 70
     0
  9
$DIMSD2
 70
     0
  9
$DIMTOLJ
 70
     1
  9
$DIMTZIN
 70
     0
  9
$DIMALTZ
 70
     0
  9
$DIMALTTZ
 70
     0
  9
$DIMUPT
 70
     0
  9
$DIMDEC
 70
     4
  9
$DIMTDEC
 70
     4
  9
$DIMALTU
 70
     2
  9
$DIMALTTD
 70
     2
  9
$DIMTXSTY
  7
Standard
  9
$DIMAUNIT
 70
     0
  9
$DIMADEC
 70
     0
  9
$DIMALTRND
 40
0.0
  9
$DIMAZIN
 70
     0
  9
$DIMDSEP
 70
    46
  9
$DIMATFIT
 70
     3
  9
$DIMFRAC
 70
     0
  9
$DIMLDRBLK
  1

  9
$DIMLUNIT
 70
     2
  9
$DIMLWD
 70
    -2
  9
$DIMLWE
 70
    -2
  9
$DIMTMOVE
 70
     0
  9
$LUNITS
 70
     2
  9
$LUPREC
 70
     4
  9
$SKETCHINC
 40
0.1
  9
$FILLETRAD
 40
0.5
  9
$AUNITS
 70
     0
  9
$AUPREC
 70
     0
  9
$MENU
  1
.
  9
$ELEVATION
 40
0.0
  9
$PELEVATION
 40
0.0
  9
$THICKNESS
 40
0.0
  9
$LIMCHECK
 70
     0
  9
$CHAMFERA
 40
0.5
  9
$CHAMFERB
 40
0.5
  9
$CHAMFERC
 40
1.0
  9
$CHAMFERD
 40
0.0
  9
$SKPOLY
 70
     0
  9
$TDCREATE
 40
2451380.638765729
  9
$TDUCREATE
 40
2451380.805432396
  9
$TDUPDATE
 40
2456772.431933935
  9
$TDUUPDATE
 40
2456772.598600602
  9
$TDINDWG
 40
0.0088479398
  9
$TDUSRTIMER
 40
0.0088389005
  9
$USRTIMER
 70
     1
  9
$ANGBASE
 50
0.0
  9
$ANGDIR
 70
     0
  9
$PDMODE
 70
     0
  9
$PDSIZE
 40
0.0
  9
$PLINEWID
 40
0.0
  9
$SPLFRAME
 70
     0
  9
$SPLINETYPE
 70
     6
  9
$SPLINESEGS
 70
     8
  9
$HANDSEED
  5
59B
  9
$SURFTAB1
 70
     6
  9
$SURFTAB2
 70
     6
  9
$SURFTYPE
 70
     6
  9
$SURFU
 70
     6
  9
$SURFV
 70
     6
  9
$UCSBASE
  2

  9
$UCSNAME
  2

  9
$UCSORG
 10
0.0
 20
0.0
 30
0.0
  9
$UCSXDIR
 10
1.0
 20
0.0
 30
0.0
  9
$UCSYDIR
 10
0.0
 20
1.0
 30
0.0
  9
$UCSORTHOREF
  2

  9
$UCSORTHOVIEW
 70
     0
  9
$UCSORGTOP
 10
0.0
 20
0.0
 30
0.0
  9
$UCSORGBOTTOM
 10
0.0
 20
0.0
 30
0.0
  9
$UCSORGLEFT
 10
0.0
 20
0.0
 30
0.0
  9
$UCSORGRIGHT
 10
0.0
 20
0.0
 30
0.0
  9
$UCSORGFRONT
 10
0.0
 20
0.0
 30
0.0
  9
$UCSORGBACK
 10
0.0
 20
0.0
 30
0.0
  9
$PUCSBASE
  2

  9
$PUCSNAME
  2

  9
$PUCSORG
 10
0.0
 20
0.0
 30
0.0
  9
$PUCSXDIR
 10
1.0
 20
0.0
 30
0.0
  9
$PUCSYDIR
 10
0.0
 20
1.0
 30
0.0
  9
$PUCSORTHOREF
  2

  9
$PUCSORTHOVIEW
 70
     0
  9
$PUCSORGTOP
 10
0.0
 20
0.0
 30
0.0
  9
$PUCSORGBOTTOM
 10
0.0
 20
0.0
 30
0.0
  9
$PUCSORGLEFT
 10
0.0
 20
0.0
 30
0.0
  9
$PUCSORGRIGHT
 10
0.0
 20
0.0
 30
0.0
  9
$PUCSORGFRONT
 10
0.0
 20
0.0
 30
0.0
  9
$PUCSORGBACK
 10
0.0
 20
0.0
 30
0.0
  9
$USERI1
 70
     0
  9
$USERI2
 70
     0
  9
$USERI3
 70
     0
  9
$USERI4
 70
     0
  9
$USERI5
 70
     0
  9
$USERR1
 40
0.0
  9
$USERR2
 40
0.0
  9
$USERR3
 40
0.0
  9
$USERR4
 40
0.0
  9
$USERR5
 40
0.0
  9
$WORLDVIEW
 70
     1
  9
$SHADEDGE
 70
     3
  9
$SHADEDIF
 70
    70
  9
$TILEMODE
 70
     1
  9
$MAXACTVP
 70
    64
  9
$PINSBASE
 10
0.0
 20
0.0
 30
0.0
  9
$PLIMCHECK
 70
     0
  9
$PEXTMIN
 10
1.000000000000000E+20
 20
1.000000000000000E+20
 30
1.000000000000000E+20
  9
$PEXTMAX
 10
-1.000000000000000E+20
 20
-1.000000000000000E+20
 30
-1.000000000000000E+20
  9
$PLIMMIN
 10
0.0
 20
0.0
  9
$PLIMMAX
 10
12.0
 20
9.0
  9
$UNITMODE
 70
     0
  9
$VISRETAIN
 70
     1
  9
$PLINEGEN
 70
     0
  9
$PSLTSCALE
 70
     1
  9
$TREEDEPTH
 70
  3020
  9
$CMLSTYLE
  2
Standard
  9
$CMLJUST
 70
     0
  9
$CMLSCALE
 40
1.0
  9
$PROXYGRAPHICS
 70
     1
  9
$MEASUREMENT
 70
     0
  9
$CELWEIGHT
370
    -1
  9
$ENDCAPS
280
     0
  9
$JOINSTYLE
280
     0
  9
$LWDISPLAY
290
     0
  9
$INSUNITS
 70
     1
  9
$HYPERLINKBASE
  1

  9
$STYLESHEET
  1

  9
$XEDIT
290
     1
  9
$CEPSNTYPE
380
     0
  9
$PSTYLEMODE
290
     1
  9
$FINGERPRINTGUID
  2
{12F50282-3ED8-11D3-A8B7-0060B0F84BC6}
  9
$VERSIONGUID
  2
{12F50293-3ED8-11D3-A8B7-0060B0F84BC6}
  9
$EXTNAMES
290
     1
  9
$PSVPSCALE
 40
0.0
  9
$OLESTARTUP
290
     0
  0
ENDSEC
  0
SECTION
  2
CLASSES
  0
CLASS
  1
ACDBDICTIONARYWDFLT
  2
AcDbDictionaryWithDefault
  3
ObjectDBX Classes
 90
        0
280
     0
281
     0
  0
CLASS
  1
ACDBPLACEHOLDER
  2
AcDbPlaceHolder
  3
ObjectDBX Classes
 90
        0
280
     0
281
     0
  0
CLASS
  1
LAYOUT
  2
AcDbLayout
  3
ObjectDBX Classes
 90
        0
280
     0
281
     0
  0
CLASS
  1
MATERIAL
  2
AcDbMaterial
  3
ObjectDBX Classes
 90
     1153
280
     0
281
     0
  0
CLASS
  1
VISUALSTYLE
  2
AcDbVisualStyle
  3
ObjectDBX Classes
 90
     4095
280
     0
281
     0
  0
CLASS
  1
TABLESTYLE
  2
AcDbTableStyle
  3
ObjectDBX Classes
 90
     4095
280
     0
281
     0
  0
CLASS
  1
SCALE
  2
AcDbScale
  3
ObjectDBX Classes
 90
     1153
280
     0
281
     0
  0
CLASS
  1
MLEADERSTYLE
  2
AcDbMLeaderStyle
  3
ACDB_MLEADERSTYLE_CLASS
 90
     4095
280
     0
281
     0
  0
CLASS
  1
ACDBSECTIONVIEWSTYLE
  2
AcDbSectionViewStyle
  3
ObjectDBX Classes
 90
     1025
280
     0
281
     0
  0
CLASS
  1
ACDBDETAILVIEWSTYLE
  2
AcDbDetailViewStyle
  3
ObjectDBX Classes
 90
     1025
280
     0
281
     0
  0
CLASS
  1
CELLSTYLEMAP
  2
AcDbCellStyleMap
  3
ObjectDBX Classes
 90
     1152
280
     0
281
     0
  0
CLASS
  1
DICTIONARYVAR
  2
AcDbDictionaryVar
  3
ObjectDBX Classes
 90
        0
280
     0
281
     0
  0
ENDSEC
  0
SECTION
  2
TABLES
  0
TABLE
  2
VPORT
  5
8
330
0
100
AcDbSymbolTable
 70
     1
  0
VPORT
  5
A8
330
8
100
AcDbSymbolTableRecord
100
AcDbViewportTableRecord
  2
*Active
 70
     0
 10
0.0
 20
0.0
 11
1.0
 21
1.0
 12
20.28976381924599
 22
0.0
 13
0.0
 23
0.0
 14
0.5
 24
0.5
 15
0.5
 25
0.5
 16
-1.0
 26
-1.0
 36
1.0
 17
0.0
 27
0.0
 37
0.0
 40
21.24017834649265
 41
2.35491905354919
 42
50.0
 43
0.0
 44
0.0
 50
0.0
 51
0.0
 71
     0
 72
   100
 73
     1
 74
     3
 75
     0
 76
     0
 77
     0
 78
     0
281
     0
 65
     1
110
0.0
120
0.0
130
0.0
111
1.0
121
0.0
131
0.0
112
0.0
122
1.0
132
0.0
 79
     0
146
0.0
1001
ACAD_NAV_VCDISPLAY
1070
     3
  0
ENDTAB
  0
TABLE
  2
LTYPE
  5
5
330
0
100
AcDbSymbolTable
 70
     1
  0
LTYPE
  5
14
330
5
100
AcDbSymbolTableRecord
100
AcDbLinetypeTableRecord
  2
ByBlock
 70
     0
  3

 72
    65
 73
     0
 40
0.0
  0
LTYPE
  5
15
330
5
100
AcDbSymbolTableRecord
100
AcDbLinetypeTableRecord
  2
ByLayer
 70
     0
  3

 72
    65
 73
     0
 40
0.0
  0
LTYPE
  5
16
330
5
100
AcDbSymbolTableRecord
100
AcDbLinetypeTableRecord
  2
Continuous
 70
     0
  3
Solid line
 72
    65
 73
     0
 40
0.0
  0
ENDTAB
  0
TABLE
  2
LAYER
  5
2
330
0
100
AcDbSymbolTable
 70
     2
  0
LAYER
  5
10
102
{ACAD_XDICTIONARY
360
50D
102
}
330
2
100
AcDbSymbolTableRecord
100
AcDbLayerTableRecord
  2
0
 70
     0
 62
     9
  6
Continuous
370
    -3
390
F
  0
LAYER
  5
2B
102
{ACAD_XDICTIONARY
360
50F
102
}
330
2
100
AcDbSymbolTableRecord
100
AcDbLayerTableRecord
  2
ASHADE
 70
     4
 62
     7
  6
Continuous
370
    -3
390
2D
  0
ENDTAB
  0
TABLE
  2
STYLE
  5
3
330
0
100
AcDbSymbolTable
 70
     2
  0
STYLE
  5
11
330
3
100
AcDbSymbolTableRecord
100
AcDbTextStyleTableRecord
  2
Standard
 70
     0
 40
0.0
 41
1.0
 50
0.0
 71
     0
 42
0.2
  3
txt
  4

  0
STYLE
  5
2C
330
3
100
AcDbSymbolTableRecord
100
AcDbTextStyleTableRecord
  2
ASHADE
 70
     0
 40
0.2
 41
1.0
 50
0.0
 71
     0
 42
0.2
  3
simplex
  4

  0
ENDTAB
  0
TABLE
  2
VIEW
  5
6
330
0
100
AcDbSymbolTable
 70
     0
  0
ENDTAB
  0
TABLE
  2
UCS
  5
7
330
0
100
AcDbSymbolTable
 70
     0
  0
ENDTAB
  0
TABLE
  2
APPID
  5
9
330
0
100
AcDbSymbolTable
 70
     8
  0
APPID
  5
12
330
9
100
AcDbSymbolTableRecord
100
AcDbRegAppTableRecord
  2
ACAD
 70
     0
  0
APPID
  5
8F
330
9
100
AcDbSymbolTableRecord
100
AcDbRegAppTableRecord
  2
AVE_RENDER
 70
     0
  0
APPID
  5
90
330
9
100
AcDbSymbolTableRecord
100
AcDbRegAppTableRecord
  2
AVE_ENTITY_MATERIAL
 70
     0
  0
APPID
  5
9C
330
9
100
AcDbSymbolTableRecord
100
AcDbRegAppTableRecord
  2
AVE_FINISH
 70
     0
  0
APPID
  5
9D
330
9
100
AcDbSymbolTableRecord
100
AcDbRegAppTableRecord
  2
AVE_MATERIAL
 70
     0
  0
APPID
  5
9E
330
9
100
AcDbSymbolTableRecord
100
AcDbRegAppTableRecord
  2
AVE_GLOBAL
 70
     0
  0
APPID
  5
4F6
330
9
100
AcDbSymbolTableRecord
100
AcDbRegAppTableRecord
  2
ACAD_MLEADERVER
 70
     0
  0
APPID
  5
511
330
9
100
AcDbSymbolTableRecord
100
AcDbRegAppTableRecord
  2
ACAD_NAV_VCDISPLAY
 70
     0
  0
ENDTAB
  0
TABLE
  2
DIMSTYLE
  5
A
330
0
100
AcDbSymbolTable
 70
     1
100
AcDbDimStyleTable
 71
     0
  0
DIMSTYLE
105
27
330
A
100
AcDbSymbolTableRecord
100
AcDbDimStyleTableRecord
  2
Standard
 70
     0
340
11
  0
ENDTAB
  0
TABLE
  2
BLOCK_RECORD
  5
1
330
0
100
AcDbSymbolTable
 70
     6
  0
BLOCK_RECORD
  5
1F
330
1
100
AcDbSymbolTableRecord
100
AcDbBlockTableRecord
  2
*Model_Space
340
22
  0
BLOCK_RECORD
  5
1B
330
1
100
AcDbSymbolTableRecord
100
AcDbBlockTableRecord
  2
*Paper_Space
340
1E
  0
BLOCK_RECORD
  5
23
330
1
100
AcDbSymbolTableRecord
100
AcDbBlockTableRecord
  2
*Paper_Space0
340
26
  0
BLOCK_RECORD
  5
2E
330
1
100
AcDbSymbolTableRecord
100
AcDbBlockTableRecord
  2
direct
340
0
  0
BLOCK_RECORD
  5
42
330
1
100
AcDbSymbolTableRecord
100
AcDbBlockTableRecord
  2
overhead
340
0
  0
BLOCK_RECORD
  5
5F
330
1
100
AcDbSymbolTableRecord
100
AcDbBlockTableRecord
  2
sh_spot
340
0
  0
BLOCK_RECORD
  5
91
330
1
100
AcDbSymbolTableRecord
100
AcDbBlockTableRecord
  2
AVE_RENDER
340
0
102
{BLKREFS
331
94
331
95
331
96
331
97
331
98
331
99
331
9A
331
9B
102
}
  0
BLOCK_RECORD
  5
9F
330
1
100
AcDbSymbolTableRecord
100
AcDbBlockTableRecord
  2
AVE_GLOBAL
340
0
102
{BLKREFS
331
A2
102
}
  0
ENDTAB
  0
ENDSEC
  0
SECTION
  2
BLOCKS
  0
BLOCK
  5
20
330
1F
100
AcDbEntity
  8
0
100
AcDbBlockBegin
  2
*Model_Space
 70
     0
 10
0.0
 20
0.0
 30
0.0
  3
*Model_Space
  1

  0
ENDBLK
  5
21
330
1F
100
AcDbEntity
  8
0
100
AcDbBlockEnd
  0
BLOCK
  5
1C
330
1B
100
AcDbEntity
 67
     1
  8
0
100
AcDbBlockBegin
  2
*Paper_Space
 70
     0
 10
0.0
 20
0.0
 30
0.0
  3
*Paper_Space
  1

  0
ENDBLK
  5
1D
330
1B
100
AcDbEntity
 67
     1
  8
0
100
AcDbBlockEnd
  0
BLOCK
  5
24
330
23
100
AcDbEntity
 67
     1
  8
0
100
AcDbBlockBegin
  2
*Paper_Space0
 70
     0
 10
0.0
 20
0.0
 30
0.0
  3
*Paper_Space0
  1

  0
ENDBLK
  5
25
330
23
100
AcDbEntity
 67
     1
  8
0
100
AcDbBlockEnd
  0
BLOCK
  5
40
330
2E
100
AcDbEntity
  8
0
100
AcDbBlockBegin
  2
direct
 70
     2
 10
0.0
 20
0.0
 30
0.0
  3
direct
  1

  0
ATTDEF
  5
2F
330
2E
100
AcDbEntity
  8
ASHADE
  6
Continuous
 62
     1
100
AcDbText
 10
0.0
 20
-0.1
 30
0.0
 40
0.2
  1

  7
ASHADE
 72
     1
 11
0.0
 21
-0.1
 31
0.0
100
AcDbAttributeDefinition
  3
Light Name
  2
SNAME
 70
     0
  0
ARC
  5
30
330
2E
100
AcDbEntity
  8
ASHADE
  6
Continuous
 62
     7
100
AcDbCircle
 10
0.0
 20
0.0
 30
0.0
 40
0.3
100
AcDbArc
 50
205.6792886194569
 51
334.3207113805431
  0
ARC
  5
31
330
2E
100
AcDbEntity
  8
ASHADE
  6
Continuous
 62
     7
100
AcDbCircle
 10
0.0
 20
0.0
 30
0.0
 40
0.3
100
AcDbArc
 50
25.67928861945685
 51
154.3207113805431
  0
LINE
  5
32
330
2E
100
AcDbEntity
  8
ASHADE
  6
Continuous
 62
     7
100
AcDbLine
 10
-0.21
 20
0.2142428528562855
 30
0.0
 11
-0.21
 21
0.5
 31
0.0
  0
LINE
  5
33
330
2E
100
AcDbEntity
  8
ASHADE
  6
Continuous
 62
     7
100
AcDbLine
 10
-0.11
 20
0.2791057147390572
 30
0.0
 11
-0.11
 21
0.5
 31
0.0
  0
LINE
  5
34
330
2E
100
AcDbEntity
  8
ASHADE
  6
Continuous
 62
     7
100
AcDbLine
 10
0.21
 20
0.2142428528562855
 30
0.0
 11
0.21
 21
0.5
 31
0.0
  0
ATTDEF
  5
35
330
2E
100
AcDbEntity
  8
ASHADE
  6
Continuous
 62
     7
100
AcDbText
 10
0.0
 20
0.25
 30
0.0
 40
0.01
  1

100
AcDbAttributeDefinition
  3
Look-at Y
  2
LAY
 70
     1
  0
ATTDEF
  5
36
330
2E
100
AcDbEntity
  8
ASHADE
  6
Continuous
 62
     7
100
AcDbText
 10
0.0
 20
0.22
 30
0.0
 40
0.01
  1
1
100
AcDbAttributeDefinition
  3
Light Intensity
  2
INTENSITY
 70
     1
  0
ATTDEF
  5
37
330
2E
100
AcDbEntity
  8
ASHADE
  6
Continuous
 62
     7
100
AcDbText
 10
0.0
 20
0.16
 30
0.0
 40
0.01
  1
-1
100
AcDbAttributeDefinition
  3
*not used*
  2
BEAMD
 70
     1
  0
ATTDEF
  5
38
330
2E
100
AcDbEntity
  8
ASHADE
  6
Continuous
 62
     7
100
AcDbText
 10
0.0
 20
0.175
 30
0.0
 40
0.01
  1
-1
100
AcDbAttributeDefinition
  3
*not used*
  2
CONED
 70
     1
  0
ATTDEF
  5
39
330
2E
100
AcDbEntity
  8
ASHADE
  6
Continuous
 62
     7
100
AcDbText
 10
0.0
 20
0.19
 30
0.0
 40
0.01
  1
0
100
AcDbAttributeDefinition
  3
Depth Map Size
  2
CONEA
 70
     1
  0
ATTDEF
  5
3A
330
2E
100
AcDbEntity
  8
ASHADE
  6
Continuous
 62
     7
100
AcDbText
 10
0.0
 20
0.2050000000000001
 30
0.0
 40
0.01
  1
1,1,1
100
AcDbAttributeDefinition
  3
Light Color (RGB)
  2
COLOR
 70
     1
  0
ATTDEF
  5
3B
330
2E
100
AcDbEntity
  8
ASHADE
  6
Continuous
 62
     7
100
AcDbText
 10
0.0
 20
0.235
 30
0.0
 40
0.01
  1

100
AcDbAttributeDefinition
  3
Look-at Z
  2
LAZ
 70
     1
  0
LINE
  5
3C
330
2E
100
AcDbEntity
  8
ASHADE
  6
Continuous
 62
     7
100
AcDbLine
 10
0.0
 20
0.3
 30
0.0
 11
0.0
 21
0.5
 31
0.0
  0
LINE
  5
3D
330
2E
100
AcDbEntity
  8
ASHADE
  6
Continuous
 62
     7
100
AcDbLine
 10
0.11
 20
0.2791057147390572
 30
0.0
 11
0.11
 21
0.5
 31
0.0
  0
ATTDEF
  5
3E
330
2E
100
AcDbEntity
  8
ASHADE
  6
Continuous
 62
     7
100
AcDbText
 10
0.0
 20
0.265
 30
0.0
 40
0.01
  1

100
AcDbAttributeDefinition
  3
Look-at X
  2
LAX
 70
     1
  0
ATTDEF
  5
3F
330
2E
100
AcDbEntity
  8
ASHADE
  6
Continuous
 62
     7
100
AcDbText
 10
0.0
 20
0.28
 30
0.0
 40
0.01
  1

100
AcDbAttributeDefinition
  3

  2
GNAME
 70
     1
  0
ENDBLK
  5
41
330
2E
100
AcDbEntity
  8
0
100
AcDbBlockEnd
  0
BLOCK
  5
5D
330
42
100
AcDbEntity
  8
0
100
AcDbBlockBegin
  2
overhead
 70
     2
 10
0.0
 20
0.0
 30
0.0
  3
overhead
  1

  0
ATTDEF
  5
43
330
42
100
AcDbEntity
  8
ASHADE
  6
Continuous
 62
     1
100
AcDbText
 10
0.0
 20
-0.1
 30
0.0
 40
0.2
  1

  7
ASHADE
 72
     1
 11
0.0
 21
-0.1
 31
0.0
100
AcDbAttributeDefinition
  3
Light Name
  2
SNAME
 70
     0
  0
ARC
  5
44
330
42
100
AcDbEntity
  8
ASHADE
  6
Continuous
 62
     7
100
AcDbCircle
 10
0.0
 20
0.0
 30
0.0
 40
0.3
100
AcDbArc
 50
205.6792886194569
 51
334.3207113805431
  0
LINE
  5
45
330
42
100
AcDbEntity
  8
ASHADE
  6
Continuous
 62
     7
100
AcDbLine
 10
-0.2041413561583015
 20
-0.2198324514393848
 30
0.0
 11
-0.2721884748777353
 21
-0.2931099352525131
 31
0.0
  0
LINE
  5
46
330
42
100
AcDbEntity
  8
ASHADE
  6
Continuous
 62
     7
100
AcDbLine
 10
-0.1096591641591904
 20
-0.2792398032442862
 30
0.0
 11
-0.1279356915190555
 21
-0.3257797704516673
 31
0.0
  0
LINE
  5
47
330
42
100
AcDbEntity
  8
ASHADE
  6
Continuous
 62
     7
100
AcDbLine
 10
0.0
 20
-0.2999999999999999
 30
0.0
 11
0.0
 21
-0.4
 31
0.0
  0
LINE
  5
48
330
42
100
AcDbEntity
  8
ASHADE
  6
Continuous
 62
     7
100
AcDbLine
 10
0.1096591641591904
 20
-0.2792398032442862
 30
0.0
 11
0.1279356915190555
 21
-0.3257797704516673
 31
0.0
  0
LINE
  5
49
330
42
100
AcDbEntity
  8
ASHADE
  6
Continuous
 62
     7
100
AcDbLine
 10
0.2041413561583015
 20
-0.2198324514393848
 30
0.0
 11
0.2721884748777353
 21
-0.2931099352525131
 31
0.0
  0
ARC
  5
4A
330
42
100
AcDbEntity
  8
ASHADE
  6
Continuous
 62
     7
100
AcDbCircle
 10
0.0
 20
0.0
 30
0.0
 40
0.3
100
AcDbArc
 50
25.67928861945685
 51
154.3207113805431
  0
LINE
  5
4B
330
42
100
AcDbEntity
  8
ASHADE
  6
Continuous
 62
     7
100
AcDbLine
 10
-0.2703701166919155
 20
0.13
 30
0.0
 11
-0.3154318028072347
 21
0.1516666666666666
 31
0.0
  0
LINE
  5
4C
330
42
100
AcDbEntity
  8
ASHADE
  6
Continuous
 62
     7
100
AcDbLine
 10
-0.2703701166919155
 20
-0.13
 30
0.0
 11
-0.3154318028072347
 21
-0.1516666666666666
 31
0.0
  0
LINE
  5
4D
330
42
100
AcDbEntity
  8
ASHADE
  6
Continuous
 62
     7
100
AcDbLine
 10
-0.2041413561583015
 20
0.2198324514393849
 30
0.0
 11
-0.2721884748777353
 21
0.2931099352525131
 31
0.0
  0
LINE
  5
4E
330
42
100
AcDbEntity
  8
ASHADE
  6
Continuous
 62
     7
100
AcDbLine
 10
-0.1096591641591904
 20
0.2792398032442862
 30
0.0
 11
-0.1279356915190555
 21
0.3257797704516674
 31
0.0
  0
LINE
  5
4F
330
42
100
AcDbEntity
  8
ASHADE
  6
Continuous
 62
     7
100
AcDbLine
 10
0.2703701166919155
 20
-0.13
 30
0.0
 11
0.3154318028072347
 21
-0.1516666666666666
 31
0.0
  0
LINE
  5
50
330
42
100
AcDbEntity
  8
ASHADE
  6
Continuous
 62
     7
100
AcDbLine
 10
0.2703701166919155
 20
0.13
 30
0.0
 11
0.3154318028072347
 21
0.1516666666666666
 31
0.0
  0
LINE
  5
51
330
42
100
AcDbEntity
  8
ASHADE
  6
Continuous
 62
     7
100
AcDbLine
 10
0.0
 20
0.3
 30
0.0
 11
0.0
 21
0.4
 31
0.0
  0
ATTDEF
  5
52
330
42
100
AcDbEntity
  8
ASHADE
  6
Continuous
 62
     7
100
AcDbText
 10
0.0
 20
0.22
 30
0.0
 40
0.01
  1
1
100
AcDbAttributeDefinition
  3
Light Intensity
  2
INTENSITY
 70
     1
  0
ATTDEF
  5
53
330
42
100
AcDbEntity
  8
ASHADE
  6
Continuous
 62
     7
100
AcDbText
 10
0.0
 20
0.16
 30
0.0
 40
0.01
  1
-1
100
AcDbAttributeDefinition
  3
*not used*
  2
BEAMD
 70
     1
  0
ATTDEF
  5
54
330
42
100
AcDbEntity
  8
ASHADE
  6
Continuous
 62
     7
100
AcDbText
 10
0.0
 20
0.175
 30
0.0
 40
0.01
  1
-1
100
AcDbAttributeDefinition
  3
*not used*
  2
CONED
 70
     1
  0
ATTDEF
  5
55
330
42
100
AcDbEntity
  8
ASHADE
  6
Continuous
 62
     7
100
AcDbText
 10
0.0
 20
0.19
 30
0.0
 40
0.01
  1
0
100
AcDbAttributeDefinition
  3
Depth Map Size
  2
CONEA
 70
     1
  0
ATTDEF
  5
56
330
42
100
AcDbEntity
  8
ASHADE
  6
Continuous
 62
     7
100
AcDbText
 10
0.0
 20
0.2050000000000001
 30
0.0
 40
0.01
  1
1,1,1
100
AcDbAttributeDefinition
  3
Light Color (RGB)
  2
COLOR
 70
     1
  0
ATTDEF
  5
57
330
42
100
AcDbEntity
  8
ASHADE
  6
Continuous
 62
     7
100
AcDbText
 10
0.0
 20
0.235
 30
0.0
 40
0.01
  1

100
AcDbAttributeDefinition
  3
Look-at Z
  2
LAZ
 70
     1
  0
ATTDEF
  5
58
330
42
100
AcDbEntity
  8
ASHADE
  6
Continuous
 62
     7
100
AcDbText
 10
0.0
 20
0.25
 30
0.0
 40
0.01
  1

100
AcDbAttributeDefinition
  3
Look-at Y
  2
LAY
 70
     1
  0
ATTDEF
  5
59
330
42
100
AcDbEntity
  8
ASHADE
  6
Continuous
 62
     7
100
AcDbText
 10
0.0
 20
0.265
 30
0.0
 40
0.01
  1

100
AcDbAttributeDefinition
  3
Look-at X
  2
LAX
 70
     1
  0
ATTDEF
  5
5A
330
42
100
AcDbEntity
  8
ASHADE
  6
Continuous
 62
     7
100
AcDbText
 10
0.0
 20
0.28
 30
0.0
 40
0.01
  1

100
AcDbAttributeDefinition
  3

  2
GNAME
 70
     1
  0
LINE
  5
5B
330
42
100
AcDbEntity
  8
ASHADE
  6
Continuous
 62
     7
100
AcDbLine
 10
0.1096591641591904
 20
0.2792398032442862
 30
0.0
 11
0.1279356915190555
 21
0.3257797704516674
 31
0.0
  0
LINE
  5
5C
330
42
100
AcDbEntity
  8
ASHADE
  6
Continuous
 62
     7
100
AcDbLine
 10
0.2041413561583015
 20
0.2198324514393849
 30
0.0
 11
0.2721884748777353
 21
0.2931099352525131
 31
0.0
  0
ENDBLK
  5
5E
330
42
100
AcDbEntity
  8
0
100
AcDbBlockEnd
  0
BLOCK
  5
85
330
5F
100
AcDbEntity
  8
0
100
AcDbBlockBegin
  2
sh_spot
 70
     2
 10
0.0
 20
0.0
 30
0.0
  3
sh_spot
  1

  0
LINE
  5
60
330
5F
100
AcDbEntity
  8
ASHADE
  6
Continuous
 62
     7
100
AcDbLine
 10
0.25
 20
0.26
 30
0.0
 11
-0.25
 21
0.26
 31
0.0
  0
LINE
  5
61
330
5F
100
AcDbEntity
  8
ASHADE
  6
Continuous
 62
     7
100
AcDbLine
 10
-0.25
 20
-0.3399999999999999
 30
0.0
 11
0.25
 21
-0.3399999999999999
 31
0.0
  0
ATTDEF
  5
62
330
5F
100
AcDbEntity
  8
ASHADE
  6
Continuous
 62
     1
100
AcDbText
 10
0.0
 20
-0.1
 30
0.0
 40
0.2
  1

  7
ASHADE
 72
     1
 11
0.0
 21
-0.1
 31
0.0
100
AcDbAttributeDefinition
  3
Light Name
  2
SNAME
 70
     0
  0
LINE
  5
63
330
5F
100
AcDbEntity
  8
ASHADE
  6
Continuous
 62
     7
100
AcDbLine
 10
-0.25
 20
-0.13
 30
0.0
 11
-0.25
 21
-0.3399999999999999
 31
0.0
  0
LINE
  5
64
330
5F
100
AcDbEntity
  8
ASHADE
  6
Continuous
 62
     7
100
AcDbLine
 10
-0.25
 20
-0.18
 30
0.0
 11
-0.29
 21
-0.18
 31
0.0
  0
LINE
  5
65
330
5F
100
AcDbEntity
  8
ASHADE
  6
Continuous
 62
     7
100
AcDbLine
 10
-0.29
 20
-0.22
 30
0.0
 11
-0.25
 21
-0.22
 31
0.0
  0
LINE
  5
66
330
5F
100
AcDbEntity
  8
ASHADE
  6
Continuous
 62
     7
100
AcDbLine
 10
-0.29
 20
-0.18
 30
0.0
 11
-0.29
 21
-0.22
 31
0.0
  0
LINE
  5
67
330
5F
100
AcDbEntity
  8
ASHADE
  6
Continuous
 62
     7
100
AcDbLine
 10
-0.1045454545454545
 20
0.26
 30
0.0
 11
-0.15
 21
0.46
 31
0.0
  0
LINE
  5
68
330
5F
100
AcDbEntity
  8
ASHADE
  6
Continuous
 62
     7
100
AcDbLine
 10
-0.21
 20
0.26
 30
0.0
 11
-0.301304347826087
 21
0.46
 31
0.0
  0
LINE
  5
69
330
5F
100
AcDbEntity
  8
ASHADE
  6
Continuous
 62
     7
100
AcDbLine
 10
-0.25
 20
0.26
 30
0.0
 11
-0.25
 21
0.13
 31
0.0
  0
LINE
  5
6A
330
5F
100
AcDbEntity
  8
ASHADE
  6
Continuous
 62
     7
100
AcDbLine
 10
-0.25
 20
0.22
 30
0.0
 11
-0.29
 21
0.22
 31
0.0
  0
LINE
  5
6B
330
5F
100
AcDbEntity
  8
ASHADE
  6
Continuous
 62
     7
100
AcDbLine
 10
-0.29
 20
0.1799999999999999
 30
0.0
 11
-0.25
 21
0.1799999999999999
 31
0.0
  0
LINE
  5
6C
330
5F
100
AcDbEntity
  8
ASHADE
  6
Continuous
 62
     7
100
AcDbLine
 10
-0.29
 20
0.22
 30
0.0
 11
-0.29
 21
0.1799999999999999
 31
0.0
  0
ATTDEF
  5
6D
330
5F
100
AcDbEntity
  8
ASHADE
  6
Continuous
 62
     7
100
AcDbText
 10
0.0
 20
-0.24
 30
0.0
 40
0.01
  1
0
100
AcDbAttributeDefinition
  3
Depth Map Size
  2
ZSIZE
 70
     1
  0
ATTDEF
  5
6E
330
5F
100
AcDbEntity
  8
ASHADE
  6
Continuous
 62
     7
100
AcDbText
 10
0.0
 20
-0.3300000000000001
 30
0.0
 40
0.01
  1
0,0,0
100
AcDbAttributeDefinition
  3
Look-from XYZ
  2
LFXYZ
 70
     1
  0
ATTDEF
  5
6F
330
5F
100
AcDbEntity
  8
ASHADE
  6
Continuous
 62
     7
100
AcDbText
 10
0.0
 20
-0.315
 30
0.0
 40
0.01
  1
0.0
100
AcDbAttributeDefinition
  3
Beam Distribution
  2
BEAMDI
 70
     1
  0
ATTDEF
  5
70
330
5F
100
AcDbEntity
  8
ASHADE
  6
Continuous
 62
     7
100
AcDbText
 10
0.0
 20
-0.3
 30
0.0
 40
0.01
  1
0.0
100
AcDbAttributeDefinition
  3
Cone Delta
  2
CONEDE
 70
     1
  0
ATTDEF
  5
71
330
5F
100
AcDbEntity
  8
ASHADE
  6
Continuous
 62
     7
100
AcDbText
 10
0.0
 20
-0.2850000000000001
 30
0.0
 40
0.01
  1
10.0
100
AcDbAttributeDefinition
  3
Cone Angle
  2
CONEAN
 70
     1
  0
ATTDEF
  5
72
330
5F
100
AcDbEntity
  8
ASHADE
  6
Continuous
 62
     7
100
AcDbText
 10
0.0
 20
-0.27
 30
0.0
 40
0.01
  1
-1
100
AcDbAttributeDefinition
  3
*not used*
  2
BIASMAX
 70
     1
  0
ATTDEF
  5
73
330
5F
100
AcDbEntity
  8
ASHADE
  6
Continuous
 62
     7
100
AcDbText
 10
0.0
 20
-0.255
 30
0.0
 40
0.01
  1
-1
100
AcDbAttributeDefinition
  3
*not used*
  2
BIASMIN
 70
     1
  0
ATTDEF
  5
74
330
5F
100
AcDbEntity
  8
ASHADE
  6
Continuous
 62
     7
100
AcDbText
 10
0.0
 20
-0.225
 30
0.0
 40
0.01
  1
1,1,1
100
AcDbAttributeDefinition
  3
Light Color (RGB)
  2
COLOR
 70
     1
  0
ATTDEF
  5
75
330
5F
100
AcDbEntity
  8
ASHADE
  6
Continuous
 62
     7
100
AcDbText
 10
0.0
 20
-0.21
 30
0.0
 40
0.01
  1
1
100
AcDbAttributeDefinition
  3
Light Intensity
  2
INTENSITY
 70
     1
  0
ATTDEF
  5
76
330
5F
100
AcDbEntity
  8
ASHADE
  6
Continuous
 62
     7
100
AcDbText
 10
0.0
 20
-0.15
 30
0.0
 40
0.01
  1

100
AcDbAttributeDefinition
  3

  2
GNAME
 70
     1
  0
ATTDEF
  5
77
330
5F
100
AcDbEntity
  8
ASHADE
  6
Continuous
 62
     7
100
AcDbText
 10
0.0
 20
-0.195
 30
0.0
 40
0.01
  1

100
AcDbAttributeDefinition
  3
Look-at Z
  2
LAZ
 70
     1
  0
ATTDEF
  5
78
330
5F
100
AcDbEntity
  8
ASHADE
  6
Continuous
 62
     7
100
AcDbText
 10
0.0
 20
-0.18
 30
0.0
 40
0.01
  1

100
AcDbAttributeDefinition
  3
Look-at Y
  2
LAY
 70
     1
  0
ATTDEF
  5
79
330
5F
100
AcDbEntity
  8
ASHADE
  6
Continuous
 62
     7
100
AcDbText
 10
0.0
 20
-0.165
 30
0.0
 40
0.01
  1

100
AcDbAttributeDefinition
  3
Look-at X
  2
LAX
 70
     1
  0
LINE
  5
7A
330
5F
100
AcDbEntity
  8
ASHADE
  6
Continuous
 62
     7
100
AcDbLine
 10
0.25
 20
-0.3399999999999999
 30
0.0
 11
0.25
 21
-0.13
 31
0.0
  0
LINE
  5
7B
330
5F
100
AcDbEntity
  8
ASHADE
  6
Continuous
 62
     7
100
AcDbLine
 10
0.25
 20
-0.18
 30
0.0
 11
0.29
 21
-0.18
 31
0.0
  0
LINE
  5
7C
330
5F
100
AcDbEntity
  8
ASHADE
  6
Continuous
 62
     7
100
AcDbLine
 10
0.29
 20
-0.22
 30
0.0
 11
0.25
 21
-0.22
 31
0.0
  0
LINE
  5
7D
330
5F
100
AcDbEntity
  8
ASHADE
  6
Continuous
 62
     7
100
AcDbLine
 10
0.29
 20
-0.18
 30
0.0
 11
0.29
 21
-0.22
 31
0.0
  0
LINE
  5
7E
330
5F
100
AcDbEntity
  8
ASHADE
  6
Continuous
 62
     7
100
AcDbLine
 10
0.21
 20
0.26
 30
0.0
 11
0.301304347826087
 21
0.46
 31
0.0
  0
LINE
  5
7F
330
5F
100
AcDbEntity
  8
ASHADE
  6
Continuous
 62
     7
100
AcDbLine
 10
0.1045454545454545
 20
0.26
 30
0.0
 11
0.15
 21
0.46
 31
0.0
  0
LINE
  5
80
330
5F
100
AcDbEntity
  8
ASHADE
  6
Continuous
 62
     7
100
AcDbLine
 10
0.0
 20
0.26
 30
0.0
 11
0.0
 21
0.46
 31
0.0
  0
LINE
  5
81
330
5F
100
AcDbEntity
  8
ASHADE
  6
Continuous
 62
     7
100
AcDbLine
 10
0.25
 20
0.13
 30
0.0
 11
0.25
 21
0.26
 31
0.0
  0
LINE
  5
82
330
5F
100
AcDbEntity
  8
ASHADE
  6
Continuous
 62
     7
100
AcDbLine
 10
0.25
 20
0.22
 30
0.0
 11
0.29
 21
0.22
 31
0.0
  0
LINE
  5
83
330
5F
100
AcDbEntity
  8
ASHADE
  6
Continuous
 62
     7
100
AcDbLine
 10
0.29
 20
0.1799999999999999
 30
0.0
 11
0.25
 21
0.1799999999999999
 31
0.0
  0
LINE
  5
84
330
5F
100
AcDbEntity
  8
ASHADE
  6
Continuous
 62
     7
100
AcDbLine
 10
0.29
 20
0.22
 30
0.0
 11
0.29
 21
0.1799999999999999
 31
0.0
  0
ENDBLK
  5
86
330
5F
100
AcDbEntity
  8
0
100
AcDbBlockEnd
  0
BLOCK
  5
92
330
91
100
AcDbEntity
  8
ASHADE
100
AcDbBlockBegin
  2
AVE_RENDER
 70
     0
 10
0.0
 20
0.0
 30
0.0
  3
AVE_RENDER
  1
AVE_RENDER
  0
ENDBLK
  5
93
330
91
100
AcDbEntity
  8
0
100
AcDbBlockEnd
  0
BLOCK
  5
A0
330
9F
100
AcDbEntity
  8
ASHADE
100
AcDbBlockBegin
  2
AVE_GLOBAL
 70
     0
 10
0.0
 20
0.0
 30
0.0
  3
AVE_GLOBAL
  1
AVE_GLOBAL
  0
ENDBLK
  5
A1
330
9F
100
AcDbEntity
  8
0
100
AcDbBlockEnd
  0
ENDSEC
  0
SECTION
  2
ENTITIES
  0
INSERT
  5
94
330
1F
100
AcDbEntity
  8
ASHADE
 62
     1
100
AcDbBlockReference
  2
AVE_RENDER
 10
0.0
 20
0.0
 30
0.0
1001
AVE_RENDER
1002
{
1070
     7
1000
Pref
1070
    30
1070
    20
1070
     1
1070
     0
1000

1070
    10
1070
     1
1070
    10
1040
1.0
1070
     1
1040
0.3
1040
0.7
1040
0.0
1040
10.0
1010
-1.0
1020
-1.0
1030
-1.0
1040
0.3
1070
    49
1070
     0
1070
     0
1010
1.0
1020
1.0
1030
1.0
1040
45.0
1070
     1
1070
     0
1000
WCS
1040
0.0
1070
     0
1040
10.0
1002
}
  0
INSERT
  5
95
330
1F
100
AcDbEntity
  8
ASHADE
 62
     3
100
AcDbBlockReference
  2
AVE_RENDER
 10
0.0
 20
0.0
 30
0.0
1001
AVE_RENDER
1002
{
1070
     0
1000
Full Opt
1070
     0
1070
     1
1070
     1
1070
     1
1070
     0
1070
     0
1070
     0
1070
     1
1070
     1
1040
0.0001
1040
0.0001
1002
}
  0
INSERT
  5
96
330
1F
100
AcDbEntity
  8
ASHADE
 62
     4
100
AcDbBlockReference
  2
AVE_RENDER
 10
0.0
 20
0.0
 30
0.0
1001
AVE_RENDER
1002
{
1070
     0
1000
Quick Opt
1070
     0
1070
     1
1070
     1
1070
     1
1070
     0
1070
     0
1070
     1
1002
}
  0
INSERT
  5
97
330
1F
100
AcDbEntity
  8
ASHADE
 62
     5
100
AcDbBlockReference
  2
AVE_RENDER
 10
0.0
 20
0.0
 30
0.0
1001
AVE_RENDER
1002
{
1070
     1
1000
Scanl Opt
1070
     2
1070
     0
1070
     2
1040
2.0
1040
4.0
1070
     0
1070
     1
1070
     0
1040
0.03
1002
}
  0
INSERT
  5
98
330
1F
100
AcDbEntity
  8
ASHADE
 62
     6
100
AcDbBlockReference
  2
AVE_RENDER
 10
0.0
 20
0.0
 30
0.0
1001
AVE_RENDER
1002
{
1070
     2
1000
Raytr Opt
1070
     2
1070
     0
1070
     2
1040
2.0
1040
4.0
1070
     0
1070
     1
1070
     1
1040
0.03
1070
     3
1040
0.03
1002
}
  0
INSERT
  5
99
330
1F
100
AcDbEntity
  8
ASHADE
 62
     7
100
AcDbBlockReference
  2
AVE_RENDER
 10
0.0
 20
0.0
 30
0.0
1001
AVE_RENDER
1002
{
1070
     0
1000
RFile Opt
1070
     1
1070
   640
1070
   480
1070
 10000
1070
     1
1070
     8
1070
     8
1070
     0
1070
     0
1070
     0
1070
     0
1070
     0
1070
     0
1070
     0
1002
}
  0
INSERT
  5
9A
330
1F
100
AcDbEntity
  8
ASHADE
 62
     8
100
AcDbBlockReference
  2
AVE_RENDER
 10
0.0
 20
0.0
 30
0.0
1001
AVE_RENDER
1002
{
1070
     0
1000
Fog Opt
1070
     0
1070
     0
1040
0.0
1040
1.0
1040
0.0
1040
1.0
1010
0.5
1020
0.5
1030
0.5
1002
}
  0
INSERT
  5
9B
330
1F
100
AcDbEntity
  8
ASHADE
 62
     9
100
AcDbBlockReference
  2
AVE_RENDER
 10
0.0
 20
0.0
 30
0.0
1001
AVE_RENDER
1002
{
1070
     0
1000
BG Opt
1070
     0
1070
     1
1010
0.0
1020
0.0
1030
0.0
1010
1.0
1020
0.0
1030
0.0
1010
0.0
1020
1.0
1030
0.0
1010
0.0
1020
0.0
1030
1.0
1040
0.5
1040
0.33
1040
0.0
1000

1070
     1
1000

1070
     1
1070
     1
1040
1.0
1040
1.0
1040
0.0
1040
0.0
1070
     0
1002
}
  0
INSERT
  5
A2
330
1F
100
AcDbEntity
  8
ASHADE
 62
     1
100
AcDbBlockReference
  2
AVE_GLOBAL
 10
0.0
 20
0.0
 30
0.0
1001
AVE_MATERIAL
1002
{
1000
*GLOBAL*
1000
2
1000
Global finish.
1002
{
1002
}
1002
{
1070
    63
1002
{
1002
{
1010
-1.0
1020
-1.0
1030
-1.0
1002
}
1040
0.1000000014901161
1000

1040
0.0
1002
{
1002
}
1040
0.0
1002
{
1002
}
1040
0.0
1002
}
1002
{
1002
{
1010
-1.0
1020
-1.0
1030
-1.0
1002
}
1040
0.6999999880790711
1000

1040
0.0
1002
{
1002
}
1040
0.0
1002
{
1002
}
1040
0.0
1002
}
1002
{
1002
{
1010
-1.0
1020
-1.0
1030
-1.0
1002
}
1040
0.2000000029802322
1000

1040
0.0
1002
{
1002
}
1040
0.0
1002
{
1002
}
1040
0.0
1002
}
1002
{
1070
     0
1002
{
1070
     1
1002
{
1040
1.0
1040
1.0
1000

1040
0.0
1002
{
1002
}
1040
0.0
1002
{
1002
}
1040
0.0
1002
}
1002
}
1040
1.0
1040
0.0
1040
0.0
1002
}
1002
{
1040
1.0
1040
1.0
1000

1040
0.0
1002
{
1002
}
1040
0.0
1002
{
1002
}
1040
0.0
1002
}
1002
{
1040
0.5
1040
1.0
1000

1040
0.0
1002
{
1002
}
1040
0.0
1002
{
1002
}
1040
0.0
1002
}
1002
{
1070
     0
1040
0.0
1002
{
1002
}
1040
1.0
1002
{
1002
}
1040
0.0
1002
}
1002
{
1040
0.0
1002
{
1002
{
1010
0.0
1020
0.0
1030
0.0
1002
}
1040
1.0
1000

1040
0.0
1002
{
1002
}
1040
0.0
1002
{
1002
}
1040
0.0
1002
}
1002
}
1002
{
1002
{
1070
     1
1002
{
1040
0.0
1040
1.0
1000

1040
0.0
1002
{
1002
}
1040
0.0
1002
{
1002
}
1040
0.0
1002
}
1002
}
1040
0.0
1002
{
1002
}
1010
1.0
1020
0.0
1030
0.0
1010
0.0
1020
1.0
1030
0.0
1010
0.0
1020
0.0
1030
1.0
1070
     0
1002
}
1002
{
1002
{
1040
1.0
1040
1.0
1002
{
1070
     1
1002
{
1040
1.0
1040
1.0
1000

1040
0.0
1002
{
1002
}
1040
0.0
1002
{
1002
}
1040
0.0
1002
}
1002
}
1002
}
1070
     0
1040
0.0
1002
{
1002
}
1002
}
1002
{
1002
}
1002
}
1002
{
1071
        3
1070
     3
1070
     0
1002
{
1070
     2
1070
     0
1070
     0
1040
0.0
1002
}
1070
     0
1070
     2
1002
{
1002
}
1002
}
1002
{
1040
8030.0
1040
190.3000030517578
1040
0.3050000071525574
1040
228.0
1040
545.0
1040
14.0
1040
17.39999961853027
1040
0.4560000002384186
1002
}
1002
}
  0
POLYLINE
  5
F7
330
1F
100
AcDbEntity
  8
0
 62
   251
100
AcDbPolyFaceMesh
 66
     1
 10
0.0
 20
0.0
 30
0.0
 70
    64
 71
   324
 72
   644
  0
VERTEX
  5
F8
330
F7
100
AcDbEntity
  8
0
 62
   251
100
AcDbVertex
100
AcDbPolyFaceMeshVertex
 10
-5.00002384185791
 20
0.449800729751587
 30
7.3938889503479
 70
   192
  0
VERTEX
  5
F9
330
F7
100
AcDbEntity
  8
0
 62
   251
100
AcDbVertex
100
AcDbPolyFaceMeshVertex
 10
-5.00002384185791
 20
-0.4497990608215332
 30
7.3938889503479
 70
   192
  0
VERTEX
  5
FA
330
F7
100
AcDbEntity
  8
0
 62
   251
100
AcDbVertex
100
AcDbPolyFaceMeshVertex
 10
-5.00002384185791
 20
0.449800729751587
 30
7.707590103149414
 70
   192
  0
VERTEX
  5
FB
330
F7
100
AcDbEntity
  8
0
 62
   251
100
AcDbVertex
100
AcDbPolyFaceMeshVertex
 10
-4.996505737304687
 20
0.449800729751587
 30
7.742454051971435
 70
   192
  0
VERTEX
  5
FC
330
F7
100
AcDbEntity
  8
0
 62
   251
100
AcDbVertex
100
AcDbPolyFaceMeshVertex
 10
-4.986730575561523
 20
0.449800729751587
 30
7.777052402496337
 70
   192
  0
VERTEX
  5
FD
330
F7
100
AcDbEntity
  8
0
 62
   251
100
AcDbVertex
100
AcDbPolyFaceMeshVertex
 10
-4.968789100646972
 20
0.449800729751587
 30
7.810938358306884
 70
   192
  0
VERTEX
  5
FE
330
F7
100
AcDbEntity
  8
0
 62
   251
100
AcDbVertex
100
AcDbPolyFaceMeshVertex
 10
-4.9410982131958
 20
0.449800729751587
 30
7.844819068908691
 70
   192
  0
VERTEX
  5
FF
330
F7
100
AcDbEntity
  8
0
 62
   251
100
AcDbVertex
100
AcDbPolyFaceMeshVertex
 10
-4.913419723510742
 20
0.449800729751587
 30
7.86592960357666
 70
   192
  0
VERTEX
  5
100
330
F7
100
AcDbEntity
  8
0
 62
   251
100
AcDbVertex
100
AcDbPolyFaceMeshVertex
 10
-4.88027286529541
 20
0.4498006701469422
 30
7.882408618927001
 70
   192
  0
VERTEX
  5
101
330
F7
100
AcDbEntity
  8
0
 62
   251
100
AcDbVertex
100
AcDbPolyFaceMeshVertex
 10
-4.846765518188476
 20
0.4498006701469422
 30
7.891985893249511
 70
   192
  0
VERTEX
  5
102
330
F7
100
AcDbEntity
  8
0
 62
   251
100
AcDbVertex
100
AcDbPolyFaceMeshVertex
 10
-4.812932014465332
 20
0.4498006701469422
 30
7.895174980163574
 70
   192
  0
VERTEX
  5
103
330
F7
100
AcDbEntity
  8
0
 62
   251
100
AcDbVertex
100
AcDbPolyFaceMeshVertex
 10
-5.00002384185791
 20
-0.1979111135005951
 30
7.3938889503479
 70
   192
  0
VERTEX
  5
104
330
F7
100
AcDbEntity
  8
0
 62
   251
100
AcDbVertex
100
AcDbPolyFaceMeshVertex
 10
-5.00002384185791
 20
0.1112824007868767
 30
7.707590103149414
 70
   192
  0
VERTEX
  5
105
330
F7
100
AcDbEntity
  8
0
 62
   251
100
AcDbVertex
100
AcDbPolyFaceMeshVertex
 10
-4.996505737304687
 20
0.1480941772460937
 30
7.742454051971435
 70
   192
  0
VERTEX
  5
106
330
F7
100
AcDbEntity
  8
0
 62
   251
100
AcDbVertex
100
AcDbPolyFaceMeshVertex
 10
-4.986730575561523
 20
0.1813720911741257
 30
7.777052402496337
 70
   192
  0
VERTEX
  5
107
330
F7
100
AcDbEntity
  8
0
 62
   251
100
AcDbVertex
100
AcDbPolyFaceMeshVertex
 10
-4.968789100646972
 20
0.2143629640340805
 30
7.810938358306884
 70
   192
  0
VERTEX
  5
108
330
F7
100
AcDbEntity
  8
0
 62
   251
100
AcDbVertex
100
AcDbPolyFaceMeshVertex
 10
-4.9410982131958
 20
0.2489396780729294
 30
7.844819068908691
 70
   192
  0
VERTEX
  5
109
330
F7
100
AcDbEntity
  8
0
 62
   251
100
AcDbVertex
100
AcDbPolyFaceMeshVertex
 10
-4.913419723510742
 20
0.2706512212753296
 30
7.86592960357666
 70
   192
  0
VERTEX
  5
10A
330
F7
100
AcDbEntity
  8
0
 62
   251
100
AcDbVertex
100
AcDbPolyFaceMeshVertex
 10
-4.88027286529541
 20
0.2876285314559936
 30
7.882408618927001
 70
   192
  0
VERTEX
  5
10B
330
F7
100
AcDbEntity
  8
0
 62
   251
100
AcDbVertex
100
AcDbPolyFaceMeshVertex
 10
-4.846765518188476
 20
0.2974221110343933
 30
7.891985893249511
 70
   192
  0
VERTEX
  5
10C
330
F7
100
AcDbEntity
  8
0
 62
   251
100
AcDbVertex
100
AcDbPolyFaceMeshVertex
 10
-4.812932014465332
 20
0.2989658117294311
 30
7.895174980163574
 70
   192
  0
VERTEX
  5
10D
330
F7
100
AcDbEntity
  8
0
 62
   251
100
AcDbVertex
100
AcDbPolyFaceMeshVertex
 10
5.000021934509277
 20
0.4497990608215332
 30
7.393890380859375
 70
   192
  0
VERTEX
  5
10E
330
F7
100
AcDbEntity
  8
0
 62
   251
100
AcDbVertex
100
AcDbPolyFaceMeshVertex
 10
5.00002098083496
 20
-0.1979127377271652
 30
7.393890380859375
 70
   192
  0
VERTEX
  5
10F
330
F7
100
AcDbEntity
  8
0
 62
   251
100
AcDbVertex
100
AcDbPolyFaceMeshVertex
 10
5.00002098083496
 20
0.1112807691097259
 30
7.707591533660888
 70
   192
  0
VERTEX
  5
110
330
F7
100
AcDbEntity
  8
0
 62
   251
100
AcDbVertex
100
AcDbPolyFaceMeshVertex
 10
5.00002098083496
 20
0.4497990608215332
 30
7.707591533660888
 70
   192
  0
VERTEX
  5
111
330
F7
100
AcDbEntity
  8
0
 62
   251
100
AcDbVertex
100
AcDbPolyFaceMeshVertex
 10
4.996502876281738
 20
0.1480925530195236
 30
7.74245548248291
 70
   192
  0
VERTEX
  5
112
330
F7
100
AcDbEntity
  8
0
 62
   251
100
AcDbVertex
100
AcDbPolyFaceMeshVertex
 10
4.996502876281738
 20
0.4497990608215332
 30
7.74245548248291
 70
   192
  0
VERTEX
  5
113
330
F7
100
AcDbEntity
  8
0
 62
   251
100
AcDbVertex
100
AcDbPolyFaceMeshVertex
 10
4.986727714538574
 20
0.1813704669475555
 30
7.777053833007812
 70
   192
  0
VERTEX
  5
114
330
F7
100
AcDbEntity
  8
0
 62
   251
100
AcDbVertex
100
AcDbPolyFaceMeshVertex
 10
4.986727714538574
 20
0.4497990608215332
 30
7.777053833007812
 70
   192
  0
VERTEX
  5
115
330
F7
100
AcDbEntity
  8
0
 62
   251
100
AcDbVertex
100
AcDbPolyFaceMeshVertex
 10
4.968786239624023
 20
0.2143613398075104
 30
7.810939788818359
 70
   192
  0
VERTEX
  5
116
330
F7
100
AcDbEntity
  8
0
 62
   251
100
AcDbVertex
100
AcDbPolyFaceMeshVertex
 10
4.968786239624023
 20
0.449799120426178
 30
7.810939788818359
 70
   192
  0
VERTEX
  5
117
330
F7
100
AcDbEntity
  8
0
 62
   251
100
AcDbVertex
100
AcDbPolyFaceMeshVertex
 10
4.941095352172851
 20
0.2489380687475204
 30
7.844820976257324
 70
   192
  0
VERTEX
  5
118
330
F7
100
AcDbEntity
  8
0
 62
   251
100
AcDbVertex
100
AcDbPolyFaceMeshVertex
 10
4.941095352172851
 20
0.449799120426178
 30
7.844820976257324
 70
   192
  0
VERTEX
  5
119
330
F7
100
AcDbEntity
  8
0
 62
   251
100
AcDbVertex
100
AcDbPolyFaceMeshVertex
 10
4.913416862487792
 20
0.2706496119499206
 30
7.865931034088134
 70
   192
  0
VERTEX
  5
11A
330
F7
100
AcDbEntity
  8
0
 62
   251
100
AcDbVertex
100
AcDbPolyFaceMeshVertex
 10
4.913416862487792
 20
0.449799120426178
 30
7.865931034088134
 70
   192
  0
VERTEX
  5
11B
330
F7
100
AcDbEntity
  8
0
 62
   251
100
AcDbVertex
100
AcDbPolyFaceMeshVertex
 10
4.88027000427246
 20
0.2876269221305847
 30
7.882410049438476
 70
   192
  0
VERTEX
  5
11C
330
F7
100
AcDbEntity
  8
0
 62
   251
100
AcDbVertex
100
AcDbPolyFaceMeshVertex
 10
4.88027000427246
 20
0.449799120426178
 30
7.882410049438476
 70
   192
  0
VERTEX
  5
11D
330
F7
100
AcDbEntity
  8
0
 62
   251
100
AcDbVertex
100
AcDbPolyFaceMeshVertex
 10
4.846762657165527
 20
0.2974205613136291
 30
7.891987800598144
 70
   192
  0
VERTEX
  5
11E
330
F7
100
AcDbEntity
  8
0
 62
   251
100
AcDbVertex
100
AcDbPolyFaceMeshVertex
 10
4.846762657165527
 20
0.4497990608215332
 30
7.891987800598144
 70
   192
  0
VERTEX
  5
11F
330
F7
100
AcDbEntity
  8
0
 62
   251
100
AcDbVertex
100
AcDbPolyFaceMeshVertex
 10
4.812929153442382
 20
0.298964262008667
 30
7.895176887512207
 70
   192
  0
VERTEX
  5
120
330
F7
100
AcDbEntity
  8
0
 62
   251
100
AcDbVertex
100
AcDbPolyFaceMeshVertex
 10
4.812929153442382
 20
0.4497990608215332
 30
7.895176887512207
 70
   192
  0
VERTEX
  5
121
330
F7
100
AcDbEntity
  8
0
 62
   251
100
AcDbVertex
100
AcDbPolyFaceMeshVertex
 10
5.00002098083496
 20
-0.449800729751587
 30
7.393890380859375
 70
   192
  0
VERTEX
  5
122
330
F7
100
AcDbEntity
  8
0
 62
   251
100
AcDbVertex
100
AcDbPolyFaceMeshVertex
 10
-5.00002384185791
 20
0.4404497146606446
 30
7.3938889503479
 70
   192
  0
VERTEX
  5
123
330
F7
100
AcDbEntity
  8
0
 62
   251
100
AcDbVertex
100
AcDbPolyFaceMeshVertex
 10
-5.00002384185791
 20
0.4404497146606446
 30
7.707590103149414
 70
   192
  0
VERTEX
  5
124
330
F7
100
AcDbEntity
  8
0
 62
   251
100
AcDbVertex
100
AcDbPolyFaceMeshVertex
 10
-4.996505737304687
 20
0.4404497146606446
 30
7.742454051971435
 70
   192
  0
VERTEX
  5
125
330
F7
100
AcDbEntity
  8
0
 62
   251
100
AcDbVertex
100
AcDbPolyFaceMeshVertex
 10
-4.986730575561523
 20
0.4404497146606446
 30
7.777052402496337
 70
   192
  0
VERTEX
  5
126
330
F7
100
AcDbEntity
  8
0
 62
   251
100
AcDbVertex
100
AcDbPolyFaceMeshVertex
 10
-4.968789100646972
 20
0.4404497146606446
 30
7.810938358306884
 70
   192
  0
VERTEX
  5
127
330
F7
100
AcDbEntity
  8
0
 62
   251
100
AcDbVertex
100
AcDbPolyFaceMeshVertex
 10
-4.9410982131958
 20
0.4404497146606446
 30
7.844819068908691
 70
   192
  0
VERTEX
  5
128
330
F7
100
AcDbEntity
  8
0
 62
   251
100
AcDbVertex
100
AcDbPolyFaceMeshVertex
 10
-4.913419723510742
 20
0.4404497146606446
 30
7.86592960357666
 70
   192
  0
VERTEX
  5
129
330
F7
100
AcDbEntity
  8
0
 62
   251
100
AcDbVertex
100
AcDbPolyFaceMeshVertex
 10
-4.88027286529541
 20
0.4404496550559998
 30
7.882408618927001
 70
   192
  0
VERTEX
  5
12A
330
F7
100
AcDbEntity
  8
0
 62
   251
100
AcDbVertex
100
AcDbPolyFaceMeshVertex
 10
-4.846765518188476
 20
0.4404496550559998
 30
7.891985893249511
 70
   192
  0
VERTEX
  5
12B
330
F7
100
AcDbEntity
  8
0
 62
   251
100
AcDbVertex
100
AcDbPolyFaceMeshVertex
 10
-4.812932014465332
 20
0.4404496550559998
 30
7.895174980163574
 70
   192
  0
VERTEX
  5
12C
330
F7
100
AcDbEntity
  8
0
 62
   251
100
AcDbVertex
100
AcDbPolyFaceMeshVertex
 10
5.000021934509277
 20
0.4404480457305909
 30
7.393890380859375
 70
   192
  0
VERTEX
  5
12D
330
F7
100
AcDbEntity
  8
0
 62
   251
100
AcDbVertex
100
AcDbPolyFaceMeshVertex
 10
5.00002098083496
 20
0.4404480457305909
 30
7.707591533660888
 70
   192
  0
VERTEX
  5
12E
330
F7
100
AcDbEntity
  8
0
 62
   251
100
AcDbVertex
100
AcDbPolyFaceMeshVertex
 10
4.996502876281738
 20
0.4404480457305909
 30
7.74245548248291
 70
   192
  0
VERTEX
  5
12F
330
F7
100
AcDbEntity
  8
0
 62
   251
100
AcDbVertex
100
AcDbPolyFaceMeshVertex
 10
4.986727714538574
 20
0.4404480457305909
 30
7.777053833007812
 70
   192
  0
VERTEX
  5
130
330
F7
100
AcDbEntity
  8
0
 62
   251
100
AcDbVertex
100
AcDbPolyFaceMeshVertex
 10
4.968786239624023
 20
0.4404480457305909
 30
7.810939788818359
 70
   192
  0
VERTEX
  5
131
330
F7
100
AcDbEntity
  8
0
 62
   251
100
AcDbVertex
100
AcDbPolyFaceMeshVertex
 10
4.941095352172851
 20
0.4404480457305909
 30
7.844820976257324
 70
   192
  0
VERTEX
  5
132
330
F7
100
AcDbEntity
  8
0
 62
   251
100
AcDbVertex
100
AcDbPolyFaceMeshVertex
 10
4.913416862487792
 20
0.4404480457305909
 30
7.865931034088134
 70
   192
  0
VERTEX
  5
133
330
F7
100
AcDbEntity
  8
0
 62
   251
100
AcDbVertex
100
AcDbPolyFaceMeshVertex
 10
4.88027000427246
 20
0.4404480457305909
 30
7.882410049438476
 70
   192
  0
VERTEX
  5
134
330
F7
100
AcDbEntity
  8
0
 62
   251
100
AcDbVertex
100
AcDbPolyFaceMeshVertex
 10
4.846762657165527
 20
0.4404481053352356
 30
7.891987800598144
 70
   192
  0
VERTEX
  5
135
330
F7
100
AcDbEntity
  8
0
 62
   251
100
AcDbVertex
100
AcDbPolyFaceMeshVertex
 10
4.812929153442382
 20
0.4404481053352356
 30
7.895176887512207
 70
   192
  0
VERTEX
  5
136
330
F7
100
AcDbEntity
  8
0
 62
   251
100
AcDbVertex
100
AcDbPolyFaceMeshVertex
 10
-5.00002384185791
 20
-0.181556761264801
 30
7.3938889503479
 70
   192
  0
VERTEX
  5
137
330
F7
100
AcDbEntity
  8
0
 62
   251
100
AcDbVertex
100
AcDbPolyFaceMeshVertex
 10
-5.00002384185791
 20
0.1276367455720901
 30
7.707590103149414
 70
   192
  0
VERTEX
  5
138
330
F7
100
AcDbEntity
  8
0
 62
   251
100
AcDbVertex
100
AcDbPolyFaceMeshVertex
 10
-4.996505737304687
 20
0.1644485145807266
 30
7.742454051971435
 70
   192
  0
VERTEX
  5
139
330
F7
100
AcDbEntity
  8
0
 62
   251
100
AcDbVertex
100
AcDbPolyFaceMeshVertex
 10
-4.986730575561523
 20
0.1977264285087585
 30
7.777052402496337
 70
   192
  0
VERTEX
  5
13A
330
F7
100
AcDbEntity
  8
0
 62
   251
100
AcDbVertex
100
AcDbPolyFaceMeshVertex
 10
-4.968789100646972
 20
0.2307173013687134
 30
7.810938358306884
 70
   192
  0
VERTEX
  5
13B
330
F7
100
AcDbEntity
  8
0
 62
   251
100
AcDbVertex
100
AcDbPolyFaceMeshVertex
 10
-4.9410982131958
 20
0.2652940154075623
 30
7.844819068908691
 70
   192
  0
VERTEX
  5
13C
330
F7
100
AcDbEntity
  8
0
 62
   251
100
AcDbVertex
100
AcDbPolyFaceMeshVertex
 10
-4.913419723510742
 20
0.2870055437088013
 30
7.86592960357666
 70
   192
  0
VERTEX
  5
13D
330
F7
100
AcDbEntity
  8
0
 62
   251
100
AcDbVertex
100
AcDbPolyFaceMeshVertex
 10
-4.88027286529541
 20
0.3039828538894653
 30
7.882408618927001
 70
   192
  0
VERTEX
  5
13E
330
F7
100
AcDbEntity
  8
0
 62
   251
100
AcDbVertex
100
AcDbPolyFaceMeshVertex
 10
-4.846765518188476
 20
0.313776433467865
 30
7.891985893249511
 70
   192
  0
VERTEX
  5
13F
330
F7
100
AcDbEntity
  8
0
 62
   251
100
AcDbVertex
100
AcDbPolyFaceMeshVertex
 10
-4.812932014465332
 20
0.3153201341629028
 30
7.895174980163574
 70
   192
  0
VERTEX
  5
140
330
F7
100
AcDbEntity
  8
0
 62
   251
100
AcDbVertex
100
AcDbPolyFaceMeshVertex
 10
5.00002098083496
 20
-0.1815583854913711
 30
7.393890380859375
 70
   192
  0
VERTEX
  5
141
330
F7
100
AcDbEntity
  8
0
 62
   251
100
AcDbVertex
100
AcDbPolyFaceMeshVertex
 10
5.00002098083496
 20
0.1276351064443588
 30
7.707591533660888
 70
   192
  0
VERTEX
  5
142
330
F7
100
AcDbEntity
  8
0
 62
   251
100
AcDbVertex
100
AcDbPolyFaceMeshVertex
 10
4.996502876281738
 20
0.1644468903541565
 30
7.74245548248291
 70
   192
  0
VERTEX
  5
143
330
F7
100
AcDbEntity
  8
0
 62
   251
100
AcDbVertex
100
AcDbPolyFaceMeshVertex
 10
4.986727714538574
 20
0.1977248042821884
 30
7.777053833007812
 70
   192
  0
VERTEX
  5
144
330
F7
100
AcDbEntity
  8
0
 62
   251
100
AcDbVertex
100
AcDbPolyFaceMeshVertex
 10
4.968786239624023
 20
0.2307156771421432
 30
7.810939788818359
 70
   192
  0
VERTEX
  5
145
330
F7
100
AcDbEntity
  8
0
 62
   251
100
AcDbVertex
100
AcDbPolyFaceMeshVertex
 10
4.941095352172851
 20
0.2652924060821533
 30
7.844820976257324
 70
   192
  0
VERTEX
  5
146
330
F7
100
AcDbEntity
  8
0
 62
   251
100
AcDbVertex
100
AcDbPolyFaceMeshVertex
 10
4.913416862487792
 20
0.2870039343833923
 30
7.865931034088134
 70
   192
  0
VERTEX
  5
147
330
F7
100
AcDbEntity
  8
0
 62
   251
100
AcDbVertex
100
AcDbPolyFaceMeshVertex
 10
4.88027000427246
 20
0.3039812445640564
 30
7.882410049438476
 70
   192
  0
VERTEX
  5
148
330
F7
100
AcDbEntity
  8
0
 62
   251
100
AcDbVertex
100
AcDbPolyFaceMeshVertex
 10
4.846762657165527
 20
0.3137749433517456
 30
7.891987800598144
 70
   192
  0
VERTEX
  5
149
330
F7
100
AcDbEntity
  8
0
 62
   251
100
AcDbVertex
100
AcDbPolyFaceMeshVertex
 10
4.812929153442382
 20
0.3153186440467834
 30
7.895176887512207
 70
   192
  0
VERTEX
  5
14A
330
F7
100
AcDbEntity
  8
0
 62
   251
100
AcDbVertex
100
AcDbPolyFaceMeshVertex
 10
-5.00002384185791
 20
-0.4345283508300782
 30
7.3938889503479
 70
   192
  0
VERTEX
  5
14B
330
F7
100
AcDbEntity
  8
0
 62
   251
100
AcDbVertex
100
AcDbPolyFaceMeshVertex
 10
-5.00002384185791
 20
-0.2131818234920502
 30
7.3938889503479
 70
   192
  0
VERTEX
  5
14C
330
F7
100
AcDbEntity
  8
0
 62
   251
100
AcDbVertex
100
AcDbPolyFaceMeshVertex
 10
5.00002098083496
 20
-0.2131834477186203
 30
7.393890380859375
 70
   192
  0
VERTEX
  5
14D
330
F7
100
AcDbEntity
  8
0
 62
   251
100
AcDbVertex
100
AcDbPolyFaceMeshVertex
 10
5.00002098083496
 20
-0.4345300197601319
 30
7.393890380859375
 70
   192
  0
VERTEX
  5
14E
330
F7
100
AcDbEntity
  8
0
 62
   251
100
AcDbVertex
100
AcDbPolyFaceMeshVertex
 10
-5.00002384185791
 20
0.449800729751587
 30
7.375935077667236
 70
   192
  0
VERTEX
  5
14F
330
F7
100
AcDbEntity
  8
0
 62
   251
100
AcDbVertex
100
AcDbPolyFaceMeshVertex
 10
-5.00002384185791
 20
-0.4497990608215332
 30
7.375935077667236
 70
   192
  0
VERTEX
  5
150
330
F7
100
AcDbEntity
  8
0
 62
   251
100
AcDbVertex
100
AcDbPolyFaceMeshVertex
 10
-5.00002384185791
 20
-0.1979111135005951
 30
7.375935077667236
 70
   192
  0
VERTEX
  5
151
330
F7
100
AcDbEntity
  8
0
 62
   251
100
AcDbVertex
100
AcDbPolyFaceMeshVertex
 10
5.000021934509277
 20
0.4497990608215332
 30
7.37593650817871
 70
   192
  0
VERTEX
  5
152
330
F7
100
AcDbEntity
  8
0
 62
   251
100
AcDbVertex
100
AcDbPolyFaceMeshVertex
 10
5.00002098083496
 20
-0.1979127377271652
 30
7.37593650817871
 70
   192
  0
VERTEX
  5
153
330
F7
100
AcDbEntity
  8
0
 62
   251
100
AcDbVertex
100
AcDbPolyFaceMeshVertex
 10
5.00002098083496
 20
-0.449800729751587
 30
7.37593650817871
 70
   192
  0
VERTEX
  5
154
330
F7
100
AcDbEntity
  8
0
 62
   251
100
AcDbVertex
100
AcDbPolyFaceMeshVertex
 10
-5.00002384185791
 20
0.4404497146606446
 30
7.375935077667236
 70
   192
  0
VERTEX
  5
155
330
F7
100
AcDbEntity
  8
0
 62
   251
100
AcDbVertex
100
AcDbPolyFaceMeshVertex
 10
5.000021934509277
 20
0.4404480457305909
 30
7.37593650817871
 70
   192
  0
VERTEX
  5
156
330
F7
100
AcDbEntity
  8
0
 62
   251
100
AcDbVertex
100
AcDbPolyFaceMeshVertex
 10
-5.00002384185791
 20
-0.181556761264801
 30
7.375935077667236
 70
   192
  0
VERTEX
  5
157
330
F7
100
AcDbEntity
  8
0
 62
   251
100
AcDbVertex
100
AcDbPolyFaceMeshVertex
 10
5.00002098083496
 20
-0.1815583854913711
 30
7.37593650817871
 70
   192
  0
VERTEX
  5
158
330
F7
100
AcDbEntity
  8
0
 62
   251
100
AcDbVertex
100
AcDbPolyFaceMeshVertex
 10
-5.00002384185791
 20
-0.4345283508300782
 30
7.375935077667236
 70
   192
  0
VERTEX
  5
159
330
F7
100
AcDbEntity
  8
0
 62
   251
100
AcDbVertex
100
AcDbPolyFaceMeshVertex
 10
-5.00002384185791
 20
-0.2131818234920502
 30
7.375935077667236
 70
   192
  0
VERTEX
  5
15A
330
F7
100
AcDbEntity
  8
0
 62
   251
100
AcDbVertex
100
AcDbPolyFaceMeshVertex
 10
5.00002098083496
 20
-0.4345300197601319
 30
7.37593650817871
 70
   192
  0
VERTEX
  5
15B
330
F7
100
AcDbEntity
  8
0
 62
   251
100
AcDbVertex
100
AcDbPolyFaceMeshVertex
 10
5.00002098083496
 20
-0.2131834477186203
 30
7.37593650817871
 70
   192
  0
VERTEX
  5
15C
330
F7
100
AcDbEntity
  8
0
 62
   251
100
AcDbVertex
100
AcDbPolyFaceMeshVertex
 10
-4.987549781799316
 20
-0.4497990608215332
 30
7.3938889503479
 70
   192
  0
VERTEX
  5
15D
330
F7
100
AcDbEntity
  8
0
 62
   251
100
AcDbVertex
100
AcDbPolyFaceMeshVertex
 10
-4.987549781799316
 20
-0.1979111135005951
 30
7.3938889503479
 70
   192
  0
VERTEX
  5
15E
330
F7
100
AcDbEntity
  8
0
 62
   251
100
AcDbVertex
100
AcDbPolyFaceMeshVertex
 10
-4.987549781799316
 20
-0.4345283508300782
 30
7.3938889503479
 70
   192
  0
VERTEX
  5
15F
330
F7
100
AcDbEntity
  8
0
 62
   251
100
AcDbVertex
100
AcDbPolyFaceMeshVertex
 10
-4.987549781799316
 20
-0.2131818234920502
 30
7.3938889503479
 70
   192
  0
VERTEX
  5
160
330
F7
100
AcDbEntity
  8
0
 62
   251
100
AcDbVertex
100
AcDbPolyFaceMeshVertex
 10
-4.987549781799316
 20
-0.4497990608215332
 30
7.375935077667236
 70
   192
  0
VERTEX
  5
161
330
F7
100
AcDbEntity
  8
0
 62
   251
100
AcDbVertex
100
AcDbPolyFaceMeshVertex
 10
4.985114097595214
 20
-0.1979127377271652
 30
7.393890380859375
 70
   192
  0
VERTEX
  5
162
330
F7
100
AcDbEntity
  8
0
 62
   251
100
AcDbVertex
100
AcDbPolyFaceMeshVertex
 10
4.985114097595214
 20
-0.2131834477186203
 30
7.393890380859375
 70
   192
  0
VERTEX
  5
163
330
F7
100
AcDbEntity
  8
0
 62
   251
100
AcDbVertex
100
AcDbPolyFaceMeshVertex
 10
4.985114097595214
 20
-0.449800729751587
 30
7.393890380859375
 70
   192
  0
VERTEX
  5
164
330
F7
100
AcDbEntity
  8
0
 62
   251
100
AcDbVertex
100
AcDbPolyFaceMeshVertex
 10
4.985114097595214
 20
-0.4345300197601319
 30
7.393890380859375
 70
   192
  0
VERTEX
  5
165
330
F7
100
AcDbEntity
  8
0
 62
   251
100
AcDbVertex
100
AcDbPolyFaceMeshVertex
 10
4.985114097595214
 20
-0.449800729751587
 30
7.37593650817871
 70
   192
  0
VERTEX
  5
166
330
F7
100
AcDbEntity
  8
0
 62
   251
100
AcDbVertex
100
AcDbPolyFaceMeshVertex
 10
-5.00002384185791
 20
0.449800729751587
 30
7.404971599578857
 70
   192
  0
VERTEX
  5
167
330
F7
100
AcDbEntity
  8
0
 62
   251
100
AcDbVertex
100
AcDbPolyFaceMeshVertex
 10
-5.00002384185791
 20
-0.1869877129793167
 30
7.404971599578857
 70
   192
  0
VERTEX
  5
168
330
F7
100
AcDbEntity
  8
0
 62
   251
100
AcDbVertex
100
AcDbPolyFaceMeshVertex
 10
5.00002098083496
 20
-0.1869893372058868
 30
7.404973030090332
 70
   192
  0
VERTEX
  5
169
330
F7
100
AcDbEntity
  8
0
 62
   251
100
AcDbVertex
100
AcDbPolyFaceMeshVertex
 10
5.000021934509277
 20
0.4497990608215332
 30
7.404973030090332
 70
   192
  0
VERTEX
  5
16A
330
F7
100
AcDbEntity
  8
0
 62
   251
100
AcDbVertex
100
AcDbPolyFaceMeshVertex
 10
-5.00002384185791
 20
0.4404497146606446
 30
7.404971599578857
 70
   192
  0
VERTEX
  5
16B
330
F7
100
AcDbEntity
  8
0
 62
   251
100
AcDbVertex
100
AcDbPolyFaceMeshVertex
 10
5.000021934509277
 20
0.4404480457305909
 30
7.404973030090332
 70
   192
  0
VERTEX
  5
16C
330
F7
100
AcDbEntity
  8
0
 62
   251
100
AcDbVertex
100
AcDbPolyFaceMeshVertex
 10
-5.00002384185791
 20
-0.1706333756446838
 30
7.404971599578857
 70
   192
  0
VERTEX
  5
16D
330
F7
100
AcDbEntity
  8
0
 62
   251
100
AcDbVertex
100
AcDbPolyFaceMeshVertex
 10
5.00002098083496
 20
-0.170634999871254
 30
7.404973030090332
 70
   192
  0
VERTEX
  5
16E
330
F7
100
AcDbEntity
  8
0
 62
   251
100
AcDbVertex
100
AcDbPolyFaceMeshVertex
 10
-4.990023612976074
 20
0.449800729751587
 30
7.375935077667236
 70
   192
  0
VERTEX
  5
16F
330
F7
100
AcDbEntity
  8
0
 62
   251
100
AcDbVertex
100
AcDbPolyFaceMeshVertex
 10
-4.990023612976074
 20
0.449800729751587
 30
7.3938889503479
 70
   192
  0
VERTEX
  5
170
330
F7
100
AcDbEntity
  8
0
 62
   251
100
AcDbVertex
100
AcDbPolyFaceMeshVertex
 10
-4.990023612976074
 20
0.449800729751587
 30
7.404971599578857
 70
   192
  0
VERTEX
  5
171
330
F7
100
AcDbEntity
  8
0
 62
   251
100
AcDbVertex
100
AcDbPolyFaceMeshVertex
 10
-4.990023612976074
 20
0.449800729751587
 30
7.707086563110351
 70
   192
  0
VERTEX
  5
172
330
F7
100
AcDbEntity
  8
0
 62
   251
100
AcDbVertex
100
AcDbPolyFaceMeshVertex
 10
-4.986644744873046
 20
0.449800729751587
 30
7.740578651428222
 70
   192
  0
VERTEX
  5
173
330
F7
100
AcDbEntity
  8
0
 62
   251
100
AcDbVertex
100
AcDbPolyFaceMeshVertex
 10
-4.977396011352539
 20
0.449800729751587
 30
7.773311614990234
 70
   192
  0
VERTEX
  5
174
330
F7
100
AcDbEntity
  8
0
 62
   251
100
AcDbVertex
100
AcDbPolyFaceMeshVertex
 10
-4.960416793823242
 20
0.449800729751587
 30
7.80537986755371
 70
   192
  0
VERTEX
  5
175
330
F7
100
AcDbEntity
  8
0
 62
   251
100
AcDbVertex
100
AcDbPolyFaceMeshVertex
 10
-4.934099197387695
 20
0.449800729751587
 30
7.837580680847167
 70
   192
  0
VERTEX
  5
176
330
F7
100
AcDbEntity
  8
0
 62
   251
100
AcDbVertex
100
AcDbPolyFaceMeshVertex
 10
-4.908113479614257
 20
0.4498006701469422
 30
7.857399940490722
 70
   192
  0
VERTEX
  5
177
330
F7
100
AcDbEntity
  8
0
 62
   251
100
AcDbVertex
100
AcDbPolyFaceMeshVertex
 10
-4.876642227172851
 20
0.4498006701469422
 30
7.873045921325683
 70
   192
  0
VERTEX
  5
178
330
F7
100
AcDbEntity
  8
0
 62
   251
100
AcDbVertex
100
AcDbPolyFaceMeshVertex
 10
-4.8449068069458
 20
0.4498006701469422
 30
7.882116794586181
 70
   192
  0
VERTEX
  5
179
330
F7
100
AcDbEntity
  8
0
 62
   251
100
AcDbVertex
100
AcDbPolyFaceMeshVertex
 10
-4.812461853027343
 20
0.4498006701469422
 30
7.885174751281738
 70
   192
  0
VERTEX
  5
17A
330
F7
100
AcDbEntity
  8
0
 62
   251
100
AcDbVertex
100
AcDbPolyFaceMeshVertex
 10
4.812458992004394
 20
0.4497990608215332
 30
7.885176658630371
 70
   192
  0
VERTEX
  5
17B
330
F7
100
AcDbEntity
  8
0
 62
   251
100
AcDbVertex
100
AcDbPolyFaceMeshVertex
 10
4.844903945922851
 20
0.4497990608215332
 30
7.882118225097656
 70
   192
  0
VERTEX
  5
17C
330
F7
100
AcDbEntity
  8
0
 62
   251
100
AcDbVertex
100
AcDbPolyFaceMeshVertex
 10
4.876639366149902
 20
0.449799120426178
 30
7.873047351837158
 70
   192
  0
VERTEX
  5
17D
330
F7
100
AcDbEntity
  8
0
 62
   251
100
AcDbVertex
100
AcDbPolyFaceMeshVertex
 10
4.908110618591308
 20
0.449799120426178
 30
7.857401371002197
 70
   192
  0
VERTEX
  5
17E
330
F7
100
AcDbEntity
  8
0
 62
   251
100
AcDbVertex
100
AcDbPolyFaceMeshVertex
 10
4.934096336364746
 20
0.449799120426178
 30
7.8375825881958
 70
   192
  0
VERTEX
  5
17F
330
F7
100
AcDbEntity
  8
0
 62
   251
100
AcDbVertex
100
AcDbPolyFaceMeshVertex
 10
4.960413932800292
 20
0.449799120426178
 30
7.805381774902343
 70
   192
  0
VERTEX
  5
180
330
F7
100
AcDbEntity
  8
0
 62
   251
100
AcDbVertex
100
AcDbPolyFaceMeshVertex
 10
4.977393150329589
 20
0.4497990608215332
 30
7.773313522338867
 70
   192
  0
VERTEX
  5
181
330
F7
100
AcDbEntity
  8
0
 62
   251
100
AcDbVertex
100
AcDbPolyFaceMeshVertex
 10
4.986640930175781
 20
0.4497990608215332
 30
7.740580081939697
 70
   192
  0
VERTEX
  5
182
330
F7
100
AcDbEntity
  8
0
 62
   251
100
AcDbVertex
100
AcDbPolyFaceMeshVertex
 10
4.990020751953125
 20
0.4497990608215332
 30
7.707088470458984
 70
   192
  0
VERTEX
  5
183
330
F7
100
AcDbEntity
  8
0
 62
   251
100
AcDbVertex
100
AcDbPolyFaceMeshVertex
 10
4.990021705627441
 20
0.4497990608215332
 30
7.404973030090332
 70
   192
  0
VERTEX
  5
184
330
F7
100
AcDbEntity
  8
0
 62
   251
100
AcDbVertex
100
AcDbPolyFaceMeshVertex
 10
4.990021705627441
 20
0.4497990608215332
 30
7.393890380859375
 70
   192
  0
VERTEX
  5
185
330
F7
100
AcDbEntity
  8
0
 62
   251
100
AcDbVertex
100
AcDbPolyFaceMeshVertex
 10
4.990021705627441
 20
0.4497990608215332
 30
7.37593650817871
 70
   192
  0
VERTEX
  5
186
330
F7
100
AcDbEntity
  8
0
 62
   251
100
AcDbVertex
100
AcDbPolyFaceMeshVertex
 10
-4.986576080322265
 20
0.1471437960863113
 30
7.741495132446289
 70
   192
  0
VERTEX
  5
187
330
F7
100
AcDbEntity
  8
0
 62
   251
100
AcDbVertex
100
AcDbPolyFaceMeshVertex
 10
-4.990023612976074
 20
0.1110383495688438
 30
7.707343578338623
 70
   192
  0
VERTEX
  5
188
330
F7
100
AcDbEntity
  8
0
 62
   251
100
AcDbVertex
100
AcDbPolyFaceMeshVertex
 10
-4.990023612976074
 20
-0.1799473762512207
 30
7.412073135375976
 70
   192
  0
VERTEX
  5
189
330
F7
100
AcDbEntity
  8
0
 62
   251
100
AcDbVertex
100
AcDbPolyFaceMeshVertex
 10
4.990020751953125
 20
-0.1799490004777908
 30
7.412075042724609
 70
   192
  0
VERTEX
  5
18A
330
F7
100
AcDbEntity
  8
0
 62
   251
100
AcDbVertex
100
AcDbPolyFaceMeshVertex
 10
4.990020751953125
 20
0.1110366880893707
 30
7.707345008850097
 70
   192
  0
VERTEX
  5
18B
330
F7
100
AcDbEntity
  8
0
 62
   251
100
AcDbVertex
100
AcDbPolyFaceMeshVertex
 10
4.986572265625
 20
0.1471421718597412
 30
7.741497039794921
 70
   192
  0
VERTEX
  5
18C
330
F7
100
AcDbEntity
  8
0
 62
   251
100
AcDbVertex
100
AcDbPolyFaceMeshVertex
 10
4.977090835571289
 20
0.17940653860569
 30
7.775073051452636
 70
   192
  0
VERTEX
  5
18D
330
F7
100
AcDbEntity
  8
0
 62
   251
100
AcDbVertex
100
AcDbPolyFaceMeshVertex
 10
4.959715843200683
 20
0.2113461494445801
 30
7.807898521423339
 70
   192
  0
VERTEX
  5
18E
330
F7
100
AcDbEntity
  8
0
 62
   251
100
AcDbVertex
100
AcDbPolyFaceMeshVertex
 10
4.932966232299804
 20
0.2447642236948013
 30
7.84061050415039
 70
   192
  0
VERTEX
  5
18F
330
F7
100
AcDbEntity
  8
0
 62
   251
100
AcDbVertex
100
AcDbPolyFaceMeshVertex
 10
4.90674877166748
 20
0.2653507590293884
 30
7.860586166381835
 70
   192
  0
VERTEX
  5
190
330
F7
100
AcDbEntity
  8
0
 62
   251
100
AcDbVertex
100
AcDbPolyFaceMeshVertex
 10
4.875408172607421
 20
0.2814201712608337
 30
7.876149177551269
 70
   192
  0
VERTEX
  5
191
330
F7
100
AcDbEntity
  8
0
 62
   251
100
AcDbVertex
100
AcDbPolyFaceMeshVertex
 10
4.844326972961425
 20
0.2905156016349792
 30
7.885022163391113
 70
   192
  0
VERTEX
  5
192
330
F7
100
AcDbEntity
  8
0
 62
   251
100
AcDbVertex
100
AcDbPolyFaceMeshVertex
 10
4.812435150146484
 20
0.2919238805770874
 30
7.888074874877929
 70
   192
  0
VERTEX
  5
193
330
F7
100
AcDbEntity
  8
0
 62
   251
100
AcDbVertex
100
AcDbPolyFaceMeshVertex
 10
-4.812438011169433
 20
0.2919254899024963
 30
7.888072967529296
 70
   192
  0
VERTEX
  5
194
330
F7
100
AcDbEntity
  8
0
 62
   251
100
AcDbVertex
100
AcDbPolyFaceMeshVertex
 10
-4.844330787658691
 20
0.2905171513557434
 30
7.885020732879638
 70
   192
  0
VERTEX
  5
195
330
F7
100
AcDbEntity
  8
0
 62
   251
100
AcDbVertex
100
AcDbPolyFaceMeshVertex
 10
-4.875411033630371
 20
0.2814217209815979
 30
7.876147747039794
 70
   192
  0
VERTEX
  5
196
330
F7
100
AcDbEntity
  8
0
 62
   251
100
AcDbVertex
100
AcDbPolyFaceMeshVertex
 10
-4.906751632690429
 20
0.2653523087501526
 30
7.860584259033203
 70
   192
  0
VERTEX
  5
197
330
F7
100
AcDbEntity
  8
0
 62
   251
100
AcDbVertex
100
AcDbPolyFaceMeshVertex
 10
-4.932969093322753
 20
0.2447658330202103
 30
7.840608596801757
 70
   192
  0
VERTEX
  5
198
330
F7
100
AcDbEntity
  8
0
 62
   251
100
AcDbVertex
100
AcDbPolyFaceMeshVertex
 10
-4.959718704223632
 20
0.2113477736711502
 30
7.807896614074707
 70
   192
  0
VERTEX
  5
199
330
F7
100
AcDbEntity
  8
0
 62
   251
100
AcDbVertex
100
AcDbPolyFaceMeshVertex
 10
-4.977093696594238
 20
0.1794081330299377
 30
7.775071144104003
 70
   192
  0
VERTEX
  5
19A
330
F7
100
AcDbEntity
  8
0
 62
   251
100
AcDbVertex
100
AcDbPolyFaceMeshVertex
 10
-5.00002098083496
 20
0.449800729751587
 30
-7.393891334533691
 70
   192
  0
VERTEX
  5
19B
330
F7
100
AcDbEntity
  8
0
 62
   251
100
AcDbVertex
100
AcDbPolyFaceMeshVertex
 10
-5.00002098083496
 20
0.449800729751587
 30
-7.375937461853027
 70
   192
  0
VERTEX
  5
19C
330
F7
100
AcDbEntity
  8
0
 62
   251
100
AcDbVertex
100
AcDbPolyFaceMeshVertex
 10
-5.00002098083496
 20
0.4404497146606446
 30
-7.375937461853027
 70
   192
  0
VERTEX
  5
19D
330
F7
100
AcDbEntity
  8
0
 62
   251
100
AcDbVertex
100
AcDbPolyFaceMeshVertex
 10
-5.00002098083496
 20
0.4404497146606446
 30
-7.393891334533691
 70
   192
  0
VERTEX
  5
19E
330
F7
100
AcDbEntity
  8
0
 62
   251
100
AcDbVertex
100
AcDbPolyFaceMeshVertex
 10
-5.00002098083496
 20
0.4404497146606446
 30
-7.404973030090332
 70
   192
  0
VERTEX
  5
19F
330
F7
100
AcDbEntity
  8
0
 62
   251
100
AcDbVertex
100
AcDbPolyFaceMeshVertex
 10
-5.00002098083496
 20
0.449800729751587
 30
-7.404973030090332
 70
   192
  0
VERTEX
  5
1A0
330
F7
100
AcDbEntity
  8
0
 62
   251
100
AcDbVertex
100
AcDbPolyFaceMeshVertex
 10
-5.00002098083496
 20
0.449800729751587
 30
-7.707592010498046
 70
   192
  0
VERTEX
  5
1A1
330
F7
100
AcDbEntity
  8
0
 62
   251
100
AcDbVertex
100
AcDbPolyFaceMeshVertex
 10
-5.00002098083496
 20
0.4404497146606446
 30
-7.707592010498046
 70
   192
  0
VERTEX
  5
1A2
330
F7
100
AcDbEntity
  8
0
 62
   251
100
AcDbVertex
100
AcDbPolyFaceMeshVertex
 10
-4.996503829956054
 20
0.4404497146606446
 30
-7.74245548248291
 70
   192
  0
VERTEX
  5
1A3
330
F7
100
AcDbEntity
  8
0
 62
   251
100
AcDbVertex
100
AcDbPolyFaceMeshVertex
 10
-4.996503829956054
 20
0.449800729751587
 30
-7.74245548248291
 70
   192
  0
VERTEX
  5
1A4
330
F7
100
AcDbEntity
  8
0
 62
   251
100
AcDbVertex
100
AcDbPolyFaceMeshVertex
 10
-4.986727714538574
 20
0.4404497146606446
 30
-7.777054786682128
 70
   192
  0
VERTEX
  5
1A5
330
F7
100
AcDbEntity
  8
0
 62
   251
100
AcDbVertex
100
AcDbPolyFaceMeshVertex
 10
-4.986727714538574
 20
0.449800729751587
 30
-7.777054786682128
 70
   192
  0
VERTEX
  5
1A6
330
F7
100
AcDbEntity
  8
0
 62
   251
100
AcDbVertex
100
AcDbPolyFaceMeshVertex
 10
-4.968786239624023
 20
0.4404497146606446
 30
-7.810940742492675
 70
   192
  0
VERTEX
  5
1A7
330
F7
100
AcDbEntity
  8
0
 62
   251
100
AcDbVertex
100
AcDbPolyFaceMeshVertex
 10
-4.968786239624023
 20
0.449800729751587
 30
-7.810940742492675
 70
   192
  0
VERTEX
  5
1A8
330
F7
100
AcDbEntity
  8
0
 62
   251
100
AcDbVertex
100
AcDbPolyFaceMeshVertex
 10
-4.941095352172851
 20
0.4404497146606446
 30
-7.844820976257324
 70
   192
  0
VERTEX
  5
1A9
330
F7
100
AcDbEntity
  8
0
 62
   251
100
AcDbVertex
100
AcDbPolyFaceMeshVertex
 10
-4.941095352172851
 20
0.449800729751587
 30
-7.844820976257324
 70
   192
  0
VERTEX
  5
1AA
330
F7
100
AcDbEntity
  8
0
 62
   251
100
AcDbVertex
100
AcDbPolyFaceMeshVertex
 10
-4.913416862487792
 20
0.4404497146606446
 30
-7.865931510925292
 70
   192
  0
VERTEX
  5
1AB
330
F7
100
AcDbEntity
  8
0
 62
   251
100
AcDbVertex
100
AcDbPolyFaceMeshVertex
 10
-4.913416862487792
 20
0.449800729751587
 30
-7.865931510925292
 70
   192
  0
VERTEX
  5
1AC
330
F7
100
AcDbEntity
  8
0
 62
   251
100
AcDbVertex
100
AcDbPolyFaceMeshVertex
 10
-4.88027000427246
 20
0.4404496550559998
 30
-7.882411003112792
 70
   192
  0
VERTEX
  5
1AD
330
F7
100
AcDbEntity
  8
0
 62
   251
100
AcDbVertex
100
AcDbPolyFaceMeshVertex
 10
-4.88027000427246
 20
0.4498006701469422
 30
-7.882411003112792
 70
   192
  0
VERTEX
  5
1AE
330
F7
100
AcDbEntity
  8
0
 62
   251
100
AcDbVertex
100
AcDbPolyFaceMeshVertex
 10
-4.846763610839843
 20
0.4404496550559998
 30
-7.891987800598144
 70
   192
  0
VERTEX
  5
1AF
330
F7
100
AcDbEntity
  8
0
 62
   251
100
AcDbVertex
100
AcDbPolyFaceMeshVertex
 10
-4.846763610839843
 20
0.4498006701469422
 30
-7.891987800598144
 70
   192
  0
VERTEX
  5
1B0
330
F7
100
AcDbEntity
  8
0
 62
   251
100
AcDbVertex
100
AcDbPolyFaceMeshVertex
 10
-4.812929153442382
 20
0.4404496550559998
 30
-7.895176887512207
 70
   192
  0
VERTEX
  5
1B1
330
F7
100
AcDbEntity
  8
0
 62
   251
100
AcDbVertex
100
AcDbPolyFaceMeshVertex
 10
-4.812929153442382
 20
0.4498006701469422
 30
-7.895176887512207
 70
   192
  0
VERTEX
  5
1B2
330
F7
100
AcDbEntity
  8
0
 62
   251
100
AcDbVertex
100
AcDbPolyFaceMeshVertex
 10
5.00002384185791
 20
0.4497990608215332
 30
-7.393889427185058
 70
   192
  0
VERTEX
  5
1B3
330
F7
100
AcDbEntity
  8
0
 62
   251
100
AcDbVertex
100
AcDbPolyFaceMeshVertex
 10
5.00002384185791
 20
0.4404480457305909
 30
-7.393889427185058
 70
   192
  0
VERTEX
  5
1B4
330
F7
100
AcDbEntity
  8
0
 62
   251
100
AcDbVertex
100
AcDbPolyFaceMeshVertex
 10
5.00002384185791
 20
0.4404480457305909
 30
-7.375935554504394
 70
   192
  0
VERTEX
  5
1B5
330
F7
100
AcDbEntity
  8
0
 62
   251
100
AcDbVertex
100
AcDbPolyFaceMeshVertex
 10
5.00002384185791
 20
0.4497990608215332
 30
-7.375935554504394
 70
   192
  0
VERTEX
  5
1B6
330
F7
100
AcDbEntity
  8
0
 62
   251
100
AcDbVertex
100
AcDbPolyFaceMeshVertex
 10
5.00002384185791
 20
0.4497990608215332
 30
-7.404971122741699
 70
   192
  0
VERTEX
  5
1B7
330
F7
100
AcDbEntity
  8
0
 62
   251
100
AcDbVertex
100
AcDbPolyFaceMeshVertex
 10
5.00002384185791
 20
0.4404480457305909
 30
-7.404971122741699
 70
   192
  0
VERTEX
  5
1B8
330
F7
100
AcDbEntity
  8
0
 62
   251
100
AcDbVertex
100
AcDbPolyFaceMeshVertex
 10
5.00002384185791
 20
0.4497990608215332
 30
-7.707590103149414
 70
   192
  0
VERTEX
  5
1B9
330
F7
100
AcDbEntity
  8
0
 62
   251
100
AcDbVertex
100
AcDbPolyFaceMeshVertex
 10
4.996505737304687
 20
0.4497990608215332
 30
-7.742453575134277
 70
   192
  0
VERTEX
  5
1BA
330
F7
100
AcDbEntity
  8
0
 62
   251
100
AcDbVertex
100
AcDbPolyFaceMeshVertex
 10
4.996505737304687
 20
0.4404480457305909
 30
-7.742453575134277
 70
   192
  0
VERTEX
  5
1BB
330
F7
100
AcDbEntity
  8
0
 62
   251
100
AcDbVertex
100
AcDbPolyFaceMeshVertex
 10
5.00002384185791
 20
0.4404480457305909
 30
-7.707590103149414
 70
   192
  0
VERTEX
  5
1BC
330
F7
100
AcDbEntity
  8
0
 62
   251
100
AcDbVertex
100
AcDbPolyFaceMeshVertex
 10
4.986730575561523
 20
0.4497990608215332
 30
-7.777052879333496
 70
   192
  0
VERTEX
  5
1BD
330
F7
100
AcDbEntity
  8
0
 62
   251
100
AcDbVertex
100
AcDbPolyFaceMeshVertex
 10
4.986730575561523
 20
0.4404480457305909
 30
-7.777052879333496
 70
   192
  0
VERTEX
  5
1BE
330
F7
100
AcDbEntity
  8
0
 62
   251
100
AcDbVertex
100
AcDbPolyFaceMeshVertex
 10
4.968789100646972
 20
0.449799120426178
 30
-7.810938835144042
 70
   192
  0
VERTEX
  5
1BF
330
F7
100
AcDbEntity
  8
0
 62
   251
100
AcDbVertex
100
AcDbPolyFaceMeshVertex
 10
4.968789100646972
 20
0.4404480457305909
 30
-7.810938835144042
 70
   192
  0
VERTEX
  5
1C0
330
F7
100
AcDbEntity
  8
0
 62
   251
100
AcDbVertex
100
AcDbPolyFaceMeshVertex
 10
4.9410982131958
 20
0.449799120426178
 30
-7.844819068908691
 70
   192
  0
VERTEX
  5
1C1
330
F7
100
AcDbEntity
  8
0
 62
   251
100
AcDbVertex
100
AcDbPolyFaceMeshVertex
 10
4.9410982131958
 20
0.4404480457305909
 30
-7.844819068908691
 70
   192
  0
VERTEX
  5
1C2
330
F7
100
AcDbEntity
  8
0
 62
   251
100
AcDbVertex
100
AcDbPolyFaceMeshVertex
 10
4.913419723510742
 20
0.449799120426178
 30
-7.86592960357666
 70
   192
  0
VERTEX
  5
1C3
330
F7
100
AcDbEntity
  8
0
 62
   251
100
AcDbVertex
100
AcDbPolyFaceMeshVertex
 10
4.913419723510742
 20
0.4404480457305909
 30
-7.86592960357666
 70
   192
  0
VERTEX
  5
1C4
330
F7
100
AcDbEntity
  8
0
 62
   251
100
AcDbVertex
100
AcDbPolyFaceMeshVertex
 10
4.88027286529541
 20
0.449799120426178
 30
-7.88240909576416
 70
   192
  0
VERTEX
  5
1C5
330
F7
100
AcDbEntity
  8
0
 62
   251
100
AcDbVertex
100
AcDbPolyFaceMeshVertex
 10
4.88027286529541
 20
0.4404480457305909
 30
-7.88240909576416
 70
   192
  0
VERTEX
  5
1C6
330
F7
100
AcDbEntity
  8
0
 62
   251
100
AcDbVertex
100
AcDbPolyFaceMeshVertex
 10
4.846765518188476
 20
0.4497990608215332
 30
-7.891985893249511
 70
   192
  0
VERTEX
  5
1C7
330
F7
100
AcDbEntity
  8
0
 62
   251
100
AcDbVertex
100
AcDbPolyFaceMeshVertex
 10
4.846765518188476
 20
0.4404481053352356
 30
-7.891985893249511
 70
   192
  0
VERTEX
  5
1C8
330
F7
100
AcDbEntity
  8
0
 62
   251
100
AcDbVertex
100
AcDbPolyFaceMeshVertex
 10
4.812932014465332
 20
0.4497990608215332
 30
-7.895174980163574
 70
   192
  0
VERTEX
  5
1C9
330
F7
100
AcDbEntity
  8
0
 62
   251
100
AcDbVertex
100
AcDbPolyFaceMeshVertex
 10
4.812932014465332
 20
0.4404481053352356
 30
-7.895174980163574
 70
   192
  0
VERTEX
  5
1CA
330
F7
100
AcDbEntity
  8
0
 62
   251
100
AcDbVertex
100
AcDbPolyFaceMeshVertex
 10
5.00002384185791
 20
-0.2131834477186203
 30
-7.393889427185058
 70
   192
  0
VERTEX
  5
1CB
330
F7
100
AcDbEntity
  8
0
 62
   251
100
AcDbVertex
100
AcDbPolyFaceMeshVertex
 10
5.00002384185791
 20
-0.4345300197601319
 30
-7.393889427185058
 70
   192
  0
VERTEX
  5
1CC
330
F7
100
AcDbEntity
  8
0
 62
   251
100
AcDbVertex
100
AcDbPolyFaceMeshVertex
 10
5.00002384185791
 20
-0.4345300197601319
 30
-7.375935554504394
 70
   192
  0
VERTEX
  5
1CD
330
F7
100
AcDbEntity
  8
0
 62
   251
100
AcDbVertex
100
AcDbPolyFaceMeshVertex
 10
5.00002384185791
 20
-0.2131834477186203
 30
-7.375935554504394
 70
   192
  0
VERTEX
  5
1CE
330
F7
100
AcDbEntity
  8
0
 62
   251
100
AcDbVertex
100
AcDbPolyFaceMeshVertex
 10
-5.00002098083496
 20
-0.2131818234920502
 30
-7.393891334533691
 70
   192
  0
VERTEX
  5
1CF
330
F7
100
AcDbEntity
  8
0
 62
   251
100
AcDbVertex
100
AcDbPolyFaceMeshVertex
 10
-5.00002098083496
 20
-0.4345283508300782
 30
-7.393891334533691
 70
   192
  0
VERTEX
  5
1D0
330
F7
100
AcDbEntity
  8
0
 62
   251
100
AcDbVertex
100
AcDbPolyFaceMeshVertex
 10
-4.987546920776367
 20
-0.4345283508300782
 30
-7.393891334533691
 70
   192
  0
VERTEX
  5
1D1
330
F7
100
AcDbEntity
  8
0
 62
   251
100
AcDbVertex
100
AcDbPolyFaceMeshVertex
 10
-4.987546920776367
 20
-0.2131818234920502
 30
-7.393891334533691
 70
   192
  0
VERTEX
  5
1D2
330
F7
100
AcDbEntity
  8
0
 62
   251
100
AcDbVertex
100
AcDbPolyFaceMeshVertex
 10
5.00002384185791
 20
-0.449800729751587
 30
-7.393889427185058
 70
   192
  0
VERTEX
  5
1D3
330
F7
100
AcDbEntity
  8
0
 62
   251
100
AcDbVertex
100
AcDbPolyFaceMeshVertex
 10
4.985116958618164
 20
-0.449800729751587
 30
-7.393889427185058
 70
   192
  0
VERTEX
  5
1D4
330
F7
100
AcDbEntity
  8
0
 62
   251
100
AcDbVertex
100
AcDbPolyFaceMeshVertex
 10
4.985116958618164
 20
-0.449800729751587
 30
-7.375935554504394
 70
   192
  0
VERTEX
  5
1D5
330
F7
100
AcDbEntity
  8
0
 62
   251
100
AcDbVertex
100
AcDbPolyFaceMeshVertex
 10
5.00002384185791
 20
-0.449800729751587
 30
-7.375935554504394
 70
   192
  0
VERTEX
  5
1D6
330
F7
100
AcDbEntity
  8
0
 62
   251
100
AcDbVertex
100
AcDbPolyFaceMeshVertex
 10
-5.00002098083496
 20
-0.1979111135005951
 30
-7.393891334533691
 70
   192
  0
VERTEX
  5
1D7
330
F7
100
AcDbEntity
  8
0
 62
   251
100
AcDbVertex
100
AcDbPolyFaceMeshVertex
 10
-4.987546920776367
 20
-0.1979111135005951
 30
-7.393891334533691
 70
   192
  0
VERTEX
  5
1D8
330
F7
100
AcDbEntity
  8
0
 62
   251
100
AcDbVertex
100
AcDbPolyFaceMeshVertex
 10
4.985116958618164
 20
-0.1979127377271652
 30
-7.393889427185058
 70
   192
  0
VERTEX
  5
1D9
330
F7
100
AcDbEntity
  8
0
 62
   251
100
AcDbVertex
100
AcDbPolyFaceMeshVertex
 10
5.00002384185791
 20
-0.1979127377271652
 30
-7.393889427185058
 70
   192
  0
VERTEX
  5
1DA
330
F7
100
AcDbEntity
  8
0
 62
   251
100
AcDbVertex
100
AcDbPolyFaceMeshVertex
 10
5.00002384185791
 20
-0.1869893372058868
 30
-7.404971122741699
 70
   192
  0
VERTEX
  5
1DB
330
F7
100
AcDbEntity
  8
0
 62
   251
100
AcDbVertex
100
AcDbPolyFaceMeshVertex
 10
-5.00002098083496
 20
-0.1869877129793167
 30
-7.404973030090332
 70
   192
  0
VERTEX
  5
1DC
330
F7
100
AcDbEntity
  8
0
 62
   251
100
AcDbVertex
100
AcDbPolyFaceMeshVertex
 10
4.990023612976074
 20
0.4497990608215332
 30
-7.393889427185058
 70
   192
  0
VERTEX
  5
1DD
330
F7
100
AcDbEntity
  8
0
 62
   251
100
AcDbVertex
100
AcDbPolyFaceMeshVertex
 10
4.990023612976074
 20
0.4497990608215332
 30
-7.375935554504394
 70
   192
  0
VERTEX
  5
1DE
330
F7
100
AcDbEntity
  8
0
 62
   251
100
AcDbVertex
100
AcDbPolyFaceMeshVertex
 10
-4.990020751953125
 20
0.449800729751587
 30
-7.375937461853027
 70
   192
  0
VERTEX
  5
1DF
330
F7
100
AcDbEntity
  8
0
 62
   251
100
AcDbVertex
100
AcDbPolyFaceMeshVertex
 10
-4.990020751953125
 20
0.449800729751587
 30
-7.393891334533691
 70
   192
  0
VERTEX
  5
1E0
330
F7
100
AcDbEntity
  8
0
 62
   251
100
AcDbVertex
100
AcDbPolyFaceMeshVertex
 10
-4.990020751953125
 20
0.449800729751587
 30
-7.707088470458984
 70
   192
  0
VERTEX
  5
1E1
330
F7
100
AcDbEntity
  8
0
 62
   251
100
AcDbVertex
100
AcDbPolyFaceMeshVertex
 10
-4.986641883850097
 20
0.449800729751587
 30
-7.740580558776855
 70
   192
  0
VERTEX
  5
1E2
330
F7
100
AcDbEntity
  8
0
 62
   251
100
AcDbVertex
100
AcDbPolyFaceMeshVertex
 10
-4.977393150329589
 20
0.449800729751587
 30
-7.773313522338867
 70
   192
  0
VERTEX
  5
1E3
330
F7
100
AcDbEntity
  8
0
 62
   251
100
AcDbVertex
100
AcDbPolyFaceMeshVertex
 10
-4.960413932800292
 20
0.449800729751587
 30
-7.805381774902343
 70
   192
  0
VERTEX
  5
1E4
330
F7
100
AcDbEntity
  8
0
 62
   251
100
AcDbVertex
100
AcDbPolyFaceMeshVertex
 10
-4.934096336364746
 20
0.449800729751587
 30
-7.8375825881958
 70
   192
  0
VERTEX
  5
1E5
330
F7
100
AcDbEntity
  8
0
 62
   251
100
AcDbVertex
100
AcDbPolyFaceMeshVertex
 10
-4.908110618591308
 20
0.4498006701469422
 30
-7.857401847839355
 70
   192
  0
VERTEX
  5
1E6
330
F7
100
AcDbEntity
  8
0
 62
   251
100
AcDbVertex
100
AcDbPolyFaceMeshVertex
 10
-4.876639366149902
 20
0.4498006701469422
 30
-7.873047828674316
 70
   192
  0
VERTEX
  5
1E7
330
F7
100
AcDbEntity
  8
0
 62
   251
100
AcDbVertex
100
AcDbPolyFaceMeshVertex
 10
-4.844903945922851
 20
0.4498006701469422
 30
-7.882119178771972
 70
   192
  0
VERTEX
  5
1E8
330
F7
100
AcDbEntity
  8
0
 62
   251
100
AcDbVertex
100
AcDbPolyFaceMeshVertex
 10
-4.812458992004394
 20
0.4498006701469422
 30
-7.885176658630371
 70
   192
  0
VERTEX
  5
1E9
330
F7
100
AcDbEntity
  8
0
 62
   251
100
AcDbVertex
100
AcDbPolyFaceMeshVertex
 10
4.812461853027343
 20
0.4497990608215332
 30
-7.885174751281738
 70
   192
  0
VERTEX
  5
1EA
330
F7
100
AcDbEntity
  8
0
 62
   251
100
AcDbVertex
100
AcDbPolyFaceMeshVertex
 10
4.8449068069458
 20
0.4497990608215332
 30
-7.882117271423339
 70
   192
  0
VERTEX
  5
1EB
330
F7
100
AcDbEntity
  8
0
 62
   251
100
AcDbVertex
100
AcDbPolyFaceMeshVertex
 10
4.876642227172851
 20
0.449799120426178
 30
-7.873045921325683
 70
   192
  0
VERTEX
  5
1EC
330
F7
100
AcDbEntity
  8
0
 62
   251
100
AcDbVertex
100
AcDbPolyFaceMeshVertex
 10
4.908113479614257
 20
0.449799120426178
 30
-7.857399940490722
 70
   192
  0
VERTEX
  5
1ED
330
F7
100
AcDbEntity
  8
0
 62
   251
100
AcDbVertex
100
AcDbPolyFaceMeshVertex
 10
4.934099197387695
 20
0.449799120426178
 30
-7.837580680847167
 70
   192
  0
VERTEX
  5
1EE
330
F7
100
AcDbEntity
  8
0
 62
   251
100
AcDbVertex
100
AcDbPolyFaceMeshVertex
 10
4.960416793823242
 20
0.449799120426178
 30
-7.80537986755371
 70
   192
  0
VERTEX
  5
1EF
330
F7
100
AcDbEntity
  8
0
 62
   251
100
AcDbVertex
100
AcDbPolyFaceMeshVertex
 10
4.977396011352539
 20
0.4497990608215332
 30
-7.773311614990234
 70
   192
  0
VERTEX
  5
1F0
330
F7
100
AcDbEntity
  8
0
 62
   251
100
AcDbVertex
100
AcDbPolyFaceMeshVertex
 10
4.98664379119873
 20
0.4497990608215332
 30
-7.740578651428222
 70
   192
  0
VERTEX
  5
1F1
330
F7
100
AcDbEntity
  8
0
 62
   251
100
AcDbVertex
100
AcDbPolyFaceMeshVertex
 10
4.990023612976074
 20
0.4497990608215332
 30
-7.707086563110351
 70
   192
  0
VERTEX
  5
1F2
330
F7
100
AcDbEntity
  8
0
 62
   251
100
AcDbVertex
100
AcDbPolyFaceMeshVertex
 10
4.990023612976074
 20
0.4497990608215332
 30
-7.404971122741699
 70
   192
  0
VERTEX
  5
1F3
330
F7
100
AcDbEntity
  8
0
 62
   251
100
AcDbVertex
100
AcDbPolyFaceMeshVertex
 10
-4.990020751953125
 20
0.449800729751587
 30
-7.404973030090332
 70
   192
  0
VERTEX
  5
1F4
330
F7
100
AcDbEntity
  8
0
 62
   251
100
AcDbVertex
100
AcDbPolyFaceMeshVertex
 10
-5.00002098083496
 20
-0.181556761264801
 30
-7.393891334533691
 70
   192
  0
VERTEX
  5
1F5
330
F7
100
AcDbEntity
  8
0
 62
   251
100
AcDbVertex
100
AcDbPolyFaceMeshVertex
 10
-5.00002098083496
 20
-0.1706333756446838
 30
-7.404973030090332
 70
   192
  0
VERTEX
  5
1F6
330
F7
100
AcDbEntity
  8
0
 62
   251
100
AcDbVertex
100
AcDbPolyFaceMeshVertex
 10
-5.00002098083496
 20
0.1276367455720901
 30
-7.707592010498046
 70
   192
  0
VERTEX
  5
1F7
330
F7
100
AcDbEntity
  8
0
 62
   251
100
AcDbVertex
100
AcDbPolyFaceMeshVertex
 10
-4.996503829956054
 20
0.1644485145807266
 30
-7.74245548248291
 70
   192
  0
VERTEX
  5
1F8
330
F7
100
AcDbEntity
  8
0
 62
   251
100
AcDbVertex
100
AcDbPolyFaceMeshVertex
 10
-4.986727714538574
 20
0.1977264285087585
 30
-7.777054786682128
 70
   192
  0
VERTEX
  5
1F9
330
F7
100
AcDbEntity
  8
0
 62
   251
100
AcDbVertex
100
AcDbPolyFaceMeshVertex
 10
-4.968786239624023
 20
0.2307173013687134
 30
-7.810940742492675
 70
   192
  0
VERTEX
  5
1FA
330
F7
100
AcDbEntity
  8
0
 62
   251
100
AcDbVertex
100
AcDbPolyFaceMeshVertex
 10
-4.941095352172851
 20
0.2652940154075623
 30
-7.844820976257324
 70
   192
  0
VERTEX
  5
1FB
330
F7
100
AcDbEntity
  8
0
 62
   251
100
AcDbVertex
100
AcDbPolyFaceMeshVertex
 10
-4.913416862487792
 20
0.2870055437088013
 30
-7.865931510925292
 70
   192
  0
VERTEX
  5
1FC
330
F7
100
AcDbEntity
  8
0
 62
   251
100
AcDbVertex
100
AcDbPolyFaceMeshVertex
 10
-4.88027000427246
 20
0.3039828538894653
 30
-7.882411003112792
 70
   192
  0
VERTEX
  5
1FD
330
F7
100
AcDbEntity
  8
0
 62
   251
100
AcDbVertex
100
AcDbPolyFaceMeshVertex
 10
-4.846763610839843
 20
0.313776433467865
 30
-7.891987800598144
 70
   192
  0
VERTEX
  5
1FE
330
F7
100
AcDbEntity
  8
0
 62
   251
100
AcDbVertex
100
AcDbPolyFaceMeshVertex
 10
-4.812929153442382
 20
0.3153201341629028
 30
-7.895176887512207
 70
   192
  0
VERTEX
  5
1FF
330
F7
100
AcDbEntity
  8
0
 62
   251
100
AcDbVertex
100
AcDbPolyFaceMeshVertex
 10
5.00002384185791
 20
-0.1815583854913711
 30
-7.393889427185058
 70
   192
  0
VERTEX
  5
200
330
F7
100
AcDbEntity
  8
0
 62
   251
100
AcDbVertex
100
AcDbPolyFaceMeshVertex
 10
5.00002384185791
 20
-0.1815583854913711
 30
-7.375935554504394
 70
   192
  0
VERTEX
  5
201
330
F7
100
AcDbEntity
  8
0
 62
   251
100
AcDbVertex
100
AcDbPolyFaceMeshVertex
 10
5.00002384185791
 20
0.1276351064443588
 30
-7.707590103149414
 70
   192
  0
VERTEX
  5
202
330
F7
100
AcDbEntity
  8
0
 62
   251
100
AcDbVertex
100
AcDbPolyFaceMeshVertex
 10
5.00002384185791
 20
-0.170634999871254
 30
-7.404971122741699
 70
   192
  0
VERTEX
  5
203
330
F7
100
AcDbEntity
  8
0
 62
   251
100
AcDbVertex
100
AcDbPolyFaceMeshVertex
 10
4.996505737304687
 20
0.1644468903541565
 30
-7.742453575134277
 70
   192
  0
VERTEX
  5
204
330
F7
100
AcDbEntity
  8
0
 62
   251
100
AcDbVertex
100
AcDbPolyFaceMeshVertex
 10
4.986730575561523
 20
0.1977248042821884
 30
-7.777052879333496
 70
   192
  0
VERTEX
  5
205
330
F7
100
AcDbEntity
  8
0
 62
   251
100
AcDbVertex
100
AcDbPolyFaceMeshVertex
 10
4.968789100646972
 20
0.2307156771421432
 30
-7.810938835144042
 70
   192
  0
VERTEX
  5
206
330
F7
100
AcDbEntity
  8
0
 62
   251
100
AcDbVertex
100
AcDbPolyFaceMeshVertex
 10
4.9410982131958
 20
0.2652924060821533
 30
-7.844819068908691
 70
   192
  0
VERTEX
  5
207
330
F7
100
AcDbEntity
  8
0
 62
   251
100
AcDbVertex
100
AcDbPolyFaceMeshVertex
 10
4.913419723510742
 20
0.2870039343833923
 30
-7.86592960357666
 70
   192
  0
VERTEX
  5
208
330
F7
100
AcDbEntity
  8
0
 62
   251
100
AcDbVertex
100
AcDbPolyFaceMeshVertex
 10
4.88027286529541
 20
0.3039812445640564
 30
-7.88240909576416
 70
   192
  0
VERTEX
  5
209
330
F7
100
AcDbEntity
  8
0
 62
   251
100
AcDbVertex
100
AcDbPolyFaceMeshVertex
 10
4.846765518188476
 20
0.3137749433517456
 30
-7.891985893249511
 70
   192
  0
VERTEX
  5
20A
330
F7
100
AcDbEntity
  8
0
 62
   251
100
AcDbVertex
100
AcDbPolyFaceMeshVertex
 10
4.812932014465332
 20
0.3153186440467834
 30
-7.895174980163574
 70
   192
  0
VERTEX
  5
20B
330
F7
100
AcDbEntity
  8
0
 62
   251
100
AcDbVertex
100
AcDbPolyFaceMeshVertex
 10
-5.00002098083496
 20
0.1112824007868767
 30
-7.707592010498046
 70
   192
  0
VERTEX
  5
20C
330
F7
100
AcDbEntity
  8
0
 62
   251
100
AcDbVertex
100
AcDbPolyFaceMeshVertex
 10
-4.996503829956054
 20
0.1480941772460937
 30
-7.74245548248291
 70
   192
  0
VERTEX
  5
20D
330
F7
100
AcDbEntity
  8
0
 62
   251
100
AcDbVertex
100
AcDbPolyFaceMeshVertex
 10
-4.986727714538574
 20
0.1813720911741257
 30
-7.777054786682128
 70
   192
  0
VERTEX
  5
20E
330
F7
100
AcDbEntity
  8
0
 62
   251
100
AcDbVertex
100
AcDbPolyFaceMeshVertex
 10
-4.968786239624023
 20
0.2143629640340805
 30
-7.810940742492675
 70
   192
  0
VERTEX
  5
20F
330
F7
100
AcDbEntity
  8
0
 62
   251
100
AcDbVertex
100
AcDbPolyFaceMeshVertex
 10
-4.941095352172851
 20
0.2489396780729294
 30
-7.844820976257324
 70
   192
  0
VERTEX
  5
210
330
F7
100
AcDbEntity
  8
0
 62
   251
100
AcDbVertex
100
AcDbPolyFaceMeshVertex
 10
-4.913416862487792
 20
0.2706512212753296
 30
-7.865931510925292
 70
   192
  0
VERTEX
  5
211
330
F7
100
AcDbEntity
  8
0
 62
   251
100
AcDbVertex
100
AcDbPolyFaceMeshVertex
 10
-4.88027000427246
 20
0.2876285314559936
 30
-7.882411003112792
 70
   192
  0
VERTEX
  5
212
330
F7
100
AcDbEntity
  8
0
 62
   251
100
AcDbVertex
100
AcDbPolyFaceMeshVertex
 10
-4.846763610839843
 20
0.2974221110343933
 30
-7.891987800598144
 70
   192
  0
VERTEX
  5
213
330
F7
100
AcDbEntity
  8
0
 62
   251
100
AcDbVertex
100
AcDbPolyFaceMeshVertex
 10
-4.812929153442382
 20
0.2989658117294311
 30
-7.895176887512207
 70
   192
  0
VERTEX
  5
214
330
F7
100
AcDbEntity
  8
0
 62
   251
100
AcDbVertex
100
AcDbPolyFaceMeshVertex
 10
5.00002384185791
 20
-0.1979127377271652
 30
-7.375935554504394
 70
   192
  0
VERTEX
  5
215
330
F7
100
AcDbEntity
  8
0
 62
   251
100
AcDbVertex
100
AcDbPolyFaceMeshVertex
 10
5.00002384185791
 20
0.1112807691097259
 30
-7.707590103149414
 70
   192
  0
VERTEX
  5
216
330
F7
100
AcDbEntity
  8
0
 62
   251
100
AcDbVertex
100
AcDbPolyFaceMeshVertex
 10
4.996505737304687
 20
0.1480925530195236
 30
-7.742453575134277
 70
   192
  0
VERTEX
  5
217
330
F7
100
AcDbEntity
  8
0
 62
   251
100
AcDbVertex
100
AcDbPolyFaceMeshVertex
 10
4.986730575561523
 20
0.1813704669475555
 30
-7.777052879333496
 70
   192
  0
VERTEX
  5
218
330
F7
100
AcDbEntity
  8
0
 62
   251
100
AcDbVertex
100
AcDbPolyFaceMeshVertex
 10
4.968789100646972
 20
0.2143613398075104
 30
-7.810938835144042
 70
   192
  0
VERTEX
  5
219
330
F7
100
AcDbEntity
  8
0
 62
   251
100
AcDbVertex
100
AcDbPolyFaceMeshVertex
 10
4.9410982131958
 20
0.2489380687475204
 30
-7.844819068908691
 70
   192
  0
VERTEX
  5
21A
330
F7
100
AcDbEntity
  8
0
 62
   251
100
AcDbVertex
100
AcDbPolyFaceMeshVertex
 10
4.913419723510742
 20
0.2706496119499206
 30
-7.86592960357666
 70
   192
  0
VERTEX
  5
21B
330
F7
100
AcDbEntity
  8
0
 62
   251
100
AcDbVertex
100
AcDbPolyFaceMeshVertex
 10
4.88027286529541
 20
0.2876269221305847
 30
-7.88240909576416
 70
   192
  0
VERTEX
  5
21C
330
F7
100
AcDbEntity
  8
0
 62
   251
100
AcDbVertex
100
AcDbPolyFaceMeshVertex
 10
4.846765518188476
 20
0.2974205613136291
 30
-7.891985893249511
 70
   192
  0
VERTEX
  5
21D
330
F7
100
AcDbEntity
  8
0
 62
   251
100
AcDbVertex
100
AcDbPolyFaceMeshVertex
 10
4.812932014465332
 20
0.298964262008667
 30
-7.895174980163574
 70
   192
  0
VERTEX
  5
21E
330
F7
100
AcDbEntity
  8
0
 62
   251
100
AcDbVertex
100
AcDbPolyFaceMeshVertex
 10
-5.00002098083496
 20
-0.1979111135005951
 30
-7.375937461853027
 70
   192
  0
VERTEX
  5
21F
330
F7
100
AcDbEntity
  8
0
 62
   251
100
AcDbVertex
100
AcDbPolyFaceMeshVertex
 10
-5.00002098083496
 20
-0.2131818234920502
 30
-7.375937461853027
 70
   192
  0
VERTEX
  5
220
330
F7
100
AcDbEntity
  8
0
 62
   251
100
AcDbVertex
100
AcDbPolyFaceMeshVertex
 10
-5.00002098083496
 20
-0.4497990608215332
 30
-7.393891334533691
 70
   192
  0
VERTEX
  5
221
330
F7
100
AcDbEntity
  8
0
 62
   251
100
AcDbVertex
100
AcDbPolyFaceMeshVertex
 10
-4.987546920776367
 20
-0.4497990608215332
 30
-7.393891334533691
 70
   192
  0
VERTEX
  5
222
330
F7
100
AcDbEntity
  8
0
 62
   251
100
AcDbVertex
100
AcDbPolyFaceMeshVertex
 10
4.985116958618164
 20
-0.2131834477186203
 30
-7.393889427185058
 70
   192
  0
VERTEX
  5
223
330
F7
100
AcDbEntity
  8
0
 62
   251
100
AcDbVertex
100
AcDbPolyFaceMeshVertex
 10
-5.00002098083496
 20
-0.4345283508300782
 30
-7.375937461853027
 70
   192
  0
VERTEX
  5
224
330
F7
100
AcDbEntity
  8
0
 62
   251
100
AcDbVertex
100
AcDbPolyFaceMeshVertex
 10
-5.00002098083496
 20
-0.4497990608215332
 30
-7.375937461853027
 70
   192
  0
VERTEX
  5
225
330
F7
100
AcDbEntity
  8
0
 62
   251
100
AcDbVertex
100
AcDbPolyFaceMeshVertex
 10
-4.987546920776367
 20
-0.4497990608215332
 30
-7.375937461853027
 70
   192
  0
VERTEX
  5
226
330
F7
100
AcDbEntity
  8
0
 62
   251
100
AcDbVertex
100
AcDbPolyFaceMeshVertex
 10
-5.00002098083496
 20
-0.181556761264801
 30
-7.375937461853027
 70
   192
  0
VERTEX
  5
227
330
F7
100
AcDbEntity
  8
0
 62
   251
100
AcDbVertex
100
AcDbPolyFaceMeshVertex
 10
4.985116958618164
 20
-0.4345300197601319
 30
-7.393889427185058
 70
   192
  0
VERTEX
  5
228
330
F7
100
AcDbEntity
  8
0
 62
   251
100
AcDbVertex
100
AcDbPolyFaceMeshVertex
 10
4.990023612976074
 20
-0.1799490004777908
 30
-7.412073135375976
 70
   192
  0
VERTEX
  5
229
330
F7
100
AcDbEntity
  8
0
 62
   251
100
AcDbVertex
100
AcDbPolyFaceMeshVertex
 10
4.990023612976074
 20
0.1110366880893707
 30
-7.707343101501464
 70
   192
  0
VERTEX
  5
22A
330
F7
100
AcDbEntity
  8
0
 62
   251
100
AcDbVertex
100
AcDbPolyFaceMeshVertex
 10
4.986575126647949
 20
0.1471421718597412
 30
-7.741495132446289
 70
   192
  0
VERTEX
  5
22B
330
F7
100
AcDbEntity
  8
0
 62
   251
100
AcDbVertex
100
AcDbPolyFaceMeshVertex
 10
4.977093696594238
 20
0.17940653860569
 30
-7.775071144104003
 70
   192
  0
VERTEX
  5
22C
330
F7
100
AcDbEntity
  8
0
 62
   251
100
AcDbVertex
100
AcDbPolyFaceMeshVertex
 10
4.959718704223632
 20
0.2113461494445801
 30
-7.807896614074707
 70
   192
  0
VERTEX
  5
22D
330
F7
100
AcDbEntity
  8
0
 62
   251
100
AcDbVertex
100
AcDbPolyFaceMeshVertex
 10
4.932969093322753
 20
0.2447642236948013
 30
-7.840608596801757
 70
   192
  0
VERTEX
  5
22E
330
F7
100
AcDbEntity
  8
0
 62
   251
100
AcDbVertex
100
AcDbPolyFaceMeshVertex
 10
4.906751632690429
 20
0.2653507590293884
 30
-7.860584259033203
 70
   192
  0
VERTEX
  5
22F
330
F7
100
AcDbEntity
  8
0
 62
   251
100
AcDbVertex
100
AcDbPolyFaceMeshVertex
 10
4.875411033630371
 20
0.2814201712608337
 30
-7.876147270202636
 70
   192
  0
VERTEX
  5
230
330
F7
100
AcDbEntity
  8
0
 62
   251
100
AcDbVertex
100
AcDbPolyFaceMeshVertex
 10
4.844329833984375
 20
0.2905156016349792
 30
-7.88502025604248
 70
   192
  0
VERTEX
  5
231
330
F7
100
AcDbEntity
  8
0
 62
   251
100
AcDbVertex
100
AcDbPolyFaceMeshVertex
 10
4.812438011169433
 20
0.2919238805770874
 30
-7.888072967529296
 70
   192
  0
VERTEX
  5
232
330
F7
100
AcDbEntity
  8
0
 62
   251
100
AcDbVertex
100
AcDbPolyFaceMeshVertex
 10
-4.812435150146484
 20
0.2919254899024963
 30
-7.888074874877929
 70
   192
  0
VERTEX
  5
233
330
F7
100
AcDbEntity
  8
0
 62
   251
100
AcDbVertex
100
AcDbPolyFaceMeshVertex
 10
-4.844327926635742
 20
0.2905171513557434
 30
-7.885022163391113
 70
   192
  0
VERTEX
  5
234
330
F7
100
AcDbEntity
  8
0
 62
   251
100
AcDbVertex
100
AcDbPolyFaceMeshVertex
 10
-4.875409126281738
 20
0.2814217209815979
 30
-7.876149177551269
 70
   192
  0
VERTEX
  5
235
330
F7
100
AcDbEntity
  8
0
 62
   251
100
AcDbVertex
100
AcDbPolyFaceMeshVertex
 10
-4.90674877166748
 20
0.2653523087501526
 30
-7.860586166381835
 70
   192
  0
VERTEX
  5
236
330
F7
100
AcDbEntity
  8
0
 62
   251
100
AcDbVertex
100
AcDbPolyFaceMeshVertex
 10
-4.932966232299804
 20
0.2447658330202103
 30
-7.84061050415039
 70
   192
  0
VERTEX
  5
237
330
F7
100
AcDbEntity
  8
0
 62
   251
100
AcDbVertex
100
AcDbPolyFaceMeshVertex
 10
-4.959715843200683
 20
0.2113477736711502
 30
-7.807898521423339
 70
   192
  0
VERTEX
  5
238
330
F7
100
AcDbEntity
  8
0
 62
   251
100
AcDbVertex
100
AcDbPolyFaceMeshVertex
 10
-4.977090835571289
 20
0.1794081330299377
 30
-7.775073051452636
 70
   192
  0
VERTEX
  5
239
330
F7
100
AcDbEntity
  8
0
 62
   251
100
AcDbVertex
100
AcDbPolyFaceMeshVertex
 10
-4.986573219299316
 20
0.1471437960863113
 30
-7.741497039794921
 70
   192
  0
VERTEX
  5
23A
330
F7
100
AcDbEntity
  8
0
 62
   251
100
AcDbVertex
100
AcDbPolyFaceMeshVertex
 10
-4.990020751953125
 20
0.1110383495688438
 30
-7.707345008850097
 70
   192
  0
VERTEX
  5
23B
330
F7
100
AcDbEntity
  8
0
 62
   251
100
AcDbVertex
100
AcDbPolyFaceMeshVertex
 10
-4.990021705627441
 20
-0.1799473762512207
 30
-7.412075042724609
 70
   192
  0
VERTEX
  5
23C
330
F7
100
AcDbEntity
  8
0
 62
   251
100
AcDbFaceRecord
 10
0.0
 20
0.0
 30
0.0
 70
   128
 71
    87
 72
    93
 73
   -43
  0
VERTEX
  5
23D
330
F7
100
AcDbEntity
  8
0
 62
   251
100
AcDbFaceRecord
 10
0.0
 20
0.0
 30
0.0
 70
   128
 71
    43
 72
     1
 73
   -87
  0
VERTEX
  5
23E
330
F7
100
AcDbEntity
  8
0
 62
   251
100
AcDbFaceRecord
 10
0.0
 20
0.0
 30
0.0
 70
   128
 71
    43
 72
   115
 73
  -111
  0
VERTEX
  5
23F
330
F7
100
AcDbEntity
  8
0
 62
   251
100
AcDbFaceRecord
 10
0.0
 20
0.0
 30
0.0
 70
   128
 71
   111
 72
     1
 73
   -43
  0
VERTEX
  5
240
330
F7
100
AcDbEntity
  8
0
 62
   251
100
AcDbFaceRecord
 10
0.0
 20
0.0
 30
0.0
 70
   128
 71
    44
 72
    45
 73
    -4
  0
VERTEX
  5
241
330
F7
100
AcDbEntity
  8
0
 62
   251
100
AcDbFaceRecord
 10
0.0
 20
0.0
 30
0.0
 70
   128
 71
     4
 72
     3
 73
   -44
  0
VERTEX
  5
242
330
F7
100
AcDbEntity
  8
0
 62
   251
100
AcDbFaceRecord
 10
0.0
 20
0.0
 30
0.0
 70
   128
 71
    45
 72
    46
 73
    -5
  0
VERTEX
  5
243
330
F7
100
AcDbEntity
  8
0
 62
   251
100
AcDbFaceRecord
 10
0.0
 20
0.0
 30
0.0
 70
   128
 71
     5
 72
     4
 73
   -45
  0
VERTEX
  5
244
330
F7
100
AcDbEntity
  8
0
 62
   251
100
AcDbFaceRecord
 10
0.0
 20
0.0
 30
0.0
 70
   128
 71
    46
 72
    47
 73
    -6
  0
VERTEX
  5
245
330
F7
100
AcDbEntity
  8
0
 62
   251
100
AcDbFaceRecord
 10
0.0
 20
0.0
 30
0.0
 70
   128
 71
     6
 72
     5
 73
   -46
  0
VERTEX
  5
246
330
F7
100
AcDbEntity
  8
0
 62
   251
100
AcDbFaceRecord
 10
0.0
 20
0.0
 30
0.0
 70
   128
 71
    47
 72
    48
 73
    -7
  0
VERTEX
  5
247
330
F7
100
AcDbEntity
  8
0
 62
   251
100
AcDbFaceRecord
 10
0.0
 20
0.0
 30
0.0
 70
   128
 71
     7
 72
     6
 73
   -47
  0
VERTEX
  5
248
330
F7
100
AcDbEntity
  8
0
 62
   251
100
AcDbFaceRecord
 10
0.0
 20
0.0
 30
0.0
 70
   128
 71
    48
 72
    49
 73
    -8
  0
VERTEX
  5
249
330
F7
100
AcDbEntity
  8
0
 62
   251
100
AcDbFaceRecord
 10
0.0
 20
0.0
 30
0.0
 70
   128
 71
     8
 72
     7
 73
   -48
  0
VERTEX
  5
24A
330
F7
100
AcDbEntity
  8
0
 62
   251
100
AcDbFaceRecord
 10
0.0
 20
0.0
 30
0.0
 70
   128
 71
    49
 72
    50
 73
    -9
  0
VERTEX
  5
24B
330
F7
100
AcDbEntity
  8
0
 62
   251
100
AcDbFaceRecord
 10
0.0
 20
0.0
 30
0.0
 70
   128
 71
     9
 72
     8
 73
   -49
  0
VERTEX
  5
24C
330
F7
100
AcDbEntity
  8
0
 62
   251
100
AcDbFaceRecord
 10
0.0
 20
0.0
 30
0.0
 70
   128
 71
    50
 72
    51
 73
   -10
  0
VERTEX
  5
24D
330
F7
100
AcDbEntity
  8
0
 62
   251
100
AcDbFaceRecord
 10
0.0
 20
0.0
 30
0.0
 70
   128
 71
    10
 72
     9
 73
   -50
  0
VERTEX
  5
24E
330
F7
100
AcDbEntity
  8
0
 62
   251
100
AcDbFaceRecord
 10
0.0
 20
0.0
 30
0.0
 70
   128
 71
    51
 72
    52
 73
   -11
  0
VERTEX
  5
24F
330
F7
100
AcDbEntity
  8
0
 62
   251
100
AcDbFaceRecord
 10
0.0
 20
0.0
 30
0.0
 70
   128
 71
    11
 72
    10
 73
   -51
  0
VERTEX
  5
250
330
F7
100
AcDbEntity
  8
0
 62
   251
100
AcDbFaceRecord
 10
0.0
 20
0.0
 30
0.0
 70
   128
 71
    53
 72
    94
 73
   -90
  0
VERTEX
  5
251
330
F7
100
AcDbEntity
  8
0
 62
   251
100
AcDbFaceRecord
 10
0.0
 20
0.0
 30
0.0
 70
   128
 71
    90
 72
    22
 73
   -53
  0
VERTEX
  5
252
330
F7
100
AcDbEntity
  8
0
 62
   251
100
AcDbFaceRecord
 10
0.0
 20
0.0
 30
0.0
 70
   128
 71
   114
 72
   116
 73
   -53
  0
VERTEX
  5
253
330
F7
100
AcDbEntity
  8
0
 62
   251
100
AcDbFaceRecord
 10
0.0
 20
0.0
 30
0.0
 70
   128
 71
    53
 72
    22
 73
  -114
  0
VERTEX
  5
254
330
F7
100
AcDbEntity
  8
0
 62
   251
100
AcDbFaceRecord
 10
0.0
 20
0.0
 30
0.0
 70
   128
 71
    27
 72
    55
 73
   -54
  0
VERTEX
  5
255
330
F7
100
AcDbEntity
  8
0
 62
   251
100
AcDbFaceRecord
 10
0.0
 20
0.0
 30
0.0
 70
   128
 71
    54
 72
    25
 73
   -27
  0
VERTEX
  5
256
330
F7
100
AcDbEntity
  8
0
 62
   251
100
AcDbFaceRecord
 10
0.0
 20
0.0
 30
0.0
 70
   128
 71
    29
 72
    56
 73
   -55
  0
VERTEX
  5
257
330
F7
100
AcDbEntity
  8
0
 62
   251
100
AcDbFaceRecord
 10
0.0
 20
0.0
 30
0.0
 70
   128
 71
    55
 72
    27
 73
   -29
  0
VERTEX
  5
258
330
F7
100
AcDbEntity
  8
0
 62
   251
100
AcDbFaceRecord
 10
0.0
 20
0.0
 30
0.0
 70
   128
 71
    31
 72
    57
 73
   -56
  0
VERTEX
  5
259
330
F7
100
AcDbEntity
  8
0
 62
   251
100
AcDbFaceRecord
 10
0.0
 20
0.0
 30
0.0
 70
   128
 71
    56
 72
    29
 73
   -31
  0
VERTEX
  5
25A
330
F7
100
AcDbEntity
  8
0
 62
   251
100
AcDbFaceRecord
 10
0.0
 20
0.0
 30
0.0
 70
   128
 71
    33
 72
    58
 73
   -57
  0
VERTEX
  5
25B
330
F7
100
AcDbEntity
  8
0
 62
   251
100
AcDbFaceRecord
 10
0.0
 20
0.0
 30
0.0
 70
   128
 71
    57
 72
    31
 73
   -33
  0
VERTEX
  5
25C
330
F7
100
AcDbEntity
  8
0
 62
   251
100
AcDbFaceRecord
 10
0.0
 20
0.0
 30
0.0
 70
   128
 71
    35
 72
    59
 73
   -58
  0
VERTEX
  5
25D
330
F7
100
AcDbEntity
  8
0
 62
   251
100
AcDbFaceRecord
 10
0.0
 20
0.0
 30
0.0
 70
   128
 71
    58
 72
    33
 73
   -35
  0
VERTEX
  5
25E
330
F7
100
AcDbEntity
  8
0
 62
   251
100
AcDbFaceRecord
 10
0.0
 20
0.0
 30
0.0
 70
   128
 71
    37
 72
    60
 73
   -59
  0
VERTEX
  5
25F
330
F7
100
AcDbEntity
  8
0
 62
   251
100
AcDbFaceRecord
 10
0.0
 20
0.0
 30
0.0
 70
   128
 71
    59
 72
    35
 73
   -37
  0
VERTEX
  5
260
330
F7
100
AcDbEntity
  8
0
 62
   251
100
AcDbFaceRecord
 10
0.0
 20
0.0
 30
0.0
 70
   128
 71
    39
 72
    61
 73
   -60
  0
VERTEX
  5
261
330
F7
100
AcDbEntity
  8
0
 62
   251
100
AcDbFaceRecord
 10
0.0
 20
0.0
 30
0.0
 70
   128
 71
    60
 72
    37
 73
   -39
  0
VERTEX
  5
262
330
F7
100
AcDbEntity
  8
0
 62
   251
100
AcDbFaceRecord
 10
0.0
 20
0.0
 30
0.0
 70
   128
 71
    41
 72
    62
 73
   -61
  0
VERTEX
  5
263
330
F7
100
AcDbEntity
  8
0
 62
   251
100
AcDbFaceRecord
 10
0.0
 20
0.0
 30
0.0
 70
   128
 71
    61
 72
    39
 73
   -41
  0
VERTEX
  5
264
330
F7
100
AcDbEntity
  8
0
 62
   251
100
AcDbFaceRecord
 10
0.0
 20
0.0
 30
0.0
 70
   128
 71
    11
 72
    52
 73
   -62
  0
VERTEX
  5
265
330
F7
100
AcDbEntity
  8
0
 62
   251
100
AcDbFaceRecord
 10
0.0
 20
0.0
 30
0.0
 70
   128
 71
    62
 72
    41
 73
   -11
  0
VERTEX
  5
266
330
F7
100
AcDbEntity
  8
0
 62
   251
100
AcDbFaceRecord
 10
0.0
 20
0.0
 30
0.0
 70
   128
 71
    86
 72
    99
 73
  -100
  0
VERTEX
  5
267
330
F7
100
AcDbEntity
  8
0
 62
   251
100
AcDbFaceRecord
 10
0.0
 20
0.0
 30
0.0
 70
   128
 71
   100
 72
    85
 73
   -86
  0
VERTEX
  5
268
330
F7
100
AcDbEntity
  8
0
 62
   251
100
AcDbFaceRecord
 10
0.0
 20
0.0
 30
0.0
 70
   128
 71
    83
 72
   103
 73
  -104
  0
VERTEX
  5
269
330
F7
100
AcDbEntity
  8
0
 62
   251
100
AcDbFaceRecord
 10
0.0
 20
0.0
 30
0.0
 70
   128
 71
   104
 72
    84
 73
   -83
  0
VERTEX
  5
26A
330
F7
100
AcDbEntity
  8
0
 62
   251
100
AcDbFaceRecord
 10
0.0
 20
0.0
 30
0.0
 70
   128
 71
   108
 72
   110
 73
   -92
  0
VERTEX
  5
26B
330
F7
100
AcDbEntity
  8
0
 62
   251
100
AcDbFaceRecord
 10
0.0
 20
0.0
 30
0.0
 70
   128
 71
    92
 72
    42
 73
  -108
  0
VERTEX
  5
26C
330
F7
100
AcDbEntity
  8
0
 62
   251
100
AcDbFaceRecord
 10
0.0
 20
0.0
 30
0.0
 70
   128
 71
   106
 72
    23
 73
  -113
  0
VERTEX
  5
26D
330
F7
100
AcDbEntity
  8
0
 62
   251
100
AcDbFaceRecord
 10
0.0
 20
0.0
 30
0.0
 70
   128
 71
   102
 72
  -106
 73
  -113
  0
VERTEX
  5
26E
330
F7
100
AcDbEntity
  8
0
 62
   251
100
AcDbFaceRecord
 10
0.0
 20
0.0
 30
0.0
 70
   128
 71
  -102
 72
   113
 73
  -112
  0
VERTEX
  5
26F
330
F7
100
AcDbEntity
  8
0
 62
   251
100
AcDbFaceRecord
 10
0.0
 20
0.0
 30
0.0
 70
   128
 71
    12
 72
  -102
 73
   112
  0
VERTEX
  5
270
330
F7
100
AcDbEntity
  8
0
 62
   251
100
AcDbFaceRecord
 10
0.0
 20
0.0
 30
0.0
 70
   128
 71
   142
 72
   119
 73
  -120
  0
VERTEX
  5
271
330
F7
100
AcDbEntity
  8
0
 62
   251
100
AcDbFaceRecord
 10
0.0
 20
0.0
 30
0.0
 70
   128
 71
   120
 72
   141
 73
  -142
  0
VERTEX
  5
272
330
F7
100
AcDbEntity
  8
0
 62
   251
100
AcDbFaceRecord
 10
0.0
 20
0.0
 30
0.0
 70
   128
 71
   123
 72
   124
 73
  -125
  0
VERTEX
  5
273
330
F7
100
AcDbEntity
  8
0
 62
   251
100
AcDbFaceRecord
 10
0.0
 20
0.0
 30
0.0
 70
   128
 71
   125
 72
   126
 73
  -127
  0
VERTEX
  5
274
330
F7
100
AcDbEntity
  8
0
 62
   251
100
AcDbFaceRecord
 10
0.0
 20
0.0
 30
0.0
 70
   128
 71
   127
 72
   128
 73
  -129
  0
VERTEX
  5
275
330
F7
100
AcDbEntity
  8
0
 62
   251
100
AcDbFaceRecord
 10
0.0
 20
0.0
 30
0.0
 70
   128
 71
  -125
 72
  -127
 73
  -129
  0
VERTEX
  5
276
330
F7
100
AcDbEntity
  8
0
 62
   251
100
AcDbFaceRecord
 10
0.0
 20
0.0
 30
0.0
 70
   128
 71
   129
 72
   130
 73
  -131
  0
VERTEX
  5
277
330
F7
100
AcDbEntity
  8
0
 62
   251
100
AcDbFaceRecord
 10
0.0
 20
0.0
 30
0.0
 70
   128
 71
   131
 72
   132
 73
  -133
  0
VERTEX
  5
278
330
F7
100
AcDbEntity
  8
0
 62
   251
100
AcDbFaceRecord
 10
0.0
 20
0.0
 30
0.0
 70
   128
 71
  -129
 72
  -131
 73
  -133
  0
VERTEX
  5
279
330
F7
100
AcDbEntity
  8
0
 62
   251
100
AcDbFaceRecord
 10
0.0
 20
0.0
 30
0.0
 70
   128
 71
   133
 72
   134
 73
  -135
  0
VERTEX
  5
27A
330
F7
100
AcDbEntity
  8
0
 62
   251
100
AcDbFaceRecord
 10
0.0
 20
0.0
 30
0.0
 70
   128
 71
   135
 72
   136
 73
  -137
  0
VERTEX
  5
27B
330
F7
100
AcDbEntity
  8
0
 62
   251
100
AcDbFaceRecord
 10
0.0
 20
0.0
 30
0.0
 70
   128
 71
  -133
 72
  -135
 73
  -137
  0
VERTEX
  5
27C
330
F7
100
AcDbEntity
  8
0
 62
   251
100
AcDbFaceRecord
 10
0.0
 20
0.0
 30
0.0
 70
   128
 71
  -129
 72
  -133
 73
  -137
  0
VERTEX
  5
27D
330
F7
100
AcDbEntity
  8
0
 62
   251
100
AcDbFaceRecord
 10
0.0
 20
0.0
 30
0.0
 70
   128
 71
   137
 72
   138
 73
  -139
  0
VERTEX
  5
27E
330
F7
100
AcDbEntity
  8
0
 62
   251
100
AcDbFaceRecord
 10
0.0
 20
0.0
 30
0.0
 70
   128
 71
   139
 72
   140
 73
  -121
  0
VERTEX
  5
27F
330
F7
100
AcDbEntity
  8
0
 62
   251
100
AcDbFaceRecord
 10
0.0
 20
0.0
 30
0.0
 70
   128
 71
  -137
 72
  -139
 73
  -121
  0
VERTEX
  5
280
330
F7
100
AcDbEntity
  8
0
 62
   251
100
AcDbFaceRecord
 10
0.0
 20
0.0
 30
0.0
 70
   128
 71
  -129
 72
  -137
 73
  -121
  0
VERTEX
  5
281
330
F7
100
AcDbEntity
  8
0
 62
   251
100
AcDbFaceRecord
 10
0.0
 20
0.0
 30
0.0
 70
   128
 71
  -125
 72
  -129
 73
  -121
  0
VERTEX
  5
282
330
F7
100
AcDbEntity
  8
0
 62
   251
100
AcDbFaceRecord
 10
0.0
 20
0.0
 30
0.0
 70
   128
 71
  -123
 72
  -125
 73
  -121
  0
VERTEX
  5
283
330
F7
100
AcDbEntity
  8
0
 62
   251
100
AcDbFaceRecord
 10
0.0
 20
0.0
 30
0.0
 70
   128
 71
   122
 72
  -123
 73
   121
  0
VERTEX
  5
284
330
F7
100
AcDbEntity
  8
0
 62
   251
100
AcDbFaceRecord
 10
0.0
 20
0.0
 30
0.0
 70
   128
 71
    43
 72
    63
 73
  -117
  0
VERTEX
  5
285
330
F7
100
AcDbEntity
  8
0
 62
   251
100
AcDbFaceRecord
 10
0.0
 20
0.0
 30
0.0
 70
   128
 71
   117
 72
   115
 73
   -43
  0
VERTEX
  5
286
330
F7
100
AcDbEntity
  8
0
 62
   251
100
AcDbFaceRecord
 10
0.0
 20
0.0
 30
0.0
 70
   128
 71
    44
 72
    64
 73
   -65
  0
VERTEX
  5
287
330
F7
100
AcDbEntity
  8
0
 62
   251
100
AcDbFaceRecord
 10
0.0
 20
0.0
 30
0.0
 70
   128
 71
    65
 72
    45
 73
   -44
  0
VERTEX
  5
288
330
F7
100
AcDbEntity
  8
0
 62
   251
100
AcDbFaceRecord
 10
0.0
 20
0.0
 30
0.0
 70
   128
 71
    45
 72
    65
 73
   -66
  0
VERTEX
  5
289
330
F7
100
AcDbEntity
  8
0
 62
   251
100
AcDbFaceRecord
 10
0.0
 20
0.0
 30
0.0
 70
   128
 71
    66
 72
    46
 73
   -45
  0
VERTEX
  5
28A
330
F7
100
AcDbEntity
  8
0
 62
   251
100
AcDbFaceRecord
 10
0.0
 20
0.0
 30
0.0
 70
   128
 71
    46
 72
    66
 73
   -67
  0
VERTEX
  5
28B
330
F7
100
AcDbEntity
  8
0
 62
   251
100
AcDbFaceRecord
 10
0.0
 20
0.0
 30
0.0
 70
   128
 71
    67
 72
    47
 73
   -46
  0
VERTEX
  5
28C
330
F7
100
AcDbEntity
  8
0
 62
   251
100
AcDbFaceRecord
 10
0.0
 20
0.0
 30
0.0
 70
   128
 71
    47
 72
    67
 73
   -68
  0
VERTEX
  5
28D
330
F7
100
AcDbEntity
  8
0
 62
   251
100
AcDbFaceRecord
 10
0.0
 20
0.0
 30
0.0
 70
   128
 71
    68
 72
    48
 73
   -47
  0
VERTEX
  5
28E
330
F7
100
AcDbEntity
  8
0
 62
   251
100
AcDbFaceRecord
 10
0.0
 20
0.0
 30
0.0
 70
   128
 71
    48
 72
    68
 73
   -69
  0
VERTEX
  5
28F
330
F7
100
AcDbEntity
  8
0
 62
   251
100
AcDbFaceRecord
 10
0.0
 20
0.0
 30
0.0
 70
   128
 71
    69
 72
    49
 73
   -48
  0
VERTEX
  5
290
330
F7
100
AcDbEntity
  8
0
 62
   251
100
AcDbFaceRecord
 10
0.0
 20
0.0
 30
0.0
 70
   128
 71
    49
 72
    69
 73
   -70
  0
VERTEX
  5
291
330
F7
100
AcDbEntity
  8
0
 62
   251
100
AcDbFaceRecord
 10
0.0
 20
0.0
 30
0.0
 70
   128
 71
    70
 72
    50
 73
   -49
  0
VERTEX
  5
292
330
F7
100
AcDbEntity
  8
0
 62
   251
100
AcDbFaceRecord
 10
0.0
 20
0.0
 30
0.0
 70
   128
 71
    50
 72
    70
 73
   -71
  0
VERTEX
  5
293
330
F7
100
AcDbEntity
  8
0
 62
   251
100
AcDbFaceRecord
 10
0.0
 20
0.0
 30
0.0
 70
   128
 71
    71
 72
    51
 73
   -50
  0
VERTEX
  5
294
330
F7
100
AcDbEntity
  8
0
 62
   251
100
AcDbFaceRecord
 10
0.0
 20
0.0
 30
0.0
 70
   128
 71
    51
 72
    71
 73
   -72
  0
VERTEX
  5
295
330
F7
100
AcDbEntity
  8
0
 62
   251
100
AcDbFaceRecord
 10
0.0
 20
0.0
 30
0.0
 70
   128
 71
    72
 72
    52
 73
   -51
  0
VERTEX
  5
296
330
F7
100
AcDbEntity
  8
0
 62
   251
100
AcDbFaceRecord
 10
0.0
 20
0.0
 30
0.0
 70
   128
 71
    73
 72
    96
 73
   -94
  0
VERTEX
  5
297
330
F7
100
AcDbEntity
  8
0
 62
   251
100
AcDbFaceRecord
 10
0.0
 20
0.0
 30
0.0
 70
   128
 71
    94
 72
    53
 73
   -73
  0
VERTEX
  5
298
330
F7
100
AcDbEntity
  8
0
 62
   251
100
AcDbFaceRecord
 10
0.0
 20
0.0
 30
0.0
 70
   128
 71
    74
 72
   118
 73
  -116
  0
VERTEX
  5
299
330
F7
100
AcDbEntity
  8
0
 62
   251
100
AcDbFaceRecord
 10
0.0
 20
0.0
 30
0.0
 70
   128
 71
   116
 72
    54
 73
   -74
  0
VERTEX
  5
29A
330
F7
100
AcDbEntity
  8
0
 62
   251
100
AcDbFaceRecord
 10
0.0
 20
0.0
 30
0.0
 70
   128
 71
    75
 72
    74
 73
   -54
  0
VERTEX
  5
29B
330
F7
100
AcDbEntity
  8
0
 62
   251
100
AcDbFaceRecord
 10
0.0
 20
0.0
 30
0.0
 70
   128
 71
    54
 72
    55
 73
   -75
  0
VERTEX
  5
29C
330
F7
100
AcDbEntity
  8
0
 62
   251
100
AcDbFaceRecord
 10
0.0
 20
0.0
 30
0.0
 70
   128
 71
    76
 72
    75
 73
   -55
  0
VERTEX
  5
29D
330
F7
100
AcDbEntity
  8
0
 62
   251
100
AcDbFaceRecord
 10
0.0
 20
0.0
 30
0.0
 70
   128
 71
    55
 72
    56
 73
   -76
  0
VERTEX
  5
29E
330
F7
100
AcDbEntity
  8
0
 62
   251
100
AcDbFaceRecord
 10
0.0
 20
0.0
 30
0.0
 70
   128
 71
    77
 72
    76
 73
   -56
  0
VERTEX
  5
29F
330
F7
100
AcDbEntity
  8
0
 62
   251
100
AcDbFaceRecord
 10
0.0
 20
0.0
 30
0.0
 70
   128
 71
    56
 72
    57
 73
   -77
  0
VERTEX
  5
2A0
330
F7
100
AcDbEntity
  8
0
 62
   251
100
AcDbFaceRecord
 10
0.0
 20
0.0
 30
0.0
 70
   128
 71
    78
 72
    77
 73
   -57
  0
VERTEX
  5
2A1
330
F7
100
AcDbEntity
  8
0
 62
   251
100
AcDbFaceRecord
 10
0.0
 20
0.0
 30
0.0
 70
   128
 71
    57
 72
    58
 73
   -78
  0
VERTEX
  5
2A2
330
F7
100
AcDbEntity
  8
0
 62
   251
100
AcDbFaceRecord
 10
0.0
 20
0.0
 30
0.0
 70
   128
 71
    79
 72
    78
 73
   -58
  0
VERTEX
  5
2A3
330
F7
100
AcDbEntity
  8
0
 62
   251
100
AcDbFaceRecord
 10
0.0
 20
0.0
 30
0.0
 70
   128
 71
    58
 72
    59
 73
   -79
  0
VERTEX
  5
2A4
330
F7
100
AcDbEntity
  8
0
 62
   251
100
AcDbFaceRecord
 10
0.0
 20
0.0
 30
0.0
 70
   128
 71
    80
 72
    79
 73
   -59
  0
VERTEX
  5
2A5
330
F7
100
AcDbEntity
  8
0
 62
   251
100
AcDbFaceRecord
 10
0.0
 20
0.0
 30
0.0
 70
   128
 71
    59
 72
    60
 73
   -80
  0
VERTEX
  5
2A6
330
F7
100
AcDbEntity
  8
0
 62
   251
100
AcDbFaceRecord
 10
0.0
 20
0.0
 30
0.0
 70
   128
 71
    81
 72
    80
 73
   -60
  0
VERTEX
  5
2A7
330
F7
100
AcDbEntity
  8
0
 62
   251
100
AcDbFaceRecord
 10
0.0
 20
0.0
 30
0.0
 70
   128
 71
    60
 72
    61
 73
   -81
  0
VERTEX
  5
2A8
330
F7
100
AcDbEntity
  8
0
 62
   251
100
AcDbFaceRecord
 10
0.0
 20
0.0
 30
0.0
 70
   128
 71
    82
 72
    81
 73
   -61
  0
VERTEX
  5
2A9
330
F7
100
AcDbEntity
  8
0
 62
   251
100
AcDbFaceRecord
 10
0.0
 20
0.0
 30
0.0
 70
   128
 71
    61
 72
    62
 73
   -82
  0
VERTEX
  5
2AA
330
F7
100
AcDbEntity
  8
0
 62
   251
100
AcDbFaceRecord
 10
0.0
 20
0.0
 30
0.0
 70
   128
 71
    72
 72
    82
 73
   -62
  0
VERTEX
  5
2AB
330
F7
100
AcDbEntity
  8
0
 62
   251
100
AcDbFaceRecord
 10
0.0
 20
0.0
 30
0.0
 70
   128
 71
    62
 72
    52
 73
   -72
  0
VERTEX
  5
2AC
330
F7
100
AcDbEntity
  8
0
 62
   251
100
AcDbFaceRecord
 10
0.0
 20
0.0
 30
0.0
 70
   128
 71
    63
 72
    12
 73
  -112
  0
VERTEX
  5
2AD
330
F7
100
AcDbEntity
  8
0
 62
   251
100
AcDbFaceRecord
 10
0.0
 20
0.0
 30
0.0
 70
   128
 71
   112
 72
   117
 73
   -63
  0
VERTEX
  5
2AE
330
F7
100
AcDbEntity
  8
0
 62
   251
100
AcDbFaceRecord
 10
0.0
 20
0.0
 30
0.0
 70
   128
 71
    64
 72
    13
 73
   -14
  0
VERTEX
  5
2AF
330
F7
100
AcDbEntity
  8
0
 62
   251
100
AcDbFaceRecord
 10
0.0
 20
0.0
 30
0.0
 70
   128
 71
    14
 72
    65
 73
   -64
  0
VERTEX
  5
2B0
330
F7
100
AcDbEntity
  8
0
 62
   251
100
AcDbFaceRecord
 10
0.0
 20
0.0
 30
0.0
 70
   128
 71
    65
 72
    14
 73
   -15
  0
VERTEX
  5
2B1
330
F7
100
AcDbEntity
  8
0
 62
   251
100
AcDbFaceRecord
 10
0.0
 20
0.0
 30
0.0
 70
   128
 71
    15
 72
    66
 73
   -65
  0
VERTEX
  5
2B2
330
F7
100
AcDbEntity
  8
0
 62
   251
100
AcDbFaceRecord
 10
0.0
 20
0.0
 30
0.0
 70
   128
 71
    66
 72
    15
 73
   -16
  0
VERTEX
  5
2B3
330
F7
100
AcDbEntity
  8
0
 62
   251
100
AcDbFaceRecord
 10
0.0
 20
0.0
 30
0.0
 70
   128
 71
    16
 72
    67
 73
   -66
  0
VERTEX
  5
2B4
330
F7
100
AcDbEntity
  8
0
 62
   251
100
AcDbFaceRecord
 10
0.0
 20
0.0
 30
0.0
 70
   128
 71
    67
 72
    16
 73
   -17
  0
VERTEX
  5
2B5
330
F7
100
AcDbEntity
  8
0
 62
   251
100
AcDbFaceRecord
 10
0.0
 20
0.0
 30
0.0
 70
   128
 71
    17
 72
    68
 73
   -67
  0
VERTEX
  5
2B6
330
F7
100
AcDbEntity
  8
0
 62
   251
100
AcDbFaceRecord
 10
0.0
 20
0.0
 30
0.0
 70
   128
 71
    68
 72
    17
 73
   -18
  0
VERTEX
  5
2B7
330
F7
100
AcDbEntity
  8
0
 62
   251
100
AcDbFaceRecord
 10
0.0
 20
0.0
 30
0.0
 70
   128
 71
    18
 72
    69
 73
   -68
  0
VERTEX
  5
2B8
330
F7
100
AcDbEntity
  8
0
 62
   251
100
AcDbFaceRecord
 10
0.0
 20
0.0
 30
0.0
 70
   128
 71
    69
 72
    18
 73
   -19
  0
VERTEX
  5
2B9
330
F7
100
AcDbEntity
  8
0
 62
   251
100
AcDbFaceRecord
 10
0.0
 20
0.0
 30
0.0
 70
   128
 71
    19
 72
    70
 73
   -69
  0
VERTEX
  5
2BA
330
F7
100
AcDbEntity
  8
0
 62
   251
100
AcDbFaceRecord
 10
0.0
 20
0.0
 30
0.0
 70
   128
 71
    70
 72
    19
 73
   -20
  0
VERTEX
  5
2BB
330
F7
100
AcDbEntity
  8
0
 62
   251
100
AcDbFaceRecord
 10
0.0
 20
0.0
 30
0.0
 70
   128
 71
    20
 72
    71
 73
   -70
  0
VERTEX
  5
2BC
330
F7
100
AcDbEntity
  8
0
 62
   251
100
AcDbFaceRecord
 10
0.0
 20
0.0
 30
0.0
 70
   128
 71
    71
 72
    20
 73
   -21
  0
VERTEX
  5
2BD
330
F7
100
AcDbEntity
  8
0
 62
   251
100
AcDbFaceRecord
 10
0.0
 20
0.0
 30
0.0
 70
   128
 71
    21
 72
    72
 73
   -71
  0
VERTEX
  5
2BE
330
F7
100
AcDbEntity
  8
0
 62
   251
100
AcDbFaceRecord
 10
0.0
 20
0.0
 30
0.0
 70
   128
 71
    23
 72
    91
 73
   -96
  0
VERTEX
  5
2BF
330
F7
100
AcDbEntity
  8
0
 62
   251
100
AcDbFaceRecord
 10
0.0
 20
0.0
 30
0.0
 70
   128
 71
    96
 72
    73
 73
   -23
  0
VERTEX
  5
2C0
330
F7
100
AcDbEntity
  8
0
 62
   251
100
AcDbFaceRecord
 10
0.0
 20
0.0
 30
0.0
 70
   128
 71
    24
 72
   113
 73
  -118
  0
VERTEX
  5
2C1
330
F7
100
AcDbEntity
  8
0
 62
   251
100
AcDbFaceRecord
 10
0.0
 20
0.0
 30
0.0
 70
   128
 71
   118
 72
    74
 73
   -24
  0
VERTEX
  5
2C2
330
F7
100
AcDbEntity
  8
0
 62
   251
100
AcDbFaceRecord
 10
0.0
 20
0.0
 30
0.0
 70
   128
 71
    26
 72
    24
 73
   -74
  0
VERTEX
  5
2C3
330
F7
100
AcDbEntity
  8
0
 62
   251
100
AcDbFaceRecord
 10
0.0
 20
0.0
 30
0.0
 70
   128
 71
    74
 72
    75
 73
   -26
  0
VERTEX
  5
2C4
330
F7
100
AcDbEntity
  8
0
 62
   251
100
AcDbFaceRecord
 10
0.0
 20
0.0
 30
0.0
 70
   128
 71
    28
 72
    26
 73
   -75
  0
VERTEX
  5
2C5
330
F7
100
AcDbEntity
  8
0
 62
   251
100
AcDbFaceRecord
 10
0.0
 20
0.0
 30
0.0
 70
   128
 71
    75
 72
    76
 73
   -28
  0
VERTEX
  5
2C6
330
F7
100
AcDbEntity
  8
0
 62
   251
100
AcDbFaceRecord
 10
0.0
 20
0.0
 30
0.0
 70
   128
 71
    30
 72
    28
 73
   -76
  0
VERTEX
  5
2C7
330
F7
100
AcDbEntity
  8
0
 62
   251
100
AcDbFaceRecord
 10
0.0
 20
0.0
 30
0.0
 70
   128
 71
    76
 72
    77
 73
   -30
  0
VERTEX
  5
2C8
330
F7
100
AcDbEntity
  8
0
 62
   251
100
AcDbFaceRecord
 10
0.0
 20
0.0
 30
0.0
 70
   128
 71
    32
 72
    30
 73
   -77
  0
VERTEX
  5
2C9
330
F7
100
AcDbEntity
  8
0
 62
   251
100
AcDbFaceRecord
 10
0.0
 20
0.0
 30
0.0
 70
   128
 71
    77
 72
    78
 73
   -32
  0
VERTEX
  5
2CA
330
F7
100
AcDbEntity
  8
0
 62
   251
100
AcDbFaceRecord
 10
0.0
 20
0.0
 30
0.0
 70
   128
 71
    34
 72
    32
 73
   -78
  0
VERTEX
  5
2CB
330
F7
100
AcDbEntity
  8
0
 62
   251
100
AcDbFaceRecord
 10
0.0
 20
0.0
 30
0.0
 70
   128
 71
    78
 72
    79
 73
   -34
  0
VERTEX
  5
2CC
330
F7
100
AcDbEntity
  8
0
 62
   251
100
AcDbFaceRecord
 10
0.0
 20
0.0
 30
0.0
 70
   128
 71
    36
 72
    34
 73
   -79
  0
VERTEX
  5
2CD
330
F7
100
AcDbEntity
  8
0
 62
   251
100
AcDbFaceRecord
 10
0.0
 20
0.0
 30
0.0
 70
   128
 71
    79
 72
    80
 73
   -36
  0
VERTEX
  5
2CE
330
F7
100
AcDbEntity
  8
0
 62
   251
100
AcDbFaceRecord
 10
0.0
 20
0.0
 30
0.0
 70
   128
 71
    38
 72
    36
 73
   -80
  0
VERTEX
  5
2CF
330
F7
100
AcDbEntity
  8
0
 62
   251
100
AcDbFaceRecord
 10
0.0
 20
0.0
 30
0.0
 70
   128
 71
    80
 72
    81
 73
   -38
  0
VERTEX
  5
2D0
330
F7
100
AcDbEntity
  8
0
 62
   251
100
AcDbFaceRecord
 10
0.0
 20
0.0
 30
0.0
 70
   128
 71
    40
 72
    38
 73
   -81
  0
VERTEX
  5
2D1
330
F7
100
AcDbEntity
  8
0
 62
   251
100
AcDbFaceRecord
 10
0.0
 20
0.0
 30
0.0
 70
   128
 71
    81
 72
    82
 73
   -40
  0
VERTEX
  5
2D2
330
F7
100
AcDbEntity
  8
0
 62
   251
100
AcDbFaceRecord
 10
0.0
 20
0.0
 30
0.0
 70
   128
 71
    21
 72
    40
 73
   -82
  0
VERTEX
  5
2D3
330
F7
100
AcDbEntity
  8
0
 62
   251
100
AcDbFaceRecord
 10
0.0
 20
0.0
 30
0.0
 70
   128
 71
    82
 72
    72
 73
   -21
  0
VERTEX
  5
2D4
330
F7
100
AcDbEntity
  8
0
 62
   251
100
AcDbFaceRecord
 10
0.0
 20
0.0
 30
0.0
 70
   128
 71
    12
 72
    89
 73
   -98
  0
VERTEX
  5
2D5
330
F7
100
AcDbEntity
  8
0
 62
   251
100
AcDbFaceRecord
 10
0.0
 20
0.0
 30
0.0
 70
   128
 71
    98
 72
    84
 73
   -12
  0
VERTEX
  5
2D6
330
F7
100
AcDbEntity
  8
0
 62
   251
100
AcDbFaceRecord
 10
0.0
 20
0.0
 30
0.0
 70
   128
 71
    42
 72
    92
 73
   -99
  0
VERTEX
  5
2D7
330
F7
100
AcDbEntity
  8
0
 62
   251
100
AcDbFaceRecord
 10
0.0
 20
0.0
 30
0.0
 70
   128
 71
    99
 72
    86
 73
   -42
  0
VERTEX
  5
2D8
330
F7
100
AcDbEntity
  8
0
 62
   251
100
AcDbFaceRecord
 10
0.0
 20
0.0
 30
0.0
 70
   128
 71
     2
 72
   101
 73
  -103
  0
VERTEX
  5
2D9
330
F7
100
AcDbEntity
  8
0
 62
   251
100
AcDbFaceRecord
 10
0.0
 20
0.0
 30
0.0
 70
   128
 71
   103
 72
    83
 73
    -2
  0
VERTEX
  5
2DA
330
F7
100
AcDbEntity
  8
0
 62
   251
100
AcDbFaceRecord
 10
0.0
 20
0.0
 30
0.0
 70
   128
 71
    23
 72
   106
 73
  -107
  0
VERTEX
  5
2DB
330
F7
100
AcDbEntity
  8
0
 62
   251
100
AcDbFaceRecord
 10
0.0
 20
0.0
 30
0.0
 70
   128
 71
   107
 72
    85
 73
   -23
  0
VERTEX
  5
2DC
330
F7
100
AcDbEntity
  8
0
 62
   251
100
AcDbFaceRecord
 10
0.0
 20
0.0
 30
0.0
 70
   128
 71
    83
 72
    84
 73
   -98
  0
VERTEX
  5
2DD
330
F7
100
AcDbEntity
  8
0
 62
   251
100
AcDbFaceRecord
 10
0.0
 20
0.0
 30
0.0
 70
   128
 71
    98
 72
    97
 73
   -83
  0
VERTEX
  5
2DE
330
F7
100
AcDbEntity
  8
0
 62
   251
100
AcDbFaceRecord
 10
0.0
 20
0.0
 30
0.0
 70
   128
 71
   189
 72
   190
 73
   -90
  0
VERTEX
  5
2DF
330
F7
100
AcDbEntity
  8
0
 62
   251
100
AcDbFaceRecord
 10
0.0
 20
0.0
 30
0.0
 70
   128
 71
    90
 72
    94
 73
  -189
  0
VERTEX
  5
2E0
330
F7
100
AcDbEntity
  8
0
 62
   251
100
AcDbFaceRecord
 10
0.0
 20
0.0
 30
0.0
 70
   128
 71
   213
 72
   214
 73
  -100
  0
VERTEX
  5
2E1
330
F7
100
AcDbEntity
  8
0
 62
   251
100
AcDbFaceRecord
 10
0.0
 20
0.0
 30
0.0
 70
   128
 71
   100
 72
    99
 73
  -213
  0
VERTEX
  5
2E2
330
F7
100
AcDbEntity
  8
0
 62
   251
100
AcDbFaceRecord
 10
0.0
 20
0.0
 30
0.0
 70
   128
 71
    63
 72
    43
 73
   -93
  0
VERTEX
  5
2E3
330
F7
100
AcDbEntity
  8
0
 62
   251
100
AcDbFaceRecord
 10
0.0
 20
0.0
 30
0.0
 70
   128
 71
    93
 72
    95
 73
   -63
  0
VERTEX
  5
2E4
330
F7
100
AcDbEntity
  8
0
 62
   251
100
AcDbFaceRecord
 10
0.0
 20
0.0
 30
0.0
 70
   128
 71
   265
 72
   189
 73
   -94
  0
VERTEX
  5
2E5
330
F7
100
AcDbEntity
  8
0
 62
   251
100
AcDbFaceRecord
 10
0.0
 20
0.0
 30
0.0
 70
   128
 71
    94
 72
    96
 73
  -265
  0
VERTEX
  5
2E6
330
F7
100
AcDbEntity
  8
0
 62
   251
100
AcDbFaceRecord
 10
0.0
 20
0.0
 30
0.0
 70
   128
 71
    12
 72
    63
 73
   -95
  0
VERTEX
  5
2E7
330
F7
100
AcDbEntity
  8
0
 62
   251
100
AcDbFaceRecord
 10
0.0
 20
0.0
 30
0.0
 70
   128
 71
    95
 72
    89
 73
   -12
  0
VERTEX
  5
2E8
330
F7
100
AcDbEntity
  8
0
 62
   251
100
AcDbFaceRecord
 10
0.0
 20
0.0
 30
0.0
 70
   128
 71
   285
 72
   265
 73
   -96
  0
VERTEX
  5
2E9
330
F7
100
AcDbEntity
  8
0
 62
   251
100
AcDbFaceRecord
 10
0.0
 20
0.0
 30
0.0
 70
   128
 71
    96
 72
    91
 73
  -285
  0
VERTEX
  5
2EA
330
F7
100
AcDbEntity
  8
0
 62
   251
100
AcDbFaceRecord
 10
0.0
 20
0.0
 30
0.0
 70
   128
 71
     2
 72
    83
 73
   -97
  0
VERTEX
  5
2EB
330
F7
100
AcDbEntity
  8
0
 62
   251
100
AcDbFaceRecord
 10
0.0
 20
0.0
 30
0.0
 70
   128
 71
    97
 72
    88
 73
    -2
  0
VERTEX
  5
2EC
330
F7
100
AcDbEntity
  8
0
 62
   251
100
AcDbFaceRecord
 10
0.0
 20
0.0
 30
0.0
 70
   128
 71
   295
 72
   296
 73
   -98
  0
VERTEX
  5
2ED
330
F7
100
AcDbEntity
  8
0
 62
   251
100
AcDbFaceRecord
 10
0.0
 20
0.0
 30
0.0
 70
   128
 71
    98
 72
    89
 73
  -295
  0
VERTEX
  5
2EE
330
F7
100
AcDbEntity
  8
0
 62
   251
100
AcDbFaceRecord
 10
0.0
 20
0.0
 30
0.0
 70
   128
 71
   222
 72
   213
 73
   -99
  0
VERTEX
  5
2EF
330
F7
100
AcDbEntity
  8
0
 62
   251
100
AcDbFaceRecord
 10
0.0
 20
0.0
 30
0.0
 70
   128
 71
    99
 72
    92
 73
  -222
  0
VERTEX
  5
2F0
330
F7
100
AcDbEntity
  8
0
 62
   251
100
AcDbFaceRecord
 10
0.0
 20
0.0
 30
0.0
 70
   128
 71
    23
 72
    85
 73
  -100
  0
VERTEX
  5
2F1
330
F7
100
AcDbEntity
  8
0
 62
   251
100
AcDbFaceRecord
 10
0.0
 20
0.0
 30
0.0
 70
   128
 71
   100
 72
    91
 73
   -23
  0
VERTEX
  5
2F2
330
F7
100
AcDbEntity
  8
0
 62
   251
100
AcDbFaceRecord
 10
0.0
 20
0.0
 30
0.0
 70
   128
 71
   109
 72
   107
 73
  -104
  0
VERTEX
  5
2F3
330
F7
100
AcDbEntity
  8
0
 62
   251
100
AcDbFaceRecord
 10
0.0
 20
0.0
 30
0.0
 70
   128
 71
   104
 72
   103
 73
  -109
  0
VERTEX
  5
2F4
330
F7
100
AcDbEntity
  8
0
 62
   251
100
AcDbFaceRecord
 10
0.0
 20
0.0
 30
0.0
 70
   128
 71
     2
 72
    88
 73
  -105
  0
VERTEX
  5
2F5
330
F7
100
AcDbEntity
  8
0
 62
   251
100
AcDbFaceRecord
 10
0.0
 20
0.0
 30
0.0
 70
   128
 71
   105
 72
   101
 73
    -2
  0
VERTEX
  5
2F6
330
F7
100
AcDbEntity
  8
0
 62
   251
100
AcDbFaceRecord
 10
0.0
 20
0.0
 30
0.0
 70
   128
 71
   108
 72
   109
 73
  -103
  0
VERTEX
  5
2F7
330
F7
100
AcDbEntity
  8
0
 62
   251
100
AcDbFaceRecord
 10
0.0
 20
0.0
 30
0.0
 70
   128
 71
   103
 72
   101
 73
  -108
  0
VERTEX
  5
2F8
330
F7
100
AcDbEntity
  8
0
 62
   251
100
AcDbFaceRecord
 10
0.0
 20
0.0
 30
0.0
 70
   128
 71
    12
 72
    84
 73
  -104
  0
VERTEX
  5
2F9
330
F7
100
AcDbEntity
  8
0
 62
   251
100
AcDbFaceRecord
 10
0.0
 20
0.0
 30
0.0
 70
   128
 71
   104
 72
   102
 73
   -12
  0
VERTEX
  5
2FA
330
F7
100
AcDbEntity
  8
0
 62
   251
100
AcDbFaceRecord
 10
0.0
 20
0.0
 30
0.0
 70
   128
 71
   101
 72
   105
 73
  -110
  0
VERTEX
  5
2FB
330
F7
100
AcDbEntity
  8
0
 62
   251
100
AcDbFaceRecord
 10
0.0
 20
0.0
 30
0.0
 70
   128
 71
   110
 72
   108
 73
  -101
  0
VERTEX
  5
2FC
330
F7
100
AcDbEntity
  8
0
 62
   251
100
AcDbFaceRecord
 10
0.0
 20
0.0
 30
0.0
 70
   128
 71
   102
 72
   104
 73
  -107
  0
VERTEX
  5
2FD
330
F7
100
AcDbEntity
  8
0
 62
   251
100
AcDbFaceRecord
 10
0.0
 20
0.0
 30
0.0
 70
   128
 71
   107
 72
   106
 73
  -102
  0
VERTEX
  5
2FE
330
F7
100
AcDbEntity
  8
0
 62
   251
100
AcDbFaceRecord
 10
0.0
 20
0.0
 30
0.0
 70
   128
 71
    86
 72
    85
 73
  -107
  0
VERTEX
  5
2FF
330
F7
100
AcDbEntity
  8
0
 62
   251
100
AcDbFaceRecord
 10
0.0
 20
0.0
 30
0.0
 70
   128
 71
   107
 72
   109
 73
   -86
  0
VERTEX
  5
300
330
F7
100
AcDbEntity
  8
0
 62
   251
100
AcDbFaceRecord
 10
0.0
 20
0.0
 30
0.0
 70
   128
 71
    42
 72
    86
 73
  -109
  0
VERTEX
  5
301
330
F7
100
AcDbEntity
  8
0
 62
   251
100
AcDbFaceRecord
 10
0.0
 20
0.0
 30
0.0
 70
   128
 71
   109
 72
   108
 73
   -42
  0
VERTEX
  5
302
330
F7
100
AcDbEntity
  8
0
 62
   251
100
AcDbFaceRecord
 10
0.0
 20
0.0
 30
0.0
 70
   128
 71
    44
 72
     3
 73
  -111
  0
VERTEX
  5
303
330
F7
100
AcDbEntity
  8
0
 62
   251
100
AcDbFaceRecord
 10
0.0
 20
0.0
 30
0.0
 70
   128
 71
   111
 72
   115
 73
   -44
  0
VERTEX
  5
304
330
F7
100
AcDbEntity
  8
0
 62
   251
100
AcDbFaceRecord
 10
0.0
 20
0.0
 30
0.0
 70
   128
 71
    25
 72
    54
 73
  -116
  0
VERTEX
  5
305
330
F7
100
AcDbEntity
  8
0
 62
   251
100
AcDbFaceRecord
 10
0.0
 20
0.0
 30
0.0
 70
   128
 71
   116
 72
   114
 73
   -25
  0
VERTEX
  5
306
330
F7
100
AcDbEntity
  8
0
 62
   251
100
AcDbFaceRecord
 10
0.0
 20
0.0
 30
0.0
 70
   128
 71
   147
 72
   148
 73
  -149
  0
VERTEX
  5
307
330
F7
100
AcDbEntity
  8
0
 62
   251
100
AcDbFaceRecord
 10
0.0
 20
0.0
 30
0.0
 70
   128
 71
   149
 72
   150
 73
  -151
  0
VERTEX
  5
308
330
F7
100
AcDbEntity
  8
0
 62
   251
100
AcDbFaceRecord
 10
0.0
 20
0.0
 30
0.0
 70
   128
 71
   151
 72
   152
 73
  -153
  0
VERTEX
  5
309
330
F7
100
AcDbEntity
  8
0
 62
   251
100
AcDbFaceRecord
 10
0.0
 20
0.0
 30
0.0
 70
   128
 71
  -149
 72
  -151
 73
  -153
  0
VERTEX
  5
30A
330
F7
100
AcDbEntity
  8
0
 62
   251
100
AcDbFaceRecord
 10
0.0
 20
0.0
 30
0.0
 70
   128
 71
   153
 72
   154
 73
  -155
  0
VERTEX
  5
30B
330
F7
100
AcDbEntity
  8
0
 62
   251
100
AcDbFaceRecord
 10
0.0
 20
0.0
 30
0.0
 70
   128
 71
   155
 72
   156
 73
  -157
  0
VERTEX
  5
30C
330
F7
100
AcDbEntity
  8
0
 62
   251
100
AcDbFaceRecord
 10
0.0
 20
0.0
 30
0.0
 70
   128
 71
  -153
 72
  -155
 73
  -157
  0
VERTEX
  5
30D
330
F7
100
AcDbEntity
  8
0
 62
   251
100
AcDbFaceRecord
 10
0.0
 20
0.0
 30
0.0
 70
   128
 71
   157
 72
   158
 73
  -159
  0
VERTEX
  5
30E
330
F7
100
AcDbEntity
  8
0
 62
   251
100
AcDbFaceRecord
 10
0.0
 20
0.0
 30
0.0
 70
   128
 71
   159
 72
   160
 73
  -161
  0
VERTEX
  5
30F
330
F7
100
AcDbEntity
  8
0
 62
   251
100
AcDbFaceRecord
 10
0.0
 20
0.0
 30
0.0
 70
   128
 71
  -157
 72
  -159
 73
  -161
  0
VERTEX
  5
310
330
F7
100
AcDbEntity
  8
0
 62
   251
100
AcDbFaceRecord
 10
0.0
 20
0.0
 30
0.0
 70
   128
 71
   161
 72
   162
 73
  -143
  0
VERTEX
  5
311
330
F7
100
AcDbEntity
  8
0
 62
   251
100
AcDbFaceRecord
 10
0.0
 20
0.0
 30
0.0
 70
   128
 71
   143
 72
   144
 73
  -145
  0
VERTEX
  5
312
330
F7
100
AcDbEntity
  8
0
 62
   251
100
AcDbFaceRecord
 10
0.0
 20
0.0
 30
0.0
 70
   128
 71
  -161
 72
  -143
 73
  -145
  0
VERTEX
  5
313
330
F7
100
AcDbEntity
  8
0
 62
   251
100
AcDbFaceRecord
 10
0.0
 20
0.0
 30
0.0
 70
   128
 71
  -157
 72
  -161
 73
  -145
  0
VERTEX
  5
314
330
F7
100
AcDbEntity
  8
0
 62
   251
100
AcDbFaceRecord
 10
0.0
 20
0.0
 30
0.0
 70
   128
 71
  -153
 72
  -157
 73
  -145
  0
VERTEX
  5
315
330
F7
100
AcDbEntity
  8
0
 62
   251
100
AcDbFaceRecord
 10
0.0
 20
0.0
 30
0.0
 70
   128
 71
  -149
 72
  -153
 73
  -145
  0
VERTEX
  5
316
330
F7
100
AcDbEntity
  8
0
 62
   251
100
AcDbFaceRecord
 10
0.0
 20
0.0
 30
0.0
 70
   128
 71
  -147
 72
  -149
 73
  -145
  0
VERTEX
  5
317
330
F7
100
AcDbEntity
  8
0
 62
   251
100
AcDbFaceRecord
 10
0.0
 20
0.0
 30
0.0
 70
   128
 71
   146
 72
  -147
 73
   145
  0
VERTEX
  5
318
330
F7
100
AcDbEntity
  8
0
 62
   251
100
AcDbFaceRecord
 10
0.0
 20
0.0
 30
0.0
 70
   128
 71
   141
 72
   120
 73
  -121
  0
VERTEX
  5
319
330
F7
100
AcDbEntity
  8
0
 62
   251
100
AcDbFaceRecord
 10
0.0
 20
0.0
 30
0.0
 70
   128
 71
   121
 72
   140
 73
  -141
  0
VERTEX
  5
31A
330
F7
100
AcDbEntity
  8
0
 62
   251
100
AcDbFaceRecord
 10
0.0
 20
0.0
 30
0.0
 70
   128
 71
    64
 72
    44
 73
  -115
  0
VERTEX
  5
31B
330
F7
100
AcDbEntity
  8
0
 62
   251
100
AcDbFaceRecord
 10
0.0
 20
0.0
 30
0.0
 70
   128
 71
   115
 72
   117
 73
   -64
  0
VERTEX
  5
31C
330
F7
100
AcDbEntity
  8
0
 62
   251
100
AcDbFaceRecord
 10
0.0
 20
0.0
 30
0.0
 70
   128
 71
   118
 72
    73
 73
   -53
  0
VERTEX
  5
31D
330
F7
100
AcDbEntity
  8
0
 62
   251
100
AcDbFaceRecord
 10
0.0
 20
0.0
 30
0.0
 70
   128
 71
    53
 72
   116
 73
  -118
  0
VERTEX
  5
31E
330
F7
100
AcDbEntity
  8
0
 62
   251
100
AcDbFaceRecord
 10
0.0
 20
0.0
 30
0.0
 70
   128
 71
    13
 72
    64
 73
  -117
  0
VERTEX
  5
31F
330
F7
100
AcDbEntity
  8
0
 62
   251
100
AcDbFaceRecord
 10
0.0
 20
0.0
 30
0.0
 70
   128
 71
   117
 72
   112
 73
   -13
  0
VERTEX
  5
320
330
F7
100
AcDbEntity
  8
0
 62
   251
100
AcDbFaceRecord
 10
0.0
 20
0.0
 30
0.0
 70
   128
 71
   113
 72
    23
 73
   -73
  0
VERTEX
  5
321
330
F7
100
AcDbEntity
  8
0
 62
   251
100
AcDbFaceRecord
 10
0.0
 20
0.0
 30
0.0
 70
   128
 71
    73
 72
   118
 73
  -113
  0
VERTEX
  5
322
330
F7
100
AcDbEntity
  8
0
 62
   251
100
AcDbFaceRecord
 10
0.0
 20
0.0
 30
0.0
 70
   128
 71
     1
 72
   120
 73
  -119
  0
VERTEX
  5
323
330
F7
100
AcDbEntity
  8
0
 62
   251
100
AcDbFaceRecord
 10
0.0
 20
0.0
 30
0.0
 70
   128
 71
   119
 72
    87
 73
    -1
  0
VERTEX
  5
324
330
F7
100
AcDbEntity
  8
0
 62
   251
100
AcDbFaceRecord
 10
0.0
 20
0.0
 30
0.0
 70
   128
 71
   111
 72
   121
 73
  -120
  0
VERTEX
  5
325
330
F7
100
AcDbEntity
  8
0
 62
   251
100
AcDbFaceRecord
 10
0.0
 20
0.0
 30
0.0
 70
   128
 71
   120
 72
     1
 73
  -111
  0
VERTEX
  5
326
330
F7
100
AcDbEntity
  8
0
 62
   251
100
AcDbFaceRecord
 10
0.0
 20
0.0
 30
0.0
 70
   128
 71
     3
 72
   122
 73
  -121
  0
VERTEX
  5
327
330
F7
100
AcDbEntity
  8
0
 62
   251
100
AcDbFaceRecord
 10
0.0
 20
0.0
 30
0.0
 70
   128
 71
   121
 72
   111
 73
    -3
  0
VERTEX
  5
328
330
F7
100
AcDbEntity
  8
0
 62
   251
100
AcDbFaceRecord
 10
0.0
 20
0.0
 30
0.0
 70
   128
 71
     3
 72
     4
 73
  -123
  0
VERTEX
  5
329
330
F7
100
AcDbEntity
  8
0
 62
   251
100
AcDbFaceRecord
 10
0.0
 20
0.0
 30
0.0
 70
   128
 71
   123
 72
   122
 73
    -3
  0
VERTEX
  5
32A
330
F7
100
AcDbEntity
  8
0
 62
   251
100
AcDbFaceRecord
 10
0.0
 20
0.0
 30
0.0
 70
   128
 71
     5
 72
   124
 73
  -123
  0
VERTEX
  5
32B
330
F7
100
AcDbEntity
  8
0
 62
   251
100
AcDbFaceRecord
 10
0.0
 20
0.0
 30
0.0
 70
   128
 71
   123
 72
     4
 73
    -5
  0
VERTEX
  5
32C
330
F7
100
AcDbEntity
  8
0
 62
   251
100
AcDbFaceRecord
 10
0.0
 20
0.0
 30
0.0
 70
   128
 71
     6
 72
   125
 73
  -124
  0
VERTEX
  5
32D
330
F7
100
AcDbEntity
  8
0
 62
   251
100
AcDbFaceRecord
 10
0.0
 20
0.0
 30
0.0
 70
   128
 71
   124
 72
     5
 73
    -6
  0
VERTEX
  5
32E
330
F7
100
AcDbEntity
  8
0
 62
   251
100
AcDbFaceRecord
 10
0.0
 20
0.0
 30
0.0
 70
   128
 71
     7
 72
   126
 73
  -125
  0
VERTEX
  5
32F
330
F7
100
AcDbEntity
  8
0
 62
   251
100
AcDbFaceRecord
 10
0.0
 20
0.0
 30
0.0
 70
   128
 71
   125
 72
     6
 73
    -7
  0
VERTEX
  5
330
330
F7
100
AcDbEntity
  8
0
 62
   251
100
AcDbFaceRecord
 10
0.0
 20
0.0
 30
0.0
 70
   128
 71
     8
 72
   127
 73
  -126
  0
VERTEX
  5
331
330
F7
100
AcDbEntity
  8
0
 62
   251
100
AcDbFaceRecord
 10
0.0
 20
0.0
 30
0.0
 70
   128
 71
   126
 72
     7
 73
    -8
  0
VERTEX
  5
332
330
F7
100
AcDbEntity
  8
0
 62
   251
100
AcDbFaceRecord
 10
0.0
 20
0.0
 30
0.0
 70
   128
 71
     9
 72
   128
 73
  -127
  0
VERTEX
  5
333
330
F7
100
AcDbEntity
  8
0
 62
   251
100
AcDbFaceRecord
 10
0.0
 20
0.0
 30
0.0
 70
   128
 71
   127
 72
     8
 73
    -9
  0
VERTEX
  5
334
330
F7
100
AcDbEntity
  8
0
 62
   251
100
AcDbFaceRecord
 10
0.0
 20
0.0
 30
0.0
 70
   128
 71
    10
 72
   129
 73
  -128
  0
VERTEX
  5
335
330
F7
100
AcDbEntity
  8
0
 62
   251
100
AcDbFaceRecord
 10
0.0
 20
0.0
 30
0.0
 70
   128
 71
   128
 72
     9
 73
   -10
  0
VERTEX
  5
336
330
F7
100
AcDbEntity
  8
0
 62
   251
100
AcDbFaceRecord
 10
0.0
 20
0.0
 30
0.0
 70
   128
 71
    11
 72
   130
 73
  -129
  0
VERTEX
  5
337
330
F7
100
AcDbEntity
  8
0
 62
   251
100
AcDbFaceRecord
 10
0.0
 20
0.0
 30
0.0
 70
   128
 71
   129
 72
    10
 73
   -11
  0
VERTEX
  5
338
330
F7
100
AcDbEntity
  8
0
 62
   251
100
AcDbFaceRecord
 10
0.0
 20
0.0
 30
0.0
 70
   128
 71
    41
 72
   131
 73
  -130
  0
VERTEX
  5
339
330
F7
100
AcDbEntity
  8
0
 62
   251
100
AcDbFaceRecord
 10
0.0
 20
0.0
 30
0.0
 70
   128
 71
   130
 72
    11
 73
   -41
  0
VERTEX
  5
33A
330
F7
100
AcDbEntity
  8
0
 62
   251
100
AcDbFaceRecord
 10
0.0
 20
0.0
 30
0.0
 70
   128
 71
    41
 72
    39
 73
  -132
  0
VERTEX
  5
33B
330
F7
100
AcDbEntity
  8
0
 62
   251
100
AcDbFaceRecord
 10
0.0
 20
0.0
 30
0.0
 70
   128
 71
   132
 72
   131
 73
   -41
  0
VERTEX
  5
33C
330
F7
100
AcDbEntity
  8
0
 62
   251
100
AcDbFaceRecord
 10
0.0
 20
0.0
 30
0.0
 70
   128
 71
    37
 72
   133
 73
  -132
  0
VERTEX
  5
33D
330
F7
100
AcDbEntity
  8
0
 62
   251
100
AcDbFaceRecord
 10
0.0
 20
0.0
 30
0.0
 70
   128
 71
   132
 72
    39
 73
   -37
  0
VERTEX
  5
33E
330
F7
100
AcDbEntity
  8
0
 62
   251
100
AcDbFaceRecord
 10
0.0
 20
0.0
 30
0.0
 70
   128
 71
    35
 72
   134
 73
  -133
  0
VERTEX
  5
33F
330
F7
100
AcDbEntity
  8
0
 62
   251
100
AcDbFaceRecord
 10
0.0
 20
0.0
 30
0.0
 70
   128
 71
   133
 72
    37
 73
   -35
  0
VERTEX
  5
340
330
F7
100
AcDbEntity
  8
0
 62
   251
100
AcDbFaceRecord
 10
0.0
 20
0.0
 30
0.0
 70
   128
 71
    35
 72
    33
 73
  -135
  0
VERTEX
  5
341
330
F7
100
AcDbEntity
  8
0
 62
   251
100
AcDbFaceRecord
 10
0.0
 20
0.0
 30
0.0
 70
   128
 71
   135
 72
   134
 73
   -35
  0
VERTEX
  5
342
330
F7
100
AcDbEntity
  8
0
 62
   251
100
AcDbFaceRecord
 10
0.0
 20
0.0
 30
0.0
 70
   128
 71
    31
 72
   136
 73
  -135
  0
VERTEX
  5
343
330
F7
100
AcDbEntity
  8
0
 62
   251
100
AcDbFaceRecord
 10
0.0
 20
0.0
 30
0.0
 70
   128
 71
   135
 72
    33
 73
   -31
  0
VERTEX
  5
344
330
F7
100
AcDbEntity
  8
0
 62
   251
100
AcDbFaceRecord
 10
0.0
 20
0.0
 30
0.0
 70
   128
 71
    29
 72
   137
 73
  -136
  0
VERTEX
  5
345
330
F7
100
AcDbEntity
  8
0
 62
   251
100
AcDbFaceRecord
 10
0.0
 20
0.0
 30
0.0
 70
   128
 71
   136
 72
    31
 73
   -29
  0
VERTEX
  5
346
330
F7
100
AcDbEntity
  8
0
 62
   251
100
AcDbFaceRecord
 10
0.0
 20
0.0
 30
0.0
 70
   128
 71
    27
 72
   138
 73
  -137
  0
VERTEX
  5
347
330
F7
100
AcDbEntity
  8
0
 62
   251
100
AcDbFaceRecord
 10
0.0
 20
0.0
 30
0.0
 70
   128
 71
   137
 72
    29
 73
   -27
  0
VERTEX
  5
348
330
F7
100
AcDbEntity
  8
0
 62
   251
100
AcDbFaceRecord
 10
0.0
 20
0.0
 30
0.0
 70
   128
 71
    25
 72
   139
 73
  -138
  0
VERTEX
  5
349
330
F7
100
AcDbEntity
  8
0
 62
   251
100
AcDbFaceRecord
 10
0.0
 20
0.0
 30
0.0
 70
   128
 71
   138
 72
    27
 73
   -25
  0
VERTEX
  5
34A
330
F7
100
AcDbEntity
  8
0
 62
   251
100
AcDbFaceRecord
 10
0.0
 20
0.0
 30
0.0
 70
   128
 71
   114
 72
   140
 73
  -139
  0
VERTEX
  5
34B
330
F7
100
AcDbEntity
  8
0
 62
   251
100
AcDbFaceRecord
 10
0.0
 20
0.0
 30
0.0
 70
   128
 71
   139
 72
    25
 73
  -114
  0
VERTEX
  5
34C
330
F7
100
AcDbEntity
  8
0
 62
   251
100
AcDbFaceRecord
 10
0.0
 20
0.0
 30
0.0
 70
   128
 71
    22
 72
   141
 73
  -140
  0
VERTEX
  5
34D
330
F7
100
AcDbEntity
  8
0
 62
   251
100
AcDbFaceRecord
 10
0.0
 20
0.0
 30
0.0
 70
   128
 71
   140
 72
   114
 73
   -22
  0
VERTEX
  5
34E
330
F7
100
AcDbEntity
  8
0
 62
   251
100
AcDbFaceRecord
 10
0.0
 20
0.0
 30
0.0
 70
   128
 71
    90
 72
   142
 73
  -141
  0
VERTEX
  5
34F
330
F7
100
AcDbEntity
  8
0
 62
   251
100
AcDbFaceRecord
 10
0.0
 20
0.0
 30
0.0
 70
   128
 71
   141
 72
    22
 73
   -90
  0
VERTEX
  5
350
330
F7
100
AcDbEntity
  8
0
 62
   251
100
AcDbFaceRecord
 10
0.0
 20
0.0
 30
0.0
 70
   128
 71
    13
 72
   144
 73
  -143
  0
VERTEX
  5
351
330
F7
100
AcDbEntity
  8
0
 62
   251
100
AcDbFaceRecord
 10
0.0
 20
0.0
 30
0.0
 70
   128
 71
   143
 72
    14
 73
   -13
  0
VERTEX
  5
352
330
F7
100
AcDbEntity
  8
0
 62
   251
100
AcDbFaceRecord
 10
0.0
 20
0.0
 30
0.0
 70
   128
 71
    13
 72
   112
 73
  -145
  0
VERTEX
  5
353
330
F7
100
AcDbEntity
  8
0
 62
   251
100
AcDbFaceRecord
 10
0.0
 20
0.0
 30
0.0
 70
   128
 71
   145
 72
   144
 73
   -13
  0
VERTEX
  5
354
330
F7
100
AcDbEntity
  8
0
 62
   251
100
AcDbFaceRecord
 10
0.0
 20
0.0
 30
0.0
 70
   128
 71
   113
 72
   146
 73
  -145
  0
VERTEX
  5
355
330
F7
100
AcDbEntity
  8
0
 62
   251
100
AcDbFaceRecord
 10
0.0
 20
0.0
 30
0.0
 70
   128
 71
   145
 72
   112
 73
  -113
  0
VERTEX
  5
356
330
F7
100
AcDbEntity
  8
0
 62
   251
100
AcDbFaceRecord
 10
0.0
 20
0.0
 30
0.0
 70
   128
 71
    24
 72
   147
 73
  -146
  0
VERTEX
  5
357
330
F7
100
AcDbEntity
  8
0
 62
   251
100
AcDbFaceRecord
 10
0.0
 20
0.0
 30
0.0
 70
   128
 71
   146
 72
   113
 73
   -24
  0
VERTEX
  5
358
330
F7
100
AcDbEntity
  8
0
 62
   251
100
AcDbFaceRecord
 10
0.0
 20
0.0
 30
0.0
 70
   128
 71
    24
 72
    26
 73
  -148
  0
VERTEX
  5
359
330
F7
100
AcDbEntity
  8
0
 62
   251
100
AcDbFaceRecord
 10
0.0
 20
0.0
 30
0.0
 70
   128
 71
   148
 72
   147
 73
   -24
  0
VERTEX
  5
35A
330
F7
100
AcDbEntity
  8
0
 62
   251
100
AcDbFaceRecord
 10
0.0
 20
0.0
 30
0.0
 70
   128
 71
    28
 72
   149
 73
  -148
  0
VERTEX
  5
35B
330
F7
100
AcDbEntity
  8
0
 62
   251
100
AcDbFaceRecord
 10
0.0
 20
0.0
 30
0.0
 70
   128
 71
   148
 72
    26
 73
   -28
  0
VERTEX
  5
35C
330
F7
100
AcDbEntity
  8
0
 62
   251
100
AcDbFaceRecord
 10
0.0
 20
0.0
 30
0.0
 70
   128
 71
    30
 72
   150
 73
  -149
  0
VERTEX
  5
35D
330
F7
100
AcDbEntity
  8
0
 62
   251
100
AcDbFaceRecord
 10
0.0
 20
0.0
 30
0.0
 70
   128
 71
   149
 72
    28
 73
   -30
  0
VERTEX
  5
35E
330
F7
100
AcDbEntity
  8
0
 62
   251
100
AcDbFaceRecord
 10
0.0
 20
0.0
 30
0.0
 70
   128
 71
    30
 72
    32
 73
  -151
  0
VERTEX
  5
35F
330
F7
100
AcDbEntity
  8
0
 62
   251
100
AcDbFaceRecord
 10
0.0
 20
0.0
 30
0.0
 70
   128
 71
   151
 72
   150
 73
   -30
  0
VERTEX
  5
360
330
F7
100
AcDbEntity
  8
0
 62
   251
100
AcDbFaceRecord
 10
0.0
 20
0.0
 30
0.0
 70
   128
 71
    34
 72
   152
 73
  -151
  0
VERTEX
  5
361
330
F7
100
AcDbEntity
  8
0
 62
   251
100
AcDbFaceRecord
 10
0.0
 20
0.0
 30
0.0
 70
   128
 71
   151
 72
    32
 73
   -34
  0
VERTEX
  5
362
330
F7
100
AcDbEntity
  8
0
 62
   251
100
AcDbFaceRecord
 10
0.0
 20
0.0
 30
0.0
 70
   128
 71
    36
 72
   153
 73
  -152
  0
VERTEX
  5
363
330
F7
100
AcDbEntity
  8
0
 62
   251
100
AcDbFaceRecord
 10
0.0
 20
0.0
 30
0.0
 70
   128
 71
   152
 72
    34
 73
   -36
  0
VERTEX
  5
364
330
F7
100
AcDbEntity
  8
0
 62
   251
100
AcDbFaceRecord
 10
0.0
 20
0.0
 30
0.0
 70
   128
 71
    36
 72
    38
 73
  -154
  0
VERTEX
  5
365
330
F7
100
AcDbEntity
  8
0
 62
   251
100
AcDbFaceRecord
 10
0.0
 20
0.0
 30
0.0
 70
   128
 71
   154
 72
   153
 73
   -36
  0
VERTEX
  5
366
330
F7
100
AcDbEntity
  8
0
 62
   251
100
AcDbFaceRecord
 10
0.0
 20
0.0
 30
0.0
 70
   128
 71
    40
 72
   155
 73
  -154
  0
VERTEX
  5
367
330
F7
100
AcDbEntity
  8
0
 62
   251
100
AcDbFaceRecord
 10
0.0
 20
0.0
 30
0.0
 70
   128
 71
   154
 72
    38
 73
   -40
  0
VERTEX
  5
368
330
F7
100
AcDbEntity
  8
0
 62
   251
100
AcDbFaceRecord
 10
0.0
 20
0.0
 30
0.0
 70
   128
 71
    21
 72
   156
 73
  -155
  0
VERTEX
  5
369
330
F7
100
AcDbEntity
  8
0
 62
   251
100
AcDbFaceRecord
 10
0.0
 20
0.0
 30
0.0
 70
   128
 71
   155
 72
    40
 73
   -21
  0
VERTEX
  5
36A
330
F7
100
AcDbEntity
  8
0
 62
   251
100
AcDbFaceRecord
 10
0.0
 20
0.0
 30
0.0
 70
   128
 71
    21
 72
    20
 73
  -157
  0
VERTEX
  5
36B
330
F7
100
AcDbEntity
  8
0
 62
   251
100
AcDbFaceRecord
 10
0.0
 20
0.0
 30
0.0
 70
   128
 71
   157
 72
   156
 73
   -21
  0
VERTEX
  5
36C
330
F7
100
AcDbEntity
  8
0
 62
   251
100
AcDbFaceRecord
 10
0.0
 20
0.0
 30
0.0
 70
   128
 71
    19
 72
   158
 73
  -157
  0
VERTEX
  5
36D
330
F7
100
AcDbEntity
  8
0
 62
   251
100
AcDbFaceRecord
 10
0.0
 20
0.0
 30
0.0
 70
   128
 71
   157
 72
    20
 73
   -19
  0
VERTEX
  5
36E
330
F7
100
AcDbEntity
  8
0
 62
   251
100
AcDbFaceRecord
 10
0.0
 20
0.0
 30
0.0
 70
   128
 71
    18
 72
   159
 73
  -158
  0
VERTEX
  5
36F
330
F7
100
AcDbEntity
  8
0
 62
   251
100
AcDbFaceRecord
 10
0.0
 20
0.0
 30
0.0
 70
   128
 71
   158
 72
    19
 73
   -18
  0
VERTEX
  5
370
330
F7
100
AcDbEntity
  8
0
 62
   251
100
AcDbFaceRecord
 10
0.0
 20
0.0
 30
0.0
 70
   128
 71
    17
 72
   160
 73
  -159
  0
VERTEX
  5
371
330
F7
100
AcDbEntity
  8
0
 62
   251
100
AcDbFaceRecord
 10
0.0
 20
0.0
 30
0.0
 70
   128
 71
   159
 72
    18
 73
   -17
  0
VERTEX
  5
372
330
F7
100
AcDbEntity
  8
0
 62
   251
100
AcDbFaceRecord
 10
0.0
 20
0.0
 30
0.0
 70
   128
 71
    16
 72
   161
 73
  -160
  0
VERTEX
  5
373
330
F7
100
AcDbEntity
  8
0
 62
   251
100
AcDbFaceRecord
 10
0.0
 20
0.0
 30
0.0
 70
   128
 71
   160
 72
    17
 73
   -16
  0
VERTEX
  5
374
330
F7
100
AcDbEntity
  8
0
 62
   251
100
AcDbFaceRecord
 10
0.0
 20
0.0
 30
0.0
 70
   128
 71
    15
 72
   162
 73
  -161
  0
VERTEX
  5
375
330
F7
100
AcDbEntity
  8
0
 62
   251
100
AcDbFaceRecord
 10
0.0
 20
0.0
 30
0.0
 70
   128
 71
   161
 72
    16
 73
   -15
  0
VERTEX
  5
376
330
F7
100
AcDbEntity
  8
0
 62
   251
100
AcDbFaceRecord
 10
0.0
 20
0.0
 30
0.0
 70
   128
 71
    14
 72
   143
 73
  -162
  0
VERTEX
  5
377
330
F7
100
AcDbEntity
  8
0
 62
   251
100
AcDbFaceRecord
 10
0.0
 20
0.0
 30
0.0
 70
   128
 71
   162
 72
    15
 73
   -14
  0
VERTEX
  5
378
330
F7
100
AcDbEntity
  8
0
 62
   251
100
AcDbFaceRecord
 10
0.0
 20
0.0
 30
0.0
 70
   128
 71
    93
 72
   165
 73
  -303
  0
VERTEX
  5
379
330
F7
100
AcDbEntity
  8
0
 62
   251
100
AcDbFaceRecord
 10
0.0
 20
0.0
 30
0.0
 70
   128
 71
   303
 72
    95
 73
   -93
  0
VERTEX
  5
37A
330
F7
100
AcDbEntity
  8
0
 62
   251
100
AcDbFaceRecord
 10
0.0
 20
0.0
 30
0.0
 70
   128
 71
   100
 72
   214
 73
  -285
  0
VERTEX
  5
37B
330
F7
100
AcDbEntity
  8
0
 62
   251
100
AcDbFaceRecord
 10
0.0
 20
0.0
 30
0.0
 70
   128
 71
   285
 72
    91
 73
  -100
  0
VERTEX
  5
37C
330
F7
100
AcDbEntity
  8
0
 62
   251
100
AcDbFaceRecord
 10
0.0
 20
0.0
 30
0.0
 70
   128
 71
   110
 72
   221
 73
  -222
  0
VERTEX
  5
37D
330
F7
100
AcDbEntity
  8
0
 62
   251
100
AcDbFaceRecord
 10
0.0
 20
0.0
 30
0.0
 70
   128
 71
   222
 72
    92
 73
  -110
  0
VERTEX
  5
37E
330
F7
100
AcDbEntity
  8
0
 62
   251
100
AcDbFaceRecord
 10
0.0
 20
0.0
 30
0.0
 70
   128
 71
   119
 72
   231
 73
  -164
  0
VERTEX
  5
37F
330
F7
100
AcDbEntity
  8
0
 62
   251
100
AcDbFaceRecord
 10
0.0
 20
0.0
 30
0.0
 70
   128
 71
   164
 72
    87
 73
  -119
  0
VERTEX
  5
380
330
F7
100
AcDbEntity
  8
0
 62
   251
100
AcDbFaceRecord
 10
0.0
 20
0.0
 30
0.0
 70
   128
 71
   166
 72
   165
 73
  -164
  0
VERTEX
  5
381
330
F7
100
AcDbEntity
  8
0
 62
   251
100
AcDbFaceRecord
 10
0.0
 20
0.0
 30
0.0
 70
   128
 71
   164
 72
   163
 73
  -166
  0
VERTEX
  5
382
330
F7
100
AcDbEntity
  8
0
 62
   251
100
AcDbFaceRecord
 10
0.0
 20
0.0
 30
0.0
 70
   128
 71
   168
 72
   167
 73
  -166
  0
VERTEX
  5
383
330
F7
100
AcDbEntity
  8
0
 62
   251
100
AcDbFaceRecord
 10
0.0
 20
0.0
 30
0.0
 70
   128
 71
   166
 72
   163
 73
  -168
  0
VERTEX
  5
384
330
F7
100
AcDbEntity
  8
0
 62
   251
100
AcDbFaceRecord
 10
0.0
 20
0.0
 30
0.0
 70
   128
 71
   172
 72
   171
 73
  -170
  0
VERTEX
  5
385
330
F7
100
AcDbEntity
  8
0
 62
   251
100
AcDbFaceRecord
 10
0.0
 20
0.0
 30
0.0
 70
   128
 71
   170
 72
   169
 73
  -172
  0
VERTEX
  5
386
330
F7
100
AcDbEntity
  8
0
 62
   251
100
AcDbFaceRecord
 10
0.0
 20
0.0
 30
0.0
 70
   128
 71
   174
 72
   173
 73
  -171
  0
VERTEX
  5
387
330
F7
100
AcDbEntity
  8
0
 62
   251
100
AcDbFaceRecord
 10
0.0
 20
0.0
 30
0.0
 70
   128
 71
   171
 72
   172
 73
  -174
  0
VERTEX
  5
388
330
F7
100
AcDbEntity
  8
0
 62
   251
100
AcDbFaceRecord
 10
0.0
 20
0.0
 30
0.0
 70
   128
 71
   176
 72
   175
 73
  -173
  0
VERTEX
  5
389
330
F7
100
AcDbEntity
  8
0
 62
   251
100
AcDbFaceRecord
 10
0.0
 20
0.0
 30
0.0
 70
   128
 71
   173
 72
   174
 73
  -176
  0
VERTEX
  5
38A
330
F7
100
AcDbEntity
  8
0
 62
   251
100
AcDbFaceRecord
 10
0.0
 20
0.0
 30
0.0
 70
   128
 71
   178
 72
   177
 73
  -175
  0
VERTEX
  5
38B
330
F7
100
AcDbEntity
  8
0
 62
   251
100
AcDbFaceRecord
 10
0.0
 20
0.0
 30
0.0
 70
   128
 71
   175
 72
   176
 73
  -178
  0
VERTEX
  5
38C
330
F7
100
AcDbEntity
  8
0
 62
   251
100
AcDbFaceRecord
 10
0.0
 20
0.0
 30
0.0
 70
   128
 71
   180
 72
   179
 73
  -177
  0
VERTEX
  5
38D
330
F7
100
AcDbEntity
  8
0
 62
   251
100
AcDbFaceRecord
 10
0.0
 20
0.0
 30
0.0
 70
   128
 71
   177
 72
   178
 73
  -180
  0
VERTEX
  5
38E
330
F7
100
AcDbEntity
  8
0
 62
   251
100
AcDbFaceRecord
 10
0.0
 20
0.0
 30
0.0
 70
   128
 71
   182
 72
   181
 73
  -179
  0
VERTEX
  5
38F
330
F7
100
AcDbEntity
  8
0
 62
   251
100
AcDbFaceRecord
 10
0.0
 20
0.0
 30
0.0
 70
   128
 71
   179
 72
   180
 73
  -182
  0
VERTEX
  5
390
330
F7
100
AcDbEntity
  8
0
 62
   251
100
AcDbFaceRecord
 10
0.0
 20
0.0
 30
0.0
 70
   128
 71
   184
 72
   183
 73
  -181
  0
VERTEX
  5
391
330
F7
100
AcDbEntity
  8
0
 62
   251
100
AcDbFaceRecord
 10
0.0
 20
0.0
 30
0.0
 70
   128
 71
   181
 72
   182
 73
  -184
  0
VERTEX
  5
392
330
F7
100
AcDbEntity
  8
0
 62
   251
100
AcDbFaceRecord
 10
0.0
 20
0.0
 30
0.0
 70
   128
 71
   186
 72
   185
 73
  -183
  0
VERTEX
  5
393
330
F7
100
AcDbEntity
  8
0
 62
   251
100
AcDbFaceRecord
 10
0.0
 20
0.0
 30
0.0
 70
   128
 71
   183
 72
   184
 73
  -186
  0
VERTEX
  5
394
330
F7
100
AcDbEntity
  8
0
 62
   251
100
AcDbFaceRecord
 10
0.0
 20
0.0
 30
0.0
 70
   128
 71
   190
 72
   189
 73
  -188
  0
VERTEX
  5
395
330
F7
100
AcDbEntity
  8
0
 62
   251
100
AcDbFaceRecord
 10
0.0
 20
0.0
 30
0.0
 70
   128
 71
   188
 72
   187
 73
  -190
  0
VERTEX
  5
396
330
F7
100
AcDbEntity
  8
0
 62
   251
100
AcDbFaceRecord
 10
0.0
 20
0.0
 30
0.0
 70
   128
 71
   188
 72
   192
 73
  -191
  0
VERTEX
  5
397
330
F7
100
AcDbEntity
  8
0
 62
   251
100
AcDbFaceRecord
 10
0.0
 20
0.0
 30
0.0
 70
   128
 71
   191
 72
   187
 73
  -188
  0
VERTEX
  5
398
330
F7
100
AcDbEntity
  8
0
 62
   251
100
AcDbFaceRecord
 10
0.0
 20
0.0
 30
0.0
 70
   128
 71
   196
 72
   195
 73
  -194
  0
VERTEX
  5
399
330
F7
100
AcDbEntity
  8
0
 62
   251
100
AcDbFaceRecord
 10
0.0
 20
0.0
 30
0.0
 70
   128
 71
   194
 72
   193
 73
  -196
  0
VERTEX
  5
39A
330
F7
100
AcDbEntity
  8
0
 62
   251
100
AcDbFaceRecord
 10
0.0
 20
0.0
 30
0.0
 70
   128
 71
   195
 72
   198
 73
  -197
  0
VERTEX
  5
39B
330
F7
100
AcDbEntity
  8
0
 62
   251
100
AcDbFaceRecord
 10
0.0
 20
0.0
 30
0.0
 70
   128
 71
   197
 72
   194
 73
  -195
  0
VERTEX
  5
39C
330
F7
100
AcDbEntity
  8
0
 62
   251
100
AcDbFaceRecord
 10
0.0
 20
0.0
 30
0.0
 70
   128
 71
   198
 72
   200
 73
  -199
  0
VERTEX
  5
39D
330
F7
100
AcDbEntity
  8
0
 62
   251
100
AcDbFaceRecord
 10
0.0
 20
0.0
 30
0.0
 70
   128
 71
   199
 72
   197
 73
  -198
  0
VERTEX
  5
39E
330
F7
100
AcDbEntity
  8
0
 62
   251
100
AcDbFaceRecord
 10
0.0
 20
0.0
 30
0.0
 70
   128
 71
   200
 72
   202
 73
  -201
  0
VERTEX
  5
39F
330
F7
100
AcDbEntity
  8
0
 62
   251
100
AcDbFaceRecord
 10
0.0
 20
0.0
 30
0.0
 70
   128
 71
   201
 72
   199
 73
  -200
  0
VERTEX
  5
3A0
330
F7
100
AcDbEntity
  8
0
 62
   251
100
AcDbFaceRecord
 10
0.0
 20
0.0
 30
0.0
 70
   128
 71
   202
 72
   204
 73
  -203
  0
VERTEX
  5
3A1
330
F7
100
AcDbEntity
  8
0
 62
   251
100
AcDbFaceRecord
 10
0.0
 20
0.0
 30
0.0
 70
   128
 71
   203
 72
   201
 73
  -202
  0
VERTEX
  5
3A2
330
F7
100
AcDbEntity
  8
0
 62
   251
100
AcDbFaceRecord
 10
0.0
 20
0.0
 30
0.0
 70
   128
 71
   204
 72
   206
 73
  -205
  0
VERTEX
  5
3A3
330
F7
100
AcDbEntity
  8
0
 62
   251
100
AcDbFaceRecord
 10
0.0
 20
0.0
 30
0.0
 70
   128
 71
   205
 72
   203
 73
  -204
  0
VERTEX
  5
3A4
330
F7
100
AcDbEntity
  8
0
 62
   251
100
AcDbFaceRecord
 10
0.0
 20
0.0
 30
0.0
 70
   128
 71
   206
 72
   208
 73
  -207
  0
VERTEX
  5
3A5
330
F7
100
AcDbEntity
  8
0
 62
   251
100
AcDbFaceRecord
 10
0.0
 20
0.0
 30
0.0
 70
   128
 71
   207
 72
   205
 73
  -206
  0
VERTEX
  5
3A6
330
F7
100
AcDbEntity
  8
0
 62
   251
100
AcDbFaceRecord
 10
0.0
 20
0.0
 30
0.0
 70
   128
 71
   208
 72
   210
 73
  -209
  0
VERTEX
  5
3A7
330
F7
100
AcDbEntity
  8
0
 62
   251
100
AcDbFaceRecord
 10
0.0
 20
0.0
 30
0.0
 70
   128
 71
   209
 72
   207
 73
  -208
  0
VERTEX
  5
3A8
330
F7
100
AcDbEntity
  8
0
 62
   251
100
AcDbFaceRecord
 10
0.0
 20
0.0
 30
0.0
 70
   128
 71
   210
 72
   185
 73
  -186
  0
VERTEX
  5
3A9
330
F7
100
AcDbEntity
  8
0
 62
   251
100
AcDbFaceRecord
 10
0.0
 20
0.0
 30
0.0
 70
   128
 71
   186
 72
   209
 73
  -210
  0
VERTEX
  5
3AA
330
F7
100
AcDbEntity
  8
0
 62
   251
100
AcDbFaceRecord
 10
0.0
 20
0.0
 30
0.0
 70
   128
 71
   214
 72
   213
 73
  -212
  0
VERTEX
  5
3AB
330
F7
100
AcDbEntity
  8
0
 62
   251
100
AcDbFaceRecord
 10
0.0
 20
0.0
 30
0.0
 70
   128
 71
   212
 72
   211
 73
  -214
  0
VERTEX
  5
3AC
330
F7
100
AcDbEntity
  8
0
 62
   251
100
AcDbFaceRecord
 10
0.0
 20
0.0
 30
0.0
 70
   128
 71
   218
 72
   217
 73
  -216
  0
VERTEX
  5
3AD
330
F7
100
AcDbEntity
  8
0
 62
   251
100
AcDbFaceRecord
 10
0.0
 20
0.0
 30
0.0
 70
   128
 71
   216
 72
   215
 73
  -218
  0
VERTEX
  5
3AE
330
F7
100
AcDbEntity
  8
0
 62
   251
100
AcDbFaceRecord
 10
0.0
 20
0.0
 30
0.0
 70
   128
 71
   222
 72
   221
 73
  -220
  0
VERTEX
  5
3AF
330
F7
100
AcDbEntity
  8
0
 62
   251
100
AcDbFaceRecord
 10
0.0
 20
0.0
 30
0.0
 70
   128
 71
   220
 72
   219
 73
  -222
  0
VERTEX
  5
3B0
330
F7
100
AcDbEntity
  8
0
 62
   251
100
AcDbFaceRecord
 10
0.0
 20
0.0
 30
0.0
 70
   128
 71
   227
 72
   226
 73
  -225
  0
VERTEX
  5
3B1
330
F7
100
AcDbEntity
  8
0
 62
   251
100
AcDbFaceRecord
 10
0.0
 20
0.0
 30
0.0
 70
   128
 71
   228
 72
  -227
 73
  -225
  0
VERTEX
  5
3B2
330
F7
100
AcDbEntity
  8
0
 62
   251
100
AcDbFaceRecord
 10
0.0
 20
0.0
 30
0.0
 70
   128
 71
  -228
 72
   225
 73
  -224
  0
VERTEX
  5
3B3
330
F7
100
AcDbEntity
  8
0
 62
   251
100
AcDbFaceRecord
 10
0.0
 20
0.0
 30
0.0
 70
   128
 71
   223
 72
  -228
 73
   224
  0
VERTEX
  5
3B4
330
F7
100
AcDbEntity
  8
0
 62
   251
100
AcDbFaceRecord
 10
0.0
 20
0.0
 30
0.0
 70
   128
 71
   232
 72
   231
 73
  -230
  0
VERTEX
  5
3B5
330
F7
100
AcDbEntity
  8
0
 62
   251
100
AcDbFaceRecord
 10
0.0
 20
0.0
 30
0.0
 70
   128
 71
   230
 72
   229
 73
  -232
  0
VERTEX
  5
3B6
330
F7
100
AcDbEntity
  8
0
 62
   251
100
AcDbFaceRecord
 10
0.0
 20
0.0
 30
0.0
 70
   128
 71
   252
 72
   251
 73
  -250
  0
VERTEX
  5
3B7
330
F7
100
AcDbEntity
  8
0
 62
   251
100
AcDbFaceRecord
 10
0.0
 20
0.0
 30
0.0
 70
   128
 71
   250
 72
   249
 73
  -248
  0
VERTEX
  5
3B8
330
F7
100
AcDbEntity
  8
0
 62
   251
100
AcDbFaceRecord
 10
0.0
 20
0.0
 30
0.0
 70
   128
 71
   248
 72
   247
 73
  -246
  0
VERTEX
  5
3B9
330
F7
100
AcDbEntity
  8
0
 62
   251
100
AcDbFaceRecord
 10
0.0
 20
0.0
 30
0.0
 70
   128
 71
  -250
 72
  -248
 73
  -246
  0
VERTEX
  5
3BA
330
F7
100
AcDbEntity
  8
0
 62
   251
100
AcDbFaceRecord
 10
0.0
 20
0.0
 30
0.0
 70
   128
 71
   246
 72
   245
 73
  -244
  0
VERTEX
  5
3BB
330
F7
100
AcDbEntity
  8
0
 62
   251
100
AcDbFaceRecord
 10
0.0
 20
0.0
 30
0.0
 70
   128
 71
   244
 72
   243
 73
  -242
  0
VERTEX
  5
3BC
330
F7
100
AcDbEntity
  8
0
 62
   251
100
AcDbFaceRecord
 10
0.0
 20
0.0
 30
0.0
 70
   128
 71
  -246
 72
  -244
 73
  -242
  0
VERTEX
  5
3BD
330
F7
100
AcDbEntity
  8
0
 62
   251
100
AcDbFaceRecord
 10
0.0
 20
0.0
 30
0.0
 70
   128
 71
   242
 72
   241
 73
  -240
  0
VERTEX
  5
3BE
330
F7
100
AcDbEntity
  8
0
 62
   251
100
AcDbFaceRecord
 10
0.0
 20
0.0
 30
0.0
 70
   128
 71
   240
 72
   239
 73
  -238
  0
VERTEX
  5
3BF
330
F7
100
AcDbEntity
  8
0
 62
   251
100
AcDbFaceRecord
 10
0.0
 20
0.0
 30
0.0
 70
   128
 71
  -242
 72
  -240
 73
  -238
  0
VERTEX
  5
3C0
330
F7
100
AcDbEntity
  8
0
 62
   251
100
AcDbFaceRecord
 10
0.0
 20
0.0
 30
0.0
 70
   128
 71
   238
 72
   237
 73
  -236
  0
VERTEX
  5
3C1
330
F7
100
AcDbEntity
  8
0
 62
   251
100
AcDbFaceRecord
 10
0.0
 20
0.0
 30
0.0
 70
   128
 71
   236
 72
   235
 73
  -234
  0
VERTEX
  5
3C2
330
F7
100
AcDbEntity
  8
0
 62
   251
100
AcDbFaceRecord
 10
0.0
 20
0.0
 30
0.0
 70
   128
 71
  -238
 72
  -236
 73
  -234
  0
VERTEX
  5
3C3
330
F7
100
AcDbEntity
  8
0
 62
   251
100
AcDbFaceRecord
 10
0.0
 20
0.0
 30
0.0
 70
   128
 71
  -242
 72
  -238
 73
  -234
  0
VERTEX
  5
3C4
330
F7
100
AcDbEntity
  8
0
 62
   251
100
AcDbFaceRecord
 10
0.0
 20
0.0
 30
0.0
 70
   128
 71
  -246
 72
  -242
 73
  -234
  0
VERTEX
  5
3C5
330
F7
100
AcDbEntity
  8
0
 62
   251
100
AcDbFaceRecord
 10
0.0
 20
0.0
 30
0.0
 70
   128
 71
  -250
 72
  -246
 73
  -234
  0
VERTEX
  5
3C6
330
F7
100
AcDbEntity
  8
0
 62
   251
100
AcDbFaceRecord
 10
0.0
 20
0.0
 30
0.0
 70
   128
 71
  -252
 72
  -250
 73
  -234
  0
VERTEX
  5
3C7
330
F7
100
AcDbEntity
  8
0
 62
   251
100
AcDbFaceRecord
 10
0.0
 20
0.0
 30
0.0
 70
   128
 71
   233
 72
  -252
 73
   234
  0
VERTEX
  5
3C8
330
F7
100
AcDbEntity
  8
0
 62
   251
100
AcDbFaceRecord
 10
0.0
 20
0.0
 30
0.0
 70
   128
 71
   166
 72
   167
 73
  -254
  0
VERTEX
  5
3C9
330
F7
100
AcDbEntity
  8
0
 62
   251
100
AcDbFaceRecord
 10
0.0
 20
0.0
 30
0.0
 70
   128
 71
   254
 72
   253
 73
  -166
  0
VERTEX
  5
3CA
330
F7
100
AcDbEntity
  8
0
 62
   251
100
AcDbFaceRecord
 10
0.0
 20
0.0
 30
0.0
 70
   128
 71
   170
 72
   171
 73
  -256
  0
VERTEX
  5
3CB
330
F7
100
AcDbEntity
  8
0
 62
   251
100
AcDbFaceRecord
 10
0.0
 20
0.0
 30
0.0
 70
   128
 71
   256
 72
   255
 73
  -170
  0
VERTEX
  5
3CC
330
F7
100
AcDbEntity
  8
0
 62
   251
100
AcDbFaceRecord
 10
0.0
 20
0.0
 30
0.0
 70
   128
 71
   171
 72
   173
 73
  -257
  0
VERTEX
  5
3CD
330
F7
100
AcDbEntity
  8
0
 62
   251
100
AcDbFaceRecord
 10
0.0
 20
0.0
 30
0.0
 70
   128
 71
   257
 72
   256
 73
  -171
  0
VERTEX
  5
3CE
330
F7
100
AcDbEntity
  8
0
 62
   251
100
AcDbFaceRecord
 10
0.0
 20
0.0
 30
0.0
 70
   128
 71
   173
 72
   175
 73
  -258
  0
VERTEX
  5
3CF
330
F7
100
AcDbEntity
  8
0
 62
   251
100
AcDbFaceRecord
 10
0.0
 20
0.0
 30
0.0
 70
   128
 71
   258
 72
   257
 73
  -173
  0
VERTEX
  5
3D0
330
F7
100
AcDbEntity
  8
0
 62
   251
100
AcDbFaceRecord
 10
0.0
 20
0.0
 30
0.0
 70
   128
 71
   175
 72
   177
 73
  -259
  0
VERTEX
  5
3D1
330
F7
100
AcDbEntity
  8
0
 62
   251
100
AcDbFaceRecord
 10
0.0
 20
0.0
 30
0.0
 70
   128
 71
   259
 72
   258
 73
  -175
  0
VERTEX
  5
3D2
330
F7
100
AcDbEntity
  8
0
 62
   251
100
AcDbFaceRecord
 10
0.0
 20
0.0
 30
0.0
 70
   128
 71
   177
 72
   179
 73
  -260
  0
VERTEX
  5
3D3
330
F7
100
AcDbEntity
  8
0
 62
   251
100
AcDbFaceRecord
 10
0.0
 20
0.0
 30
0.0
 70
   128
 71
   260
 72
   259
 73
  -177
  0
VERTEX
  5
3D4
330
F7
100
AcDbEntity
  8
0
 62
   251
100
AcDbFaceRecord
 10
0.0
 20
0.0
 30
0.0
 70
   128
 71
   179
 72
   181
 73
  -261
  0
VERTEX
  5
3D5
330
F7
100
AcDbEntity
  8
0
 62
   251
100
AcDbFaceRecord
 10
0.0
 20
0.0
 30
0.0
 70
   128
 71
   261
 72
   260
 73
  -179
  0
VERTEX
  5
3D6
330
F7
100
AcDbEntity
  8
0
 62
   251
100
AcDbFaceRecord
 10
0.0
 20
0.0
 30
0.0
 70
   128
 71
   181
 72
   183
 73
  -262
  0
VERTEX
  5
3D7
330
F7
100
AcDbEntity
  8
0
 62
   251
100
AcDbFaceRecord
 10
0.0
 20
0.0
 30
0.0
 70
   128
 71
   262
 72
   261
 73
  -181
  0
VERTEX
  5
3D8
330
F7
100
AcDbEntity
  8
0
 62
   251
100
AcDbFaceRecord
 10
0.0
 20
0.0
 30
0.0
 70
   128
 71
   183
 72
   185
 73
  -263
  0
VERTEX
  5
3D9
330
F7
100
AcDbEntity
  8
0
 62
   251
100
AcDbFaceRecord
 10
0.0
 20
0.0
 30
0.0
 70
   128
 71
   263
 72
   262
 73
  -183
  0
VERTEX
  5
3DA
330
F7
100
AcDbEntity
  8
0
 62
   251
100
AcDbFaceRecord
 10
0.0
 20
0.0
 30
0.0
 70
   128
 71
   189
 72
   265
 73
  -264
  0
VERTEX
  5
3DB
330
F7
100
AcDbEntity
  8
0
 62
   251
100
AcDbFaceRecord
 10
0.0
 20
0.0
 30
0.0
 70
   128
 71
   264
 72
   188
 73
  -189
  0
VERTEX
  5
3DC
330
F7
100
AcDbEntity
  8
0
 62
   251
100
AcDbFaceRecord
 10
0.0
 20
0.0
 30
0.0
 70
   128
 71
   192
 72
   267
 73
  -266
  0
VERTEX
  5
3DD
330
F7
100
AcDbEntity
  8
0
 62
   251
100
AcDbFaceRecord
 10
0.0
 20
0.0
 30
0.0
 70
   128
 71
   266
 72
   196
 73
  -192
  0
VERTEX
  5
3DE
330
F7
100
AcDbEntity
  8
0
 62
   251
100
AcDbFaceRecord
 10
0.0
 20
0.0
 30
0.0
 70
   128
 71
   196
 72
   266
 73
  -268
  0
VERTEX
  5
3DF
330
F7
100
AcDbEntity
  8
0
 62
   251
100
AcDbFaceRecord
 10
0.0
 20
0.0
 30
0.0
 70
   128
 71
   268
 72
   195
 73
  -196
  0
VERTEX
  5
3E0
330
F7
100
AcDbEntity
  8
0
 62
   251
100
AcDbFaceRecord
 10
0.0
 20
0.0
 30
0.0
 70
   128
 71
   195
 72
   268
 73
  -269
  0
VERTEX
  5
3E1
330
F7
100
AcDbEntity
  8
0
 62
   251
100
AcDbFaceRecord
 10
0.0
 20
0.0
 30
0.0
 70
   128
 71
   269
 72
   198
 73
  -195
  0
VERTEX
  5
3E2
330
F7
100
AcDbEntity
  8
0
 62
   251
100
AcDbFaceRecord
 10
0.0
 20
0.0
 30
0.0
 70
   128
 71
   198
 72
   269
 73
  -270
  0
VERTEX
  5
3E3
330
F7
100
AcDbEntity
  8
0
 62
   251
100
AcDbFaceRecord
 10
0.0
 20
0.0
 30
0.0
 70
   128
 71
   270
 72
   200
 73
  -198
  0
VERTEX
  5
3E4
330
F7
100
AcDbEntity
  8
0
 62
   251
100
AcDbFaceRecord
 10
0.0
 20
0.0
 30
0.0
 70
   128
 71
   200
 72
   270
 73
  -271
  0
VERTEX
  5
3E5
330
F7
100
AcDbEntity
  8
0
 62
   251
100
AcDbFaceRecord
 10
0.0
 20
0.0
 30
0.0
 70
   128
 71
   271
 72
   202
 73
  -200
  0
VERTEX
  5
3E6
330
F7
100
AcDbEntity
  8
0
 62
   251
100
AcDbFaceRecord
 10
0.0
 20
0.0
 30
0.0
 70
   128
 71
   202
 72
   271
 73
  -272
  0
VERTEX
  5
3E7
330
F7
100
AcDbEntity
  8
0
 62
   251
100
AcDbFaceRecord
 10
0.0
 20
0.0
 30
0.0
 70
   128
 71
   272
 72
   204
 73
  -202
  0
VERTEX
  5
3E8
330
F7
100
AcDbEntity
  8
0
 62
   251
100
AcDbFaceRecord
 10
0.0
 20
0.0
 30
0.0
 70
   128
 71
   204
 72
   272
 73
  -273
  0
VERTEX
  5
3E9
330
F7
100
AcDbEntity
  8
0
 62
   251
100
AcDbFaceRecord
 10
0.0
 20
0.0
 30
0.0
 70
   128
 71
   273
 72
   206
 73
  -204
  0
VERTEX
  5
3EA
330
F7
100
AcDbEntity
  8
0
 62
   251
100
AcDbFaceRecord
 10
0.0
 20
0.0
 30
0.0
 70
   128
 71
   206
 72
   273
 73
  -274
  0
VERTEX
  5
3EB
330
F7
100
AcDbEntity
  8
0
 62
   251
100
AcDbFaceRecord
 10
0.0
 20
0.0
 30
0.0
 70
   128
 71
   274
 72
   208
 73
  -206
  0
VERTEX
  5
3EC
330
F7
100
AcDbEntity
  8
0
 62
   251
100
AcDbFaceRecord
 10
0.0
 20
0.0
 30
0.0
 70
   128
 71
   208
 72
   274
 73
  -275
  0
VERTEX
  5
3ED
330
F7
100
AcDbEntity
  8
0
 62
   251
100
AcDbFaceRecord
 10
0.0
 20
0.0
 30
0.0
 70
   128
 71
   275
 72
   210
 73
  -208
  0
VERTEX
  5
3EE
330
F7
100
AcDbEntity
  8
0
 62
   251
100
AcDbFaceRecord
 10
0.0
 20
0.0
 30
0.0
 70
   128
 71
   210
 72
   275
 73
  -263
  0
VERTEX
  5
3EF
330
F7
100
AcDbEntity
  8
0
 62
   251
100
AcDbFaceRecord
 10
0.0
 20
0.0
 30
0.0
 70
   128
 71
   263
 72
   185
 73
  -210
  0
VERTEX
  5
3F0
330
F7
100
AcDbEntity
  8
0
 62
   251
100
AcDbFaceRecord
 10
0.0
 20
0.0
 30
0.0
 70
   128
 71
   253
 72
   254
 73
  -228
  0
VERTEX
  5
3F1
330
F7
100
AcDbEntity
  8
0
 62
   251
100
AcDbFaceRecord
 10
0.0
 20
0.0
 30
0.0
 70
   128
 71
   228
 72
   223
 73
  -253
  0
VERTEX
  5
3F2
330
F7
100
AcDbEntity
  8
0
 62
   251
100
AcDbFaceRecord
 10
0.0
 20
0.0
 30
0.0
 70
   128
 71
   255
 72
   256
 73
  -277
  0
VERTEX
  5
3F3
330
F7
100
AcDbEntity
  8
0
 62
   251
100
AcDbFaceRecord
 10
0.0
 20
0.0
 30
0.0
 70
   128
 71
   277
 72
   276
 73
  -255
  0
VERTEX
  5
3F4
330
F7
100
AcDbEntity
  8
0
 62
   251
100
AcDbFaceRecord
 10
0.0
 20
0.0
 30
0.0
 70
   128
 71
   256
 72
   257
 73
  -278
  0
VERTEX
  5
3F5
330
F7
100
AcDbEntity
  8
0
 62
   251
100
AcDbFaceRecord
 10
0.0
 20
0.0
 30
0.0
 70
   128
 71
   278
 72
   277
 73
  -256
  0
VERTEX
  5
3F6
330
F7
100
AcDbEntity
  8
0
 62
   251
100
AcDbFaceRecord
 10
0.0
 20
0.0
 30
0.0
 70
   128
 71
   257
 72
   258
 73
  -279
  0
VERTEX
  5
3F7
330
F7
100
AcDbEntity
  8
0
 62
   251
100
AcDbFaceRecord
 10
0.0
 20
0.0
 30
0.0
 70
   128
 71
   279
 72
   278
 73
  -257
  0
VERTEX
  5
3F8
330
F7
100
AcDbEntity
  8
0
 62
   251
100
AcDbFaceRecord
 10
0.0
 20
0.0
 30
0.0
 70
   128
 71
   258
 72
   259
 73
  -280
  0
VERTEX
  5
3F9
330
F7
100
AcDbEntity
  8
0
 62
   251
100
AcDbFaceRecord
 10
0.0
 20
0.0
 30
0.0
 70
   128
 71
   280
 72
   279
 73
  -258
  0
VERTEX
  5
3FA
330
F7
100
AcDbEntity
  8
0
 62
   251
100
AcDbFaceRecord
 10
0.0
 20
0.0
 30
0.0
 70
   128
 71
   259
 72
   260
 73
  -281
  0
VERTEX
  5
3FB
330
F7
100
AcDbEntity
  8
0
 62
   251
100
AcDbFaceRecord
 10
0.0
 20
0.0
 30
0.0
 70
   128
 71
   281
 72
   280
 73
  -259
  0
VERTEX
  5
3FC
330
F7
100
AcDbEntity
  8
0
 62
   251
100
AcDbFaceRecord
 10
0.0
 20
0.0
 30
0.0
 70
   128
 71
   260
 72
   261
 73
  -282
  0
VERTEX
  5
3FD
330
F7
100
AcDbEntity
  8
0
 62
   251
100
AcDbFaceRecord
 10
0.0
 20
0.0
 30
0.0
 70
   128
 71
   282
 72
   281
 73
  -260
  0
VERTEX
  5
3FE
330
F7
100
AcDbEntity
  8
0
 62
   251
100
AcDbFaceRecord
 10
0.0
 20
0.0
 30
0.0
 70
   128
 71
   261
 72
   262
 73
  -283
  0
VERTEX
  5
3FF
330
F7
100
AcDbEntity
  8
0
 62
   251
100
AcDbFaceRecord
 10
0.0
 20
0.0
 30
0.0
 70
   128
 71
   283
 72
   282
 73
  -261
  0
VERTEX
  5
400
330
F7
100
AcDbEntity
  8
0
 62
   251
100
AcDbFaceRecord
 10
0.0
 20
0.0
 30
0.0
 70
   128
 71
   262
 72
   263
 73
  -284
  0
VERTEX
  5
401
330
F7
100
AcDbEntity
  8
0
 62
   251
100
AcDbFaceRecord
 10
0.0
 20
0.0
 30
0.0
 70
   128
 71
   284
 72
   283
 73
  -262
  0
VERTEX
  5
402
330
F7
100
AcDbEntity
  8
0
 62
   251
100
AcDbFaceRecord
 10
0.0
 20
0.0
 30
0.0
 70
   128
 71
   265
 72
   285
 73
  -226
  0
VERTEX
  5
403
330
F7
100
AcDbEntity
  8
0
 62
   251
100
AcDbFaceRecord
 10
0.0
 20
0.0
 30
0.0
 70
   128
 71
   226
 72
   264
 73
  -265
  0
VERTEX
  5
404
330
F7
100
AcDbEntity
  8
0
 62
   251
100
AcDbFaceRecord
 10
0.0
 20
0.0
 30
0.0
 70
   128
 71
   267
 72
   227
 73
  -286
  0
VERTEX
  5
405
330
F7
100
AcDbEntity
  8
0
 62
   251
100
AcDbFaceRecord
 10
0.0
 20
0.0
 30
0.0
 70
   128
 71
   286
 72
   266
 73
  -267
  0
VERTEX
  5
406
330
F7
100
AcDbEntity
  8
0
 62
   251
100
AcDbFaceRecord
 10
0.0
 20
0.0
 30
0.0
 70
   128
 71
   266
 72
   286
 73
  -287
  0
VERTEX
  5
407
330
F7
100
AcDbEntity
  8
0
 62
   251
100
AcDbFaceRecord
 10
0.0
 20
0.0
 30
0.0
 70
   128
 71
   287
 72
   268
 73
  -266
  0
VERTEX
  5
408
330
F7
100
AcDbEntity
  8
0
 62
   251
100
AcDbFaceRecord
 10
0.0
 20
0.0
 30
0.0
 70
   128
 71
   268
 72
   287
 73
  -288
  0
VERTEX
  5
409
330
F7
100
AcDbEntity
  8
0
 62
   251
100
AcDbFaceRecord
 10
0.0
 20
0.0
 30
0.0
 70
   128
 71
   288
 72
   269
 73
  -268
  0
VERTEX
  5
40A
330
F7
100
AcDbEntity
  8
0
 62
   251
100
AcDbFaceRecord
 10
0.0
 20
0.0
 30
0.0
 70
   128
 71
   269
 72
   288
 73
  -289
  0
VERTEX
  5
40B
330
F7
100
AcDbEntity
  8
0
 62
   251
100
AcDbFaceRecord
 10
0.0
 20
0.0
 30
0.0
 70
   128
 71
   289
 72
   270
 73
  -269
  0
VERTEX
  5
40C
330
F7
100
AcDbEntity
  8
0
 62
   251
100
AcDbFaceRecord
 10
0.0
 20
0.0
 30
0.0
 70
   128
 71
   270
 72
   289
 73
  -290
  0
VERTEX
  5
40D
330
F7
100
AcDbEntity
  8
0
 62
   251
100
AcDbFaceRecord
 10
0.0
 20
0.0
 30
0.0
 70
   128
 71
   290
 72
   271
 73
  -270
  0
VERTEX
  5
40E
330
F7
100
AcDbEntity
  8
0
 62
   251
100
AcDbFaceRecord
 10
0.0
 20
0.0
 30
0.0
 70
   128
 71
   271
 72
   290
 73
  -291
  0
VERTEX
  5
40F
330
F7
100
AcDbEntity
  8
0
 62
   251
100
AcDbFaceRecord
 10
0.0
 20
0.0
 30
0.0
 70
   128
 71
   291
 72
   272
 73
  -271
  0
VERTEX
  5
410
330
F7
100
AcDbEntity
  8
0
 62
   251
100
AcDbFaceRecord
 10
0.0
 20
0.0
 30
0.0
 70
   128
 71
   272
 72
   291
 73
  -292
  0
VERTEX
  5
411
330
F7
100
AcDbEntity
  8
0
 62
   251
100
AcDbFaceRecord
 10
0.0
 20
0.0
 30
0.0
 70
   128
 71
   292
 72
   273
 73
  -272
  0
VERTEX
  5
412
330
F7
100
AcDbEntity
  8
0
 62
   251
100
AcDbFaceRecord
 10
0.0
 20
0.0
 30
0.0
 70
   128
 71
   273
 72
   292
 73
  -293
  0
VERTEX
  5
413
330
F7
100
AcDbEntity
  8
0
 62
   251
100
AcDbFaceRecord
 10
0.0
 20
0.0
 30
0.0
 70
   128
 71
   293
 72
   274
 73
  -273
  0
VERTEX
  5
414
330
F7
100
AcDbEntity
  8
0
 62
   251
100
AcDbFaceRecord
 10
0.0
 20
0.0
 30
0.0
 70
   128
 71
   274
 72
   293
 73
  -294
  0
VERTEX
  5
415
330
F7
100
AcDbEntity
  8
0
 62
   251
100
AcDbFaceRecord
 10
0.0
 20
0.0
 30
0.0
 70
   128
 71
   294
 72
   275
 73
  -274
  0
VERTEX
  5
416
330
F7
100
AcDbEntity
  8
0
 62
   251
100
AcDbFaceRecord
 10
0.0
 20
0.0
 30
0.0
 70
   128
 71
   275
 72
   294
 73
  -284
  0
VERTEX
  5
417
330
F7
100
AcDbEntity
  8
0
 62
   251
100
AcDbFaceRecord
 10
0.0
 20
0.0
 30
0.0
 70
   128
 71
   284
 72
   263
 73
  -275
  0
VERTEX
  5
418
330
F7
100
AcDbEntity
  8
0
 62
   251
100
AcDbFaceRecord
 10
0.0
 20
0.0
 30
0.0
 70
   128
 71
   296
 72
   295
 73
  -223
  0
VERTEX
  5
419
330
F7
100
AcDbEntity
  8
0
 62
   251
100
AcDbFaceRecord
 10
0.0
 20
0.0
 30
0.0
 70
   128
 71
   223
 72
   215
 73
  -296
  0
VERTEX
  5
41A
330
F7
100
AcDbEntity
  8
0
 62
   251
100
AcDbFaceRecord
 10
0.0
 20
0.0
 30
0.0
 70
   128
 71
   213
 72
   222
 73
  -219
  0
VERTEX
  5
41B
330
F7
100
AcDbEntity
  8
0
 62
   251
100
AcDbFaceRecord
 10
0.0
 20
0.0
 30
0.0
 70
   128
 71
   219
 72
   212
 73
  -213
  0
VERTEX
  5
41C
330
F7
100
AcDbEntity
  8
0
 62
   251
100
AcDbFaceRecord
 10
0.0
 20
0.0
 30
0.0
 70
   128
 71
   217
 72
   298
 73
  -297
  0
VERTEX
  5
41D
330
F7
100
AcDbEntity
  8
0
 62
   251
100
AcDbFaceRecord
 10
0.0
 20
0.0
 30
0.0
 70
   128
 71
   297
 72
   216
 73
  -217
  0
VERTEX
  5
41E
330
F7
100
AcDbEntity
  8
0
 62
   251
100
AcDbFaceRecord
 10
0.0
 20
0.0
 30
0.0
 70
   128
 71
   299
 72
   225
 73
  -226
  0
VERTEX
  5
41F
330
F7
100
AcDbEntity
  8
0
 62
   251
100
AcDbFaceRecord
 10
0.0
 20
0.0
 30
0.0
 70
   128
 71
   226
 72
   211
 73
  -299
  0
VERTEX
  5
420
330
F7
100
AcDbEntity
  8
0
 62
   251
100
AcDbFaceRecord
 10
0.0
 20
0.0
 30
0.0
 70
   128
 71
   165
 72
    93
 73
   -87
  0
VERTEX
  5
421
330
F7
100
AcDbEntity
  8
0
 62
   251
100
AcDbFaceRecord
 10
0.0
 20
0.0
 30
0.0
 70
   128
 71
    87
 72
   164
 73
  -165
  0
VERTEX
  5
422
330
F7
100
AcDbEntity
  8
0
 62
   251
100
AcDbFaceRecord
 10
0.0
 20
0.0
 30
0.0
 70
   128
 71
   296
 72
   215
 73
  -216
  0
VERTEX
  5
423
330
F7
100
AcDbEntity
  8
0
 62
   251
100
AcDbFaceRecord
 10
0.0
 20
0.0
 30
0.0
 70
   128
 71
   216
 72
   300
 73
  -296
  0
VERTEX
  5
424
330
F7
100
AcDbEntity
  8
0
 62
   251
100
AcDbFaceRecord
 10
0.0
 20
0.0
 30
0.0
 70
   128
 71
   302
 72
   105
 73
   -88
  0
VERTEX
  5
425
330
F7
100
AcDbEntity
  8
0
 62
   251
100
AcDbFaceRecord
 10
0.0
 20
0.0
 30
0.0
 70
   128
 71
    88
 72
   301
 73
  -302
  0
VERTEX
  5
426
330
F7
100
AcDbEntity
  8
0
 62
   251
100
AcDbFaceRecord
 10
0.0
 20
0.0
 30
0.0
 70
   128
 71
   231
 72
   119
 73
  -142
  0
VERTEX
  5
427
330
F7
100
AcDbEntity
  8
0
 62
   251
100
AcDbFaceRecord
 10
0.0
 20
0.0
 30
0.0
 70
   128
 71
   142
 72
   230
 73
  -231
  0
VERTEX
  5
428
330
F7
100
AcDbEntity
  8
0
 62
   251
100
AcDbFaceRecord
 10
0.0
 20
0.0
 30
0.0
 70
   128
 71
   165
 72
   166
 73
  -253
  0
VERTEX
  5
429
330
F7
100
AcDbEntity
  8
0
 62
   251
100
AcDbFaceRecord
 10
0.0
 20
0.0
 30
0.0
 70
   128
 71
   253
 72
   303
 73
  -165
  0
VERTEX
  5
42A
330
F7
100
AcDbEntity
  8
0
 62
   251
100
AcDbFaceRecord
 10
0.0
 20
0.0
 30
0.0
 70
   128
 71
   303
 72
   253
 73
  -223
  0
VERTEX
  5
42B
330
F7
100
AcDbEntity
  8
0
 62
   251
100
AcDbFaceRecord
 10
0.0
 20
0.0
 30
0.0
 70
   128
 71
   223
 72
   295
 73
  -303
  0
VERTEX
  5
42C
330
F7
100
AcDbEntity
  8
0
 62
   251
100
AcDbFaceRecord
 10
0.0
 20
0.0
 30
0.0
 70
   128
 71
   300
 72
   216
 73
  -297
  0
VERTEX
  5
42D
330
F7
100
AcDbEntity
  8
0
 62
   251
100
AcDbFaceRecord
 10
0.0
 20
0.0
 30
0.0
 70
   128
 71
   297
 72
   301
 73
  -300
  0
VERTEX
  5
42E
330
F7
100
AcDbEntity
  8
0
 62
   251
100
AcDbFaceRecord
 10
0.0
 20
0.0
 30
0.0
 70
   128
 71
   214
 72
   211
 73
  -226
  0
VERTEX
  5
42F
330
F7
100
AcDbEntity
  8
0
 62
   251
100
AcDbFaceRecord
 10
0.0
 20
0.0
 30
0.0
 70
   128
 71
   226
 72
   285
 73
  -214
  0
VERTEX
  5
430
330
F7
100
AcDbEntity
  8
0
 62
   251
100
AcDbFaceRecord
 10
0.0
 20
0.0
 30
0.0
 70
   128
 71
   218
 72
   299
 73
  -304
  0
VERTEX
  5
431
330
F7
100
AcDbEntity
  8
0
 62
   251
100
AcDbFaceRecord
 10
0.0
 20
0.0
 30
0.0
 70
   128
 71
   304
 72
   217
 73
  -218
  0
VERTEX
  5
432
330
F7
100
AcDbEntity
  8
0
 62
   251
100
AcDbFaceRecord
 10
0.0
 20
0.0
 30
0.0
 70
   128
 71
   302
 72
   301
 73
  -297
  0
VERTEX
  5
433
330
F7
100
AcDbEntity
  8
0
 62
   251
100
AcDbFaceRecord
 10
0.0
 20
0.0
 30
0.0
 70
   128
 71
   297
 72
   298
 73
  -302
  0
VERTEX
  5
434
330
F7
100
AcDbEntity
  8
0
 62
   251
100
AcDbFaceRecord
 10
0.0
 20
0.0
 30
0.0
 70
   128
 71
   217
 72
   304
 73
  -220
  0
VERTEX
  5
435
330
F7
100
AcDbEntity
  8
0
 62
   251
100
AcDbFaceRecord
 10
0.0
 20
0.0
 30
0.0
 70
   128
 71
   220
 72
   298
 73
  -217
  0
VERTEX
  5
436
330
F7
100
AcDbEntity
  8
0
 62
   251
100
AcDbFaceRecord
 10
0.0
 20
0.0
 30
0.0
 70
   128
 71
   218
 72
   215
 73
  -223
  0
VERTEX
  5
437
330
F7
100
AcDbEntity
  8
0
 62
   251
100
AcDbFaceRecord
 10
0.0
 20
0.0
 30
0.0
 70
   128
 71
   223
 72
   224
 73
  -218
  0
VERTEX
  5
438
330
F7
100
AcDbEntity
  8
0
 62
   251
100
AcDbFaceRecord
 10
0.0
 20
0.0
 30
0.0
 70
   128
 71
   221
 72
   302
 73
  -298
  0
VERTEX
  5
439
330
F7
100
AcDbEntity
  8
0
 62
   251
100
AcDbFaceRecord
 10
0.0
 20
0.0
 30
0.0
 70
   128
 71
   298
 72
   220
 73
  -221
  0
VERTEX
  5
43A
330
F7
100
AcDbEntity
  8
0
 62
   251
100
AcDbFaceRecord
 10
0.0
 20
0.0
 30
0.0
 70
   128
 71
   299
 72
   218
 73
  -224
  0
VERTEX
  5
43B
330
F7
100
AcDbEntity
  8
0
 62
   251
100
AcDbFaceRecord
 10
0.0
 20
0.0
 30
0.0
 70
   128
 71
   224
 72
   225
 73
  -299
  0
VERTEX
  5
43C
330
F7
100
AcDbEntity
  8
0
 62
   251
100
AcDbFaceRecord
 10
0.0
 20
0.0
 30
0.0
 70
   128
 71
   299
 72
   211
 73
  -212
  0
VERTEX
  5
43D
330
F7
100
AcDbEntity
  8
0
 62
   251
100
AcDbFaceRecord
 10
0.0
 20
0.0
 30
0.0
 70
   128
 71
   212
 72
   304
 73
  -299
  0
VERTEX
  5
43E
330
F7
100
AcDbEntity
  8
0
 62
   251
100
AcDbFaceRecord
 10
0.0
 20
0.0
 30
0.0
 70
   128
 71
   304
 72
   212
 73
  -219
  0
VERTEX
  5
43F
330
F7
100
AcDbEntity
  8
0
 62
   251
100
AcDbFaceRecord
 10
0.0
 20
0.0
 30
0.0
 70
   128
 71
   219
 72
   220
 73
  -304
  0
VERTEX
  5
440
330
F7
100
AcDbEntity
  8
0
 62
   251
100
AcDbFaceRecord
 10
0.0
 20
0.0
 30
0.0
 70
   128
 71
   168
 72
   169
 73
  -170
  0
VERTEX
  5
441
330
F7
100
AcDbEntity
  8
0
 62
   251
100
AcDbFaceRecord
 10
0.0
 20
0.0
 30
0.0
 70
   128
 71
   170
 72
   167
 73
  -168
  0
VERTEX
  5
442
330
F7
100
AcDbEntity
  8
0
 62
   251
100
AcDbFaceRecord
 10
0.0
 20
0.0
 30
0.0
 70
   128
 71
   192
 72
   196
 73
  -193
  0
VERTEX
  5
443
330
F7
100
AcDbEntity
  8
0
 62
   251
100
AcDbFaceRecord
 10
0.0
 20
0.0
 30
0.0
 70
   128
 71
   193
 72
   191
 73
  -192
  0
VERTEX
  5
444
330
F7
100
AcDbEntity
  8
0
 62
   251
100
AcDbFaceRecord
 10
0.0
 20
0.0
 30
0.0
 70
   128
 71
   324
 72
   323
 73
  -322
  0
VERTEX
  5
445
330
F7
100
AcDbEntity
  8
0
 62
   251
100
AcDbFaceRecord
 10
0.0
 20
0.0
 30
0.0
 70
   128
 71
   322
 72
   321
 73
  -320
  0
VERTEX
  5
446
330
F7
100
AcDbEntity
  8
0
 62
   251
100
AcDbFaceRecord
 10
0.0
 20
0.0
 30
0.0
 70
   128
 71
   320
 72
   319
 73
  -318
  0
VERTEX
  5
447
330
F7
100
AcDbEntity
  8
0
 62
   251
100
AcDbFaceRecord
 10
0.0
 20
0.0
 30
0.0
 70
   128
 71
  -322
 72
  -320
 73
  -318
  0
VERTEX
  5
448
330
F7
100
AcDbEntity
  8
0
 62
   251
100
AcDbFaceRecord
 10
0.0
 20
0.0
 30
0.0
 70
   128
 71
   318
 72
   317
 73
  -316
  0
VERTEX
  5
449
330
F7
100
AcDbEntity
  8
0
 62
   251
100
AcDbFaceRecord
 10
0.0
 20
0.0
 30
0.0
 70
   128
 71
   316
 72
   315
 73
  -314
  0
VERTEX
  5
44A
330
F7
100
AcDbEntity
  8
0
 62
   251
100
AcDbFaceRecord
 10
0.0
 20
0.0
 30
0.0
 70
   128
 71
  -318
 72
  -316
 73
  -314
  0
VERTEX
  5
44B
330
F7
100
AcDbEntity
  8
0
 62
   251
100
AcDbFaceRecord
 10
0.0
 20
0.0
 30
0.0
 70
   128
 71
   314
 72
   313
 73
  -312
  0
VERTEX
  5
44C
330
F7
100
AcDbEntity
  8
0
 62
   251
100
AcDbFaceRecord
 10
0.0
 20
0.0
 30
0.0
 70
   128
 71
   312
 72
   311
 73
  -310
  0
VERTEX
  5
44D
330
F7
100
AcDbEntity
  8
0
 62
   251
100
AcDbFaceRecord
 10
0.0
 20
0.0
 30
0.0
 70
   128
 71
  -314
 72
  -312
 73
  -310
  0
VERTEX
  5
44E
330
F7
100
AcDbEntity
  8
0
 62
   251
100
AcDbFaceRecord
 10
0.0
 20
0.0
 30
0.0
 70
   128
 71
   310
 72
   309
 73
  -308
  0
VERTEX
  5
44F
330
F7
100
AcDbEntity
  8
0
 62
   251
100
AcDbFaceRecord
 10
0.0
 20
0.0
 30
0.0
 70
   128
 71
   308
 72
   307
 73
  -306
  0
VERTEX
  5
450
330
F7
100
AcDbEntity
  8
0
 62
   251
100
AcDbFaceRecord
 10
0.0
 20
0.0
 30
0.0
 70
   128
 71
  -310
 72
  -308
 73
  -306
  0
VERTEX
  5
451
330
F7
100
AcDbEntity
  8
0
 62
   251
100
AcDbFaceRecord
 10
0.0
 20
0.0
 30
0.0
 70
   128
 71
  -314
 72
  -310
 73
  -306
  0
VERTEX
  5
452
330
F7
100
AcDbEntity
  8
0
 62
   251
100
AcDbFaceRecord
 10
0.0
 20
0.0
 30
0.0
 70
   128
 71
  -318
 72
  -314
 73
  -306
  0
VERTEX
  5
453
330
F7
100
AcDbEntity
  8
0
 62
   251
100
AcDbFaceRecord
 10
0.0
 20
0.0
 30
0.0
 70
   128
 71
  -322
 72
  -318
 73
  -306
  0
VERTEX
  5
454
330
F7
100
AcDbEntity
  8
0
 62
   251
100
AcDbFaceRecord
 10
0.0
 20
0.0
 30
0.0
 70
   128
 71
  -324
 72
  -322
 73
  -306
  0
VERTEX
  5
455
330
F7
100
AcDbEntity
  8
0
 62
   251
100
AcDbFaceRecord
 10
0.0
 20
0.0
 30
0.0
 70
   128
 71
   305
 72
  -324
 73
   306
  0
VERTEX
  5
456
330
F7
100
AcDbEntity
  8
0
 62
   251
100
AcDbFaceRecord
 10
0.0
 20
0.0
 30
0.0
 70
   128
 71
   252
 72
   232
 73
  -229
  0
VERTEX
  5
457
330
F7
100
AcDbEntity
  8
0
 62
   251
100
AcDbFaceRecord
 10
0.0
 20
0.0
 30
0.0
 70
   128
 71
   229
 72
   251
 73
  -252
  0
VERTEX
  5
458
330
F7
100
AcDbEntity
  8
0
 62
   251
100
AcDbFaceRecord
 10
0.0
 20
0.0
 30
0.0
 70
   128
 71
   167
 72
   170
 73
  -255
  0
VERTEX
  5
459
330
F7
100
AcDbEntity
  8
0
 62
   251
100
AcDbFaceRecord
 10
0.0
 20
0.0
 30
0.0
 70
   128
 71
   255
 72
   254
 73
  -167
  0
VERTEX
  5
45A
330
F7
100
AcDbEntity
  8
0
 62
   251
100
AcDbFaceRecord
 10
0.0
 20
0.0
 30
0.0
 70
   128
 71
   267
 72
   192
 73
  -188
  0
VERTEX
  5
45B
330
F7
100
AcDbEntity
  8
0
 62
   251
100
AcDbFaceRecord
 10
0.0
 20
0.0
 30
0.0
 70
   128
 71
   188
 72
   264
 73
  -267
  0
VERTEX
  5
45C
330
F7
100
AcDbEntity
  8
0
 62
   251
100
AcDbFaceRecord
 10
0.0
 20
0.0
 30
0.0
 70
   128
 71
   254
 72
   255
 73
  -276
  0
VERTEX
  5
45D
330
F7
100
AcDbEntity
  8
0
 62
   251
100
AcDbFaceRecord
 10
0.0
 20
0.0
 30
0.0
 70
   128
 71
   276
 72
   228
 73
  -254
  0
VERTEX
  5
45E
330
F7
100
AcDbEntity
  8
0
 62
   251
100
AcDbFaceRecord
 10
0.0
 20
0.0
 30
0.0
 70
   128
 71
   227
 72
   267
 73
  -264
  0
VERTEX
  5
45F
330
F7
100
AcDbEntity
  8
0
 62
   251
100
AcDbFaceRecord
 10
0.0
 20
0.0
 30
0.0
 70
   128
 71
   264
 72
   226
 73
  -227
  0
VERTEX
  5
460
330
F7
100
AcDbEntity
  8
0
 62
   251
100
AcDbFaceRecord
 10
0.0
 20
0.0
 30
0.0
 70
   128
 71
   231
 72
   232
 73
  -163
  0
VERTEX
  5
461
330
F7
100
AcDbEntity
  8
0
 62
   251
100
AcDbFaceRecord
 10
0.0
 20
0.0
 30
0.0
 70
   128
 71
   163
 72
   164
 73
  -231
  0
VERTEX
  5
462
330
F7
100
AcDbEntity
  8
0
 62
   251
100
AcDbFaceRecord
 10
0.0
 20
0.0
 30
0.0
 70
   128
 71
   232
 72
   252
 73
  -168
  0
VERTEX
  5
463
330
F7
100
AcDbEntity
  8
0
 62
   251
100
AcDbFaceRecord
 10
0.0
 20
0.0
 30
0.0
 70
   128
 71
   168
 72
   163
 73
  -232
  0
VERTEX
  5
464
330
F7
100
AcDbEntity
  8
0
 62
   251
100
AcDbFaceRecord
 10
0.0
 20
0.0
 30
0.0
 70
   128
 71
   252
 72
   233
 73
  -169
  0
VERTEX
  5
465
330
F7
100
AcDbEntity
  8
0
 62
   251
100
AcDbFaceRecord
 10
0.0
 20
0.0
 30
0.0
 70
   128
 71
   169
 72
   168
 73
  -252
  0
VERTEX
  5
466
330
F7
100
AcDbEntity
  8
0
 62
   251
100
AcDbFaceRecord
 10
0.0
 20
0.0
 30
0.0
 70
   128
 71
   169
 72
   233
 73
  -234
  0
VERTEX
  5
467
330
F7
100
AcDbEntity
  8
0
 62
   251
100
AcDbFaceRecord
 10
0.0
 20
0.0
 30
0.0
 70
   128
 71
   234
 72
   172
 73
  -169
  0
VERTEX
  5
468
330
F7
100
AcDbEntity
  8
0
 62
   251
100
AcDbFaceRecord
 10
0.0
 20
0.0
 30
0.0
 70
   128
 71
   234
 72
   235
 73
  -174
  0
VERTEX
  5
469
330
F7
100
AcDbEntity
  8
0
 62
   251
100
AcDbFaceRecord
 10
0.0
 20
0.0
 30
0.0
 70
   128
 71
   174
 72
   172
 73
  -234
  0
VERTEX
  5
46A
330
F7
100
AcDbEntity
  8
0
 62
   251
100
AcDbFaceRecord
 10
0.0
 20
0.0
 30
0.0
 70
   128
 71
   235
 72
   236
 73
  -176
  0
VERTEX
  5
46B
330
F7
100
AcDbEntity
  8
0
 62
   251
100
AcDbFaceRecord
 10
0.0
 20
0.0
 30
0.0
 70
   128
 71
   176
 72
   174
 73
  -235
  0
VERTEX
  5
46C
330
F7
100
AcDbEntity
  8
0
 62
   251
100
AcDbFaceRecord
 10
0.0
 20
0.0
 30
0.0
 70
   128
 71
   236
 72
   237
 73
  -178
  0
VERTEX
  5
46D
330
F7
100
AcDbEntity
  8
0
 62
   251
100
AcDbFaceRecord
 10
0.0
 20
0.0
 30
0.0
 70
   128
 71
   178
 72
   176
 73
  -236
  0
VERTEX
  5
46E
330
F7
100
AcDbEntity
  8
0
 62
   251
100
AcDbFaceRecord
 10
0.0
 20
0.0
 30
0.0
 70
   128
 71
   237
 72
   238
 73
  -180
  0
VERTEX
  5
46F
330
F7
100
AcDbEntity
  8
0
 62
   251
100
AcDbFaceRecord
 10
0.0
 20
0.0
 30
0.0
 70
   128
 71
   180
 72
   178
 73
  -237
  0
VERTEX
  5
470
330
F7
100
AcDbEntity
  8
0
 62
   251
100
AcDbFaceRecord
 10
0.0
 20
0.0
 30
0.0
 70
   128
 71
   238
 72
   239
 73
  -182
  0
VERTEX
  5
471
330
F7
100
AcDbEntity
  8
0
 62
   251
100
AcDbFaceRecord
 10
0.0
 20
0.0
 30
0.0
 70
   128
 71
   182
 72
   180
 73
  -238
  0
VERTEX
  5
472
330
F7
100
AcDbEntity
  8
0
 62
   251
100
AcDbFaceRecord
 10
0.0
 20
0.0
 30
0.0
 70
   128
 71
   239
 72
   240
 73
  -184
  0
VERTEX
  5
473
330
F7
100
AcDbEntity
  8
0
 62
   251
100
AcDbFaceRecord
 10
0.0
 20
0.0
 30
0.0
 70
   128
 71
   184
 72
   182
 73
  -239
  0
VERTEX
  5
474
330
F7
100
AcDbEntity
  8
0
 62
   251
100
AcDbFaceRecord
 10
0.0
 20
0.0
 30
0.0
 70
   128
 71
   240
 72
   241
 73
  -186
  0
VERTEX
  5
475
330
F7
100
AcDbEntity
  8
0
 62
   251
100
AcDbFaceRecord
 10
0.0
 20
0.0
 30
0.0
 70
   128
 71
   186
 72
   184
 73
  -240
  0
VERTEX
  5
476
330
F7
100
AcDbEntity
  8
0
 62
   251
100
AcDbFaceRecord
 10
0.0
 20
0.0
 30
0.0
 70
   128
 71
   241
 72
   242
 73
  -209
  0
VERTEX
  5
477
330
F7
100
AcDbEntity
  8
0
 62
   251
100
AcDbFaceRecord
 10
0.0
 20
0.0
 30
0.0
 70
   128
 71
   209
 72
   186
 73
  -241
  0
VERTEX
  5
478
330
F7
100
AcDbEntity
  8
0
 62
   251
100
AcDbFaceRecord
 10
0.0
 20
0.0
 30
0.0
 70
   128
 71
   209
 72
   242
 73
  -243
  0
VERTEX
  5
479
330
F7
100
AcDbEntity
  8
0
 62
   251
100
AcDbFaceRecord
 10
0.0
 20
0.0
 30
0.0
 70
   128
 71
   243
 72
   207
 73
  -209
  0
VERTEX
  5
47A
330
F7
100
AcDbEntity
  8
0
 62
   251
100
AcDbFaceRecord
 10
0.0
 20
0.0
 30
0.0
 70
   128
 71
   243
 72
   244
 73
  -205
  0
VERTEX
  5
47B
330
F7
100
AcDbEntity
  8
0
 62
   251
100
AcDbFaceRecord
 10
0.0
 20
0.0
 30
0.0
 70
   128
 71
   205
 72
   207
 73
  -243
  0
VERTEX
  5
47C
330
F7
100
AcDbEntity
  8
0
 62
   251
100
AcDbFaceRecord
 10
0.0
 20
0.0
 30
0.0
 70
   128
 71
   244
 72
   245
 73
  -203
  0
VERTEX
  5
47D
330
F7
100
AcDbEntity
  8
0
 62
   251
100
AcDbFaceRecord
 10
0.0
 20
0.0
 30
0.0
 70
   128
 71
   203
 72
   205
 73
  -244
  0
VERTEX
  5
47E
330
F7
100
AcDbEntity
  8
0
 62
   251
100
AcDbFaceRecord
 10
0.0
 20
0.0
 30
0.0
 70
   128
 71
   203
 72
   245
 73
  -246
  0
VERTEX
  5
47F
330
F7
100
AcDbEntity
  8
0
 62
   251
100
AcDbFaceRecord
 10
0.0
 20
0.0
 30
0.0
 70
   128
 71
   246
 72
   201
 73
  -203
  0
VERTEX
  5
480
330
F7
100
AcDbEntity
  8
0
 62
   251
100
AcDbFaceRecord
 10
0.0
 20
0.0
 30
0.0
 70
   128
 71
   246
 72
   247
 73
  -199
  0
VERTEX
  5
481
330
F7
100
AcDbEntity
  8
0
 62
   251
100
AcDbFaceRecord
 10
0.0
 20
0.0
 30
0.0
 70
   128
 71
   199
 72
   201
 73
  -246
  0
VERTEX
  5
482
330
F7
100
AcDbEntity
  8
0
 62
   251
100
AcDbFaceRecord
 10
0.0
 20
0.0
 30
0.0
 70
   128
 71
   247
 72
   248
 73
  -197
  0
VERTEX
  5
483
330
F7
100
AcDbEntity
  8
0
 62
   251
100
AcDbFaceRecord
 10
0.0
 20
0.0
 30
0.0
 70
   128
 71
   197
 72
   199
 73
  -247
  0
VERTEX
  5
484
330
F7
100
AcDbEntity
  8
0
 62
   251
100
AcDbFaceRecord
 10
0.0
 20
0.0
 30
0.0
 70
   128
 71
   248
 72
   249
 73
  -194
  0
VERTEX
  5
485
330
F7
100
AcDbEntity
  8
0
 62
   251
100
AcDbFaceRecord
 10
0.0
 20
0.0
 30
0.0
 70
   128
 71
   194
 72
   197
 73
  -248
  0
VERTEX
  5
486
330
F7
100
AcDbEntity
  8
0
 62
   251
100
AcDbFaceRecord
 10
0.0
 20
0.0
 30
0.0
 70
   128
 71
   249
 72
   250
 73
  -193
  0
VERTEX
  5
487
330
F7
100
AcDbEntity
  8
0
 62
   251
100
AcDbFaceRecord
 10
0.0
 20
0.0
 30
0.0
 70
   128
 71
   193
 72
   194
 73
  -249
  0
VERTEX
  5
488
330
F7
100
AcDbEntity
  8
0
 62
   251
100
AcDbFaceRecord
 10
0.0
 20
0.0
 30
0.0
 70
   128
 71
   250
 72
   251
 73
  -191
  0
VERTEX
  5
489
330
F7
100
AcDbEntity
  8
0
 62
   251
100
AcDbFaceRecord
 10
0.0
 20
0.0
 30
0.0
 70
   128
 71
   191
 72
   193
 73
  -250
  0
VERTEX
  5
48A
330
F7
100
AcDbEntity
  8
0
 62
   251
100
AcDbFaceRecord
 10
0.0
 20
0.0
 30
0.0
 70
   128
 71
   251
 72
   229
 73
  -187
  0
VERTEX
  5
48B
330
F7
100
AcDbEntity
  8
0
 62
   251
100
AcDbFaceRecord
 10
0.0
 20
0.0
 30
0.0
 70
   128
 71
   187
 72
   191
 73
  -251
  0
VERTEX
  5
48C
330
F7
100
AcDbEntity
  8
0
 62
   251
100
AcDbFaceRecord
 10
0.0
 20
0.0
 30
0.0
 70
   128
 71
   229
 72
   230
 73
  -190
  0
VERTEX
  5
48D
330
F7
100
AcDbEntity
  8
0
 62
   251
100
AcDbFaceRecord
 10
0.0
 20
0.0
 30
0.0
 70
   128
 71
   190
 72
   187
 73
  -229
  0
VERTEX
  5
48E
330
F7
100
AcDbEntity
  8
0
 62
   251
100
AcDbFaceRecord
 10
0.0
 20
0.0
 30
0.0
 70
   128
 71
   230
 72
   142
 73
   -90
  0
VERTEX
  5
48F
330
F7
100
AcDbEntity
  8
0
 62
   251
100
AcDbFaceRecord
 10
0.0
 20
0.0
 30
0.0
 70
   128
 71
    90
 72
   190
 73
  -230
  0
VERTEX
  5
490
330
F7
100
AcDbEntity
  8
0
 62
   251
100
AcDbFaceRecord
 10
0.0
 20
0.0
 30
0.0
 70
   128
 71
   322
 72
   323
 73
  -276
  0
VERTEX
  5
491
330
F7
100
AcDbEntity
  8
0
 62
   251
100
AcDbFaceRecord
 10
0.0
 20
0.0
 30
0.0
 70
   128
 71
   276
 72
   277
 73
  -322
  0
VERTEX
  5
492
330
F7
100
AcDbEntity
  8
0
 62
   251
100
AcDbFaceRecord
 10
0.0
 20
0.0
 30
0.0
 70
   128
 71
   276
 72
   323
 73
  -324
  0
VERTEX
  5
493
330
F7
100
AcDbEntity
  8
0
 62
   251
100
AcDbFaceRecord
 10
0.0
 20
0.0
 30
0.0
 70
   128
 71
   324
 72
   228
 73
  -276
  0
VERTEX
  5
494
330
F7
100
AcDbEntity
  8
0
 62
   251
100
AcDbFaceRecord
 10
0.0
 20
0.0
 30
0.0
 70
   128
 71
   324
 72
   305
 73
  -227
  0
VERTEX
  5
495
330
F7
100
AcDbEntity
  8
0
 62
   251
100
AcDbFaceRecord
 10
0.0
 20
0.0
 30
0.0
 70
   128
 71
   227
 72
   228
 73
  -324
  0
VERTEX
  5
496
330
F7
100
AcDbEntity
  8
0
 62
   251
100
AcDbFaceRecord
 10
0.0
 20
0.0
 30
0.0
 70
   128
 71
   305
 72
   306
 73
  -286
  0
VERTEX
  5
497
330
F7
100
AcDbEntity
  8
0
 62
   251
100
AcDbFaceRecord
 10
0.0
 20
0.0
 30
0.0
 70
   128
 71
   286
 72
   227
 73
  -305
  0
VERTEX
  5
498
330
F7
100
AcDbEntity
  8
0
 62
   251
100
AcDbFaceRecord
 10
0.0
 20
0.0
 30
0.0
 70
   128
 71
   286
 72
   306
 73
  -307
  0
VERTEX
  5
499
330
F7
100
AcDbEntity
  8
0
 62
   251
100
AcDbFaceRecord
 10
0.0
 20
0.0
 30
0.0
 70
   128
 71
   307
 72
   287
 73
  -286
  0
VERTEX
  5
49A
330
F7
100
AcDbEntity
  8
0
 62
   251
100
AcDbFaceRecord
 10
0.0
 20
0.0
 30
0.0
 70
   128
 71
   307
 72
   308
 73
  -288
  0
VERTEX
  5
49B
330
F7
100
AcDbEntity
  8
0
 62
   251
100
AcDbFaceRecord
 10
0.0
 20
0.0
 30
0.0
 70
   128
 71
   288
 72
   287
 73
  -307
  0
VERTEX
  5
49C
330
F7
100
AcDbEntity
  8
0
 62
   251
100
AcDbFaceRecord
 10
0.0
 20
0.0
 30
0.0
 70
   128
 71
   308
 72
   309
 73
  -289
  0
VERTEX
  5
49D
330
F7
100
AcDbEntity
  8
0
 62
   251
100
AcDbFaceRecord
 10
0.0
 20
0.0
 30
0.0
 70
   128
 71
   289
 72
   288
 73
  -308
  0
VERTEX
  5
49E
330
F7
100
AcDbEntity
  8
0
 62
   251
100
AcDbFaceRecord
 10
0.0
 20
0.0
 30
0.0
 70
   128
 71
   289
 72
   309
 73
  -310
  0
VERTEX
  5
49F
330
F7
100
AcDbEntity
  8
0
 62
   251
100
AcDbFaceRecord
 10
0.0
 20
0.0
 30
0.0
 70
   128
 71
   310
 72
   290
 73
  -289
  0
VERTEX
  5
4A0
330
F7
100
AcDbEntity
  8
0
 62
   251
100
AcDbFaceRecord
 10
0.0
 20
0.0
 30
0.0
 70
   128
 71
   310
 72
   311
 73
  -291
  0
VERTEX
  5
4A1
330
F7
100
AcDbEntity
  8
0
 62
   251
100
AcDbFaceRecord
 10
0.0
 20
0.0
 30
0.0
 70
   128
 71
   291
 72
   290
 73
  -310
  0
VERTEX
  5
4A2
330
F7
100
AcDbEntity
  8
0
 62
   251
100
AcDbFaceRecord
 10
0.0
 20
0.0
 30
0.0
 70
   128
 71
   311
 72
   312
 73
  -292
  0
VERTEX
  5
4A3
330
F7
100
AcDbEntity
  8
0
 62
   251
100
AcDbFaceRecord
 10
0.0
 20
0.0
 30
0.0
 70
   128
 71
   292
 72
   291
 73
  -311
  0
VERTEX
  5
4A4
330
F7
100
AcDbEntity
  8
0
 62
   251
100
AcDbFaceRecord
 10
0.0
 20
0.0
 30
0.0
 70
   128
 71
   292
 72
   312
 73
  -313
  0
VERTEX
  5
4A5
330
F7
100
AcDbEntity
  8
0
 62
   251
100
AcDbFaceRecord
 10
0.0
 20
0.0
 30
0.0
 70
   128
 71
   313
 72
   293
 73
  -292
  0
VERTEX
  5
4A6
330
F7
100
AcDbEntity
  8
0
 62
   251
100
AcDbFaceRecord
 10
0.0
 20
0.0
 30
0.0
 70
   128
 71
   313
 72
   314
 73
  -294
  0
VERTEX
  5
4A7
330
F7
100
AcDbEntity
  8
0
 62
   251
100
AcDbFaceRecord
 10
0.0
 20
0.0
 30
0.0
 70
   128
 71
   294
 72
   293
 73
  -313
  0
VERTEX
  5
4A8
330
F7
100
AcDbEntity
  8
0
 62
   251
100
AcDbFaceRecord
 10
0.0
 20
0.0
 30
0.0
 70
   128
 71
   314
 72
   315
 73
  -284
  0
VERTEX
  5
4A9
330
F7
100
AcDbEntity
  8
0
 62
   251
100
AcDbFaceRecord
 10
0.0
 20
0.0
 30
0.0
 70
   128
 71
   284
 72
   294
 73
  -314
  0
VERTEX
  5
4AA
330
F7
100
AcDbEntity
  8
0
 62
   251
100
AcDbFaceRecord
 10
0.0
 20
0.0
 30
0.0
 70
   128
 71
   284
 72
   315
 73
  -316
  0
VERTEX
  5
4AB
330
F7
100
AcDbEntity
  8
0
 62
   251
100
AcDbFaceRecord
 10
0.0
 20
0.0
 30
0.0
 70
   128
 71
   316
 72
   283
 73
  -284
  0
VERTEX
  5
4AC
330
F7
100
AcDbEntity
  8
0
 62
   251
100
AcDbFaceRecord
 10
0.0
 20
0.0
 30
0.0
 70
   128
 71
   316
 72
   317
 73
  -282
  0
VERTEX
  5
4AD
330
F7
100
AcDbEntity
  8
0
 62
   251
100
AcDbFaceRecord
 10
0.0
 20
0.0
 30
0.0
 70
   128
 71
   282
 72
   283
 73
  -316
  0
VERTEX
  5
4AE
330
F7
100
AcDbEntity
  8
0
 62
   251
100
AcDbFaceRecord
 10
0.0
 20
0.0
 30
0.0
 70
   128
 71
   317
 72
   318
 73
  -281
  0
VERTEX
  5
4AF
330
F7
100
AcDbEntity
  8
0
 62
   251
100
AcDbFaceRecord
 10
0.0
 20
0.0
 30
0.0
 70
   128
 71
   281
 72
   282
 73
  -317
  0
VERTEX
  5
4B0
330
F7
100
AcDbEntity
  8
0
 62
   251
100
AcDbFaceRecord
 10
0.0
 20
0.0
 30
0.0
 70
   128
 71
   318
 72
   319
 73
  -280
  0
VERTEX
  5
4B1
330
F7
100
AcDbEntity
  8
0
 62
   251
100
AcDbFaceRecord
 10
0.0
 20
0.0
 30
0.0
 70
   128
 71
   280
 72
   281
 73
  -318
  0
VERTEX
  5
4B2
330
F7
100
AcDbEntity
  8
0
 62
   251
100
AcDbFaceRecord
 10
0.0
 20
0.0
 30
0.0
 70
   128
 71
   319
 72
   320
 73
  -279
  0
VERTEX
  5
4B3
330
F7
100
AcDbEntity
  8
0
 62
   251
100
AcDbFaceRecord
 10
0.0
 20
0.0
 30
0.0
 70
   128
 71
   279
 72
   280
 73
  -319
  0
VERTEX
  5
4B4
330
F7
100
AcDbEntity
  8
0
 62
   251
100
AcDbFaceRecord
 10
0.0
 20
0.0
 30
0.0
 70
   128
 71
   320
 72
   321
 73
  -278
  0
VERTEX
  5
4B5
330
F7
100
AcDbEntity
  8
0
 62
   251
100
AcDbFaceRecord
 10
0.0
 20
0.0
 30
0.0
 70
   128
 71
   278
 72
   279
 73
  -320
  0
VERTEX
  5
4B6
330
F7
100
AcDbEntity
  8
0
 62
   251
100
AcDbFaceRecord
 10
0.0
 20
0.0
 30
0.0
 70
   128
 71
   321
 72
   322
 73
  -277
  0
VERTEX
  5
4B7
330
F7
100
AcDbEntity
  8
0
 62
   251
100
AcDbFaceRecord
 10
0.0
 20
0.0
 30
0.0
 70
   128
 71
   277
 72
   278
 73
  -321
  0
VERTEX
  5
4B8
330
F7
100
AcDbEntity
  8
0
 62
   251
100
AcDbFaceRecord
 10
0.0
 20
0.0
 30
0.0
 70
   128
 71
    98
 72
   296
 73
  -300
  0
VERTEX
  5
4B9
330
F7
100
AcDbEntity
  8
0
 62
   251
100
AcDbFaceRecord
 10
0.0
 20
0.0
 30
0.0
 70
   128
 71
   300
 72
    97
 73
   -98
  0
VERTEX
  5
4BA
330
F7
100
AcDbEntity
  8
0
 62
   251
100
AcDbFaceRecord
 10
0.0
 20
0.0
 30
0.0
 70
   128
 71
    95
 72
   303
 73
  -295
  0
VERTEX
  5
4BB
330
F7
100
AcDbEntity
  8
0
 62
   251
100
AcDbFaceRecord
 10
0.0
 20
0.0
 30
0.0
 70
   128
 71
   295
 72
    89
 73
   -95
  0
VERTEX
  5
4BC
330
F7
100
AcDbEntity
  8
0
 62
   251
100
AcDbFaceRecord
 10
0.0
 20
0.0
 30
0.0
 70
   128
 71
    97
 72
   300
 73
  -301
  0
VERTEX
  5
4BD
330
F7
100
AcDbEntity
  8
0
 62
   251
100
AcDbFaceRecord
 10
0.0
 20
0.0
 30
0.0
 70
   128
 71
   301
 72
    88
 73
   -97
  0
VERTEX
  5
4BE
330
F7
100
AcDbEntity
  8
0
 62
   251
100
AcDbFaceRecord
 10
0.0
 20
0.0
 30
0.0
 70
   128
 71
   105
 72
   302
 73
  -221
  0
VERTEX
  5
4BF
330
F7
100
AcDbEntity
  8
0
 62
   251
100
AcDbFaceRecord
 10
0.0
 20
0.0
 30
0.0
 70
   128
 71
   221
 72
   110
 73
  -105
  0
SEQEND
  5
4C0
330
F7
100
AcDbEntity
  8
0
 62
   251
  0
ENDSEC
  0
SECTION
  2
OBJECTS
  0
DICTIONARY
  5
C
330
0
100
AcDbDictionary
281
     1
  3
ACAD_CIP_PREVIOUS_PRODUCT_INFO
350
50C
  3
ACAD_COLOR
350
DC
  3
ACAD_DETAILVIEWSTYLE
350
F5
  3
ACAD_GROUP
350
D
  3
ACAD_LAYOUT
350
1A
  3
ACAD_MATERIAL
350
AA
  3
ACAD_MLEADERSTYLE
350
F1
  3
ACAD_MLINESTYLE
350
17
  3
ACAD_PLOTSETTINGS
350
19
  3
ACAD_PLOTSTYLENAME
350
E
  3
ACAD_SCALELIST
350
DF
  3
ACAD_SECTIONVIEWSTYLE
350
F3
  3
ACAD_TABLESTYLE
350
DD
  3
ACAD_VISUALSTYLE
350
C3
  3
ACDB_RECOMPOSE_DATA
350
55D
  3
AcDbVariableDictionary
350
4FD
  3
DWGPROPS
350
55E
  0
DICTIONARY
  5
50D
330
10
100
AcDbDictionary
280
     1
281
     1
  3
ADSK_XREC_LAYER_RECONCILED
360
50E
  0
DICTIONARY
  5
50F
330
2B
100
AcDbDictionary
280
     1
281
     1
  3
ADSK_XREC_LAYER_RECONCILED
360
510
  0
XRECORD
  5
50C
102
{ACAD_REACTORS
330
C
102
}
330
C
100
AcDbXrecord
280
     1
300
ACDLT
300
2013
300
ACDLT_F_S
  0
DICTIONARY
  5
DC
102
{ACAD_REACTORS
330
C
102
}
330
C
100
AcDbDictionary
281
     1
  0
DICTIONARY
  5
F5
102
{ACAD_REACTORS
330
C
102
}
330
C
100
AcDbDictionary
281
     1
  3
Imperial24
350
F6
  0
DICTIONARY
  5
D
102
{ACAD_REACTORS
330
C
102
}
330
C
100
AcDbDictionary
281
     1
  0
DICTIONARY
  5
1A
102
{ACAD_REACTORS
330
C
102
}
330
C
100
AcDbDictionary
281
     1
  3
Layout1
350
1E
  3
Layout2
350
26
  3
Model
350
22
  0
DICTIONARY
  5
AA
102
{ACAD_REACTORS
330
C
102
}
330
C
100
AcDbDictionary
281
     1
  3
ByBlock
350
B3
  3
ByLayer
350
AB
  3
Global
350
BB
  0
DICTIONARY
  5
F1
102
{ACAD_REACTORS
330
C
102
}
330
C
100
AcDbDictionary
281
     1
  3
Standard
350
F2
  0
DICTIONARY
  5
17
102
{ACAD_REACTORS
330
C
102
}
330
C
100
AcDbDictionary
281
     1
  3
Standard
350
18
  0
DICTIONARY
  5
19
102
{ACAD_REACTORS
330
C
102
}
330
C
100
AcDbDictionary
281
     1
  0
ACDBDICTIONARYWDFLT
  5
E
102
{ACAD_REACTORS
330
C
102
}
330
C
100
AcDbDictionary
281
     1
  3
ByLayer
350
2D
  3
Normal
350
F
100
AcDbDictionaryWithDefault
340
F
  0
DICTIONARY
  5
DF
102
{ACAD_REACTORS
330
C
102
}
330
C
100
AcDbDictionary
281
     1
  3
A0
350
E0
  3
A1
350
E1
  3
A2
350
E2
  3
A3
350
E3
  3
A4
350
E4
  3
A5
350
E5
  3
A6
350
E6
  3
A7
350
E7
  3
A8
350
E8
  3
A9
350
E9
  3
B0
350
EA
  3
B1
350
EB
  3
B2
350
EC
  3
B3
350
ED
  3
B4
350
EE
  3
B5
350
EF
  3
B6
350
F0
  0
DICTIONARY
  5
F3
102
{ACAD_REACTORS
330
C
102
}
330
C
100
AcDbDictionary
281
     1
  3
Imperial24
350
F4
  0
DICTIONARY
  5
DD
102
{ACAD_REACTORS
330
C
102
}
330
C
100
AcDbDictionary
281
     1
  3
Standard
350
DE
  0
DICTIONARY
  5
C3
102
{ACAD_REACTORS
330
C
102
}
330
C
100
AcDbDictionary
281
     1
  3
2dWireframe
350
C9
  3
Basic
350
C8
  3
Brighten
350
CF
  3
ColorChange
350
D3
  3
Conceptual
350
CC
  3
Dim
350
CE
  3
EdgeColorOff
350
DB
  3
Facepattern
350
D2
  3
Flat
350
C4
  3
FlatWithEdges
350
C5
  3
Gouraud
350
C6
  3
GouraudWithEdges
350
C7
  3
Hidden
350
CB
  3
JitterOff
350
D9
  3
Linepattern
350
D1
  3
OverhangOff
350
DA
  3
Realistic
350
CD
  3
Shaded
350
D8
  3
Shaded with edges
350
D7
  3
Shades of Gray
350
D4
  3
Sketchy
350
D5
  3
Thicken
350
D0
  3
Wireframe
350
CA
  3
X-Ray
350
D6
  0
XRECORD
  5
55D
102
{ACAD_REACTORS
330
C
102
}
330
C
100
AcDbXrecord
280
     1
 90
        1
330
DE
  0
DICTIONARY
  5
4FD
102
{ACAD_REACTORS
330
C
102
}
330
C
100
AcDbDictionary
281
     1
  3
CANNOSCALE
350
503
  3
CMLEADERSTYLE
350
4FF
  3
CTABLESTYLE
350
4FE
  3
CVIEWDETAILSTYLE
350
500
  3
CVIEWSECTIONSTYLE
350
501
  3
DIMASSOC
350
55A
  3
INDEXCTL
350
559
  3
LAYEREVAL
350
505
  3
LAYERNOTIFY
350
506
  3
LIGHTINGUNITS
350
504
  3
MSLTSCALE
350
502
  3
SORTENTS
350
558
  3
XCLIPFRAME
350
55B
  0
XRECORD
  5
55E
102
{ACAD_REACTORS
330
C
102
}
330
C
100
AcDbXrecord
280
     1
  1
DWGPROPS COOKIE
  2

  3

  4

  6

  7

  8
mattp
  9

300
=
301
=
302
=
303
=
304
=
305
=
306
=
307
=
308
=
309
=
 40
0.0088464930555556
 41
2451380.638765729
 42
2456772.431933935
  1

 90
        0
  0
XRECORD
  5
50E
102
{ACAD_REACTORS
330
50D
102
}
330
50D
100
AcDbXrecord
280
     1
290
     1
  0
XRECORD
  5
510
102
{ACAD_REACTORS
330
50F
102
}
330
50F
100
AcDbXrecord
280
     1
290
     1
  0
ACDBDETAILVIEWSTYLE
  5
F6
102
{ACAD_XDICTIONARY
360
4FB
102
}
102
{ACAD_REACTORS
330
F5
102
}
330
F5
100
AcDbModelDocViewStyle
 70
     0
  3
Imperial24
290
     0
100
AcDbDetailViewStyle
 70
     0
 71
     0
 90
        3
 71
     1
340
11
 40
0.24
340
0
 40
0.24
300

 40
0.36
280
     3
 71
     2
340
16
 90
       25
 71
     3
340
11
 40
0.24
 90
        1
 40
0.75
 90
        1
300
%<\AcVar ViewType \f "%tc1">% %<\AcVar ViewDetailId>%\PSCALE %<\AcVar ViewScale \f "%sn">%
 71
     4
340
16
 90
       25
340
16
 90
       25
280
     0
  0
LAYOUT
  5
1E
102
{ACAD_XDICTIONARY
360
55F
102
}
102
{ACAD_REACTORS
330
1A
102
}
330
1A
100
AcDbPlotSettings
  1

  2
\\KTXNTBDC\CASF2PN1
  4

  6

 40
0.0
 41
0.0
 42
0.0
 43
0.0
 44
0.0
 45
0.0
 46
0.0
 47
0.0
 48
0.0
 49
0.0
140
0.0
141
0.0
142
1.0
143
1.0
 70
   688
 72
     0
 73
     0
 74
     5
  7

 75
    16
147
1.0
148
0.0
149
0.0
100
AcDbLayout
  1
Layout1
 70
     1
 71
     1
 10
0.0
 20
0.0
 11
12.0
 21
9.0
 12
0.0
 22
0.0
 32
0.0
 14
1.000000000000000E+20
 24
1.000000000000000E+20
 34
1.000000000000000E+20
 15
-1.000000000000000E+20
 25
-1.000000000000000E+20
 35
-1.000000000000000E+20
146
0.0
 13
0.0
 23
0.0
 33
0.0
 16
1.0
 26
0.0
 36
0.0
 17
0.0
 27
1.0
 37
0.0
 76
     0
330
1B
  0
LAYOUT
  5
26
102
{ACAD_XDICTIONARY
360
563
102
}
102
{ACAD_REACTORS
330
1A
102
}
330
1A
100
AcDbPlotSettings
  1

  2
\\KTXNTBDC\CASF2PN1
  4

  6

 40
0.0
 41
0.0
 42
0.0
 43
0.0
 44
0.0
 45
0.0
 46
0.0
 47
0.0
 48
0.0
 49
0.0
140
0.0
141
0.0
142
1.0
143
1.0
 70
   688
 72
     0
 73
     0
 74
     5
  7

 75
    16
147
1.0
148
0.0
149
0.0
100
AcDbLayout
  1
Layout2
 70
     1
 71
     2
 10
0.0
 20
0.0
 11
12.0
 21
9.0
 12
0.0
 22
0.0
 32
0.0
 14
0.0
 24
0.0
 34
0.0
 15
0.0
 25
0.0
 35
0.0
146
0.0
 13
0.0
 23
0.0
 33
0.0
 16
1.0
 26
0.0
 36
0.0
 17
0.0
 27
1.0
 37
0.0
 76
     0
330
23
  0
LAYOUT
  5
22
102
{ACAD_XDICTIONARY
360
561
102
}
102
{ACAD_REACTORS
330
1A
102
}
330
1A
100
AcDbPlotSettings
  1

  2
\\KTXNTBDC\CASF2PN1
  4

  6

 40
0.0
 41
0.0
 42
0.0
 43
0.0
 44
0.0
 45
0.0
 46
0.0
 47
0.0
 48
0.0
 49
0.0
140
0.0
141
0.0
142
1.0
143
1.0
 70
  1712
 72
     0
 73
     0
 74
     0
  7

 75
     0
147
1.0
148
0.0
149
0.0
100
AcDbLayout
  1
Model
 70
     1
 71
     0
 10
0.0
 20
0.0
 11
12.0
 21
9.0
 12
0.0
 22
0.0
 32
0.0
 14
0.0
 24
0.0
 34
0.0
 15
0.0
 25
0.0
 35
0.0
146
0.0
 13
0.0
 23
0.0
 33
0.0
 16
1.0
 26
0.0
 36
0.0
 17
0.0
 27
1.0
 37
0.0
 76
     0
330
1F
331
A8
  0
MATERIAL
  5
B3
102
{ACAD_XDICTIONARY
360
B4
102
}
102
{ACAD_REACTORS
330
AA
102
}
330
AA
100
AcDbMaterial
  1
ByBlock
 72
     0
 43
0.0208333333333333
 43
0.0
 43
0.0
 43
0.0
 43
0.0
 43
0.0208333333333333
 43
0.0
 43
0.0
 43
0.0
 43
0.0
 43
1.0
 43
0.0
 43
0.0
 43
0.0
 43
0.0
 43
1.0
 77
     0
 47
0.0208333333333333
 47
0.0
 47
0.0
 47
0.0
 47
0.0
 47
0.0208333333333333
 47
0.0
 47
0.0
 47
0.0
 47
0.0
 47
1.0
 47
0.0
 47
0.0
 47
0.0
 47
0.0
 47
1.0
171
     0
 49
0.0208333333333333
 49
0.0
 49
0.0
 49
0.0
 49
0.0
 49
0.0208333333333333
 49
0.0
 49
0.0
 49
0.0
 49
0.0
 49
1.0
 49
0.0
 49
0.0
 49
0.0
 49
0.0
 49
1.0
175
     0
142
0.0208333333333333
142
0.0
142
0.0
142
0.0
142
0.0
142
0.0208333333333333
142
0.0
142
0.0
142
0.0
142
0.0
142
1.0
142
0.0
142
0.0
142
0.0
142
0.0
142
1.0
179
     0
144
0.0208333333333333
144
0.0
144
0.0
144
0.0
144
0.0
144
0.0208333333333333
144
0.0
144
0.0
144
0.0
144
0.0
144
1.0
144
0.0
144
0.0
144
0.0
144
0.0
144
1.0
147
0.0208333333333333
147
0.0
147
0.0
147
0.0
147
0.0
147
0.0208333333333333
147
0.0
147
0.0
147
0.0
147
0.0
147
1.0
147
0.0
147
0.0
147
0.0
147
0.0
147
1.0
  0
MATERIAL
  5
AB
102
{ACAD_XDICTIONARY
360
AC
102
}
102
{ACAD_REACTORS
330
AA
102
}
330
AA
100
AcDbMaterial
  1
ByLayer
 72
     0
 43
0.0208333333333333
 43
0.0
 43
0.0
 43
0.0
 43
0.0
 43
0.0208333333333333
 43
0.0
 43
0.0
 43
0.0
 43
0.0
 43
1.0
 43
0.0
 43
0.0
 43
0.0
 43
0.0
 43
1.0
 77
     0
 47
0.0208333333333333
 47
0.0
 47
0.0
 47
0.0
 47
0.0
 47
0.0208333333333333
 47
0.0
 47
0.0
 47
0.0
 47
0.0
 47
1.0
 47
0.0
 47
0.0
 47
0.0
 47
0.0
 47
1.0
171
     0
 49
0.0208333333333333
 49
0.0
 49
0.0
 49
0.0
 49
0.0
 49
0.0208333333333333
 49
0.0
 49
0.0
 49
0.0
 49
0.0
 49
1.0
 49
0.0
 49
0.0
 49
0.0
 49
0.0
 49
1.0
175
     0
142
0.0208333333333333
142
0.0
142
0.0
142
0.0
142
0.0
142
0.0208333333333333
142
0.0
142
0.0
142
0.0
142
0.0
142
1.0
142
0.0
142
0.0
142
0.0
142
0.0
142
1.0
179
     0
144
0.0208333333333333
144
0.0
144
0.0
144
0.0
144
0.0
144
0.0208333333333333
144
0.0
144
0.0
144
0.0
144
0.0
144
1.0
144
0.0
144
0.0
144
0.0
144
0.0
144
1.0
147
0.0208333333333333
147
0.0
147
0.0
147
0.0
147
0.0
147
0.0208333333333333
147
0.0
147
0.0
147
0.0
147
0.0
147
1.0
147
0.0
147
0.0
147
0.0
147
0.0
147
1.0
  0
MATERIAL
  5
BB
102
{ACAD_XDICTIONARY
360
BC
102
}
102
{ACAD_REACTORS
330
AA
102
}
330
AA
100
AcDbMaterial
  1
Global
 72
     0
 43
0.0208333333333333
 43
0.0
 43
0.0
 43
0.0
 43
0.0
 43
0.0208333333333333
 43
0.0
 43
0.0
 43
0.0
 43
0.0
 43
1.0
 43
0.0
 43
0.0
 43
0.0
 43
0.0
 43
1.0
 77
     0
 47
0.0208333333333333
 47
0.0
 47
0.0
 47
0.0
 47
0.0
 47
0.0208333333333333
 47
0.0
 47
0.0
 47
0.0
 47
0.0
 47
1.0
 47
0.0
 47
0.0
 47
0.0
 47
0.0
 47
1.0
171
     0
 49
0.0208333333333333
 49
0.0
 49
0.0
 49
0.0
 49
0.0
 49
0.0208333333333333
 49
0.0
 49
0.0
 49
0.0
 49
0.0
 49
1.0
 49
0.0
 49
0.0
 49
0.0
 49
0.0
 49
1.0
175
     0
142
0.0208333333333333
142
0.0
142
0.0
142
0.0
142
0.0
142
0.0208333333333333
142
0.0
142
0.0
142
0.0
142
0.0
142
1.0
142
0.0
142
0.0
142
0.0
142
0.0
142
1.0
179
     0
144
0.0208333333333333
144
0.0
144
0.0
144
0.0
144
0.0
144
0.0208333333333333
144
0.0
144
0.0
144
0.0
144
0.0
144
1.0
144
0.0
144
0.0
144
0.0
144
0.0
144
1.0
147
0.0208333333333333
147
0.0
147
0.0
147
0.0
147
0.0
147
0.0208333333333333
147
0.0
147
0.0
147
0.0
147
0.0
147
1.0
147
0.0
147
0.0
147
0.0
147
0.0
147
1.0
  0
MLEADERSTYLE
  5
F2
102
{ACAD_XDICTIONARY
360
599
102
}
102
{ACAD_REACTORS
330
F1
102
}
330
F1
100
AcDbMLeaderStyle
170
     2
171
     1
172
     0
 90
        2
 40
0.0
 41
0.0
173
     1
 91
-1056964608
340
14
 92
       -2
290
     1
 42
0.09
291
     1
 43
0.36
  3
Standard
 44
0.18
300

342
11
174
     1
178
     6
175
     1
176
     0
 93
-1056964608
 45
0.18
292
     0
297
     0
 46
0.18
 94
-1056964608
 47
1.0
 49
1.0
140
1.0
293
     1
141
0.0
294
     1
177
     0
142
1.0
295
     0
296
     0
143
0.125
1001
ACAD_MLEADERVER
1070
     2
  0
MLINESTYLE
  5
18
102
{ACAD_REACTORS
330
17
102
}
330
17
100
AcDbMlineStyle
  2
STANDARD
 70
     0
  3

 62
   256
 51
90.0
 52
90.0
 71
     2
 49
0.5
 62
   256
  6
BYLAYER
 49
-0.5
 62
   256
  6
BYLAYER
  0
ACDBPLACEHOLDER
  5
2D
102
{ACAD_REACTORS
330
E
102
}
330
E
  0
ACDBPLACEHOLDER
  5
F
102
{ACAD_REACTORS
330
E
102
}
330
E
  0
SCALE
  5
E0
102
{ACAD_REACTORS
330
DF
102
}
330
DF
100
AcDbScale
 70
     0
300
1:1
140
1.0
141
1.0
290
     1
  0
SCALE
  5
E1
102
{ACAD_REACTORS
330
DF
102
}
330
DF
100
AcDbScale
 70
     0
300
1/128" = 1'-0"
140
0.0078125
141
12.0
290
     0
  0
SCALE
  5
E2
102
{ACAD_REACTORS
330
DF
102
}
330
DF
100
AcDbScale
 70
     0
300
1/64" = 1'-0"
140
0.015625
141
12.0
290
     0
  0
SCALE
  5
E3
102
{ACAD_REACTORS
330
DF
102
}
330
DF
100
AcDbScale
 70
     0
300
1/32" = 1'-0"
140
0.03125
141
12.0
290
     0
  0
SCALE
  5
E4
102
{ACAD_REACTORS
330
DF
102
}
330
DF
100
AcDbScale
 70
     0
300
1/16" = 1'-0"
140
0.0625
141
12.0
290
     0
  0
SCALE
  5
E5
102
{ACAD_REACTORS
330
DF
102
}
330
DF
100
AcDbScale
 70
     0
300
3/32" = 1'-0"
140
0.09375
141
12.0
290
     0
  0
SCALE
  5
E6
102
{ACAD_REACTORS
330
DF
102
}
330
DF
100
AcDbScale
 70
     0
300
1/8" = 1'-0"
140
0.125
141
12.0
290
     0
  0
SCALE
  5
E7
102
{ACAD_REACTORS
330
DF
102
}
330
DF
100
AcDbScale
 70
     0
300
3/16" = 1'-0"
140
0.1875
141
12.0
290
     0
  0
SCALE
  5
E8
102
{ACAD_REACTORS
330
DF
102
}
330
DF
100
AcDbScale
 70
     0
300
1/4" = 1'-0"
140
0.25
141
12.0
290
     0
  0
SCALE
  5
E9
102
{ACAD_REACTORS
330
DF
102
}
330
DF
100
AcDbScale
 70
     0
300
3/8" = 1'-0"
140
0.375
141
12.0
290
     0
  0
SCALE
  5
EA
102
{ACAD_REACTORS
330
DF
102
}
330
DF
100
AcDbScale
 70
     0
300
1/2" = 1'-0"
140
0.5
141
12.0
290
     0
  0
SCALE
  5
EB
102
{ACAD_REACTORS
330
DF
102
}
330
DF
100
AcDbScale
 70
     0
300
3/4" = 1'-0"
140
0.75
141
12.0
290
     0
  0
SCALE
  5
EC
102
{ACAD_REACTORS
330
DF
102
}
330
DF
100
AcDbScale
 70
     0
300
1" = 1'-0"
140
1.0
141
12.0
290
     0
  0
SCALE
  5
ED
102
{ACAD_REACTORS
330
DF
102
}
330
DF
100
AcDbScale
 70
     0
300
1-1/2" = 1'-0"
140
1.5
141
12.0
290
     0
  0
SCALE
  5
EE
102
{ACAD_REACTORS
330
DF
102
}
330
DF
100
AcDbScale
 70
     0
300
3" = 1'-0"
140
3.0
141
12.0
290
     0
  0
SCALE
  5
EF
102
{ACAD_REACTORS
330
DF
102
}
330
DF
100
AcDbScale
 70
     0
300
6" = 1'-0"
140
6.0
141
12.0
290
     0
  0
SCALE
  5
F0
102
{ACAD_REACTORS
330
DF
102
}
330
DF
100
AcDbScale
 70
     0
300
1'-0" = 1'-0"
140
12.0
141
12.0
290
     0
  0
ACDBSECTIONVIEWSTYLE
  5
F4
102
{ACAD_XDICTIONARY
360
4F9
102
}
102
{ACAD_REACTORS
330
F3
102
}
330
F3
100
AcDbModelDocViewStyle
 70
     0
  3
Imperial24
290
     0
100
AcDbSectionViewStyle
 70
     0
 71
     0
 90
       78
 71
     1
340
11
 40
0.24
340
0
340
0
 40
0.24
300
I, O, Q, S, X, Z
 40
0.48
 90
        3
 40
0.18
 90
        1
 71
     2
340
16
 90
       25
340
16
 90
       50
 40
0.24
 40
0.0
 40
0.24
 71
     3
340
11
 40
0.24
 90
        1
 40
0.75
 90
        1
300
%<\AcVar ViewType \f "%tc1">% %<\AcVar ViewSectionStartId>%-%<\AcVar ViewSectionEndId>%\PSCALE %<\AcVar ViewScale \f "%sn">%
 71
     4
300
ANSI31
 40
1.0
 90
        0
290
     0
290
     0
 90
        6
 40
0.0
 40
1.570796326794896
 40
0.2617993877991494
 40
1.308996938995747
 40
-0.2617993877991494
 40
1.832595714594046
  0
TABLESTYLE
  5
DE
102
{ACAD_XDICTIONARY
360
4C1
102
}
102
{ACAD_REACTORS
330
DD
102
}
330
DD
100
AcDbTableStyle
  3
Standard
 70
     0
 71
     0
 40
0.06
 41
0.06
280
     0
281
     0
  7
Standard
140
0.18
170
     2
 62
     0
 63
     7
283
     0
274
    -2
284
     1
 64
     0
275
    -2
285
     1
 65
     0
276
    -2
286
     1
 66
     0
277
    -2
287
     1
 67
     0
278
    -2
288
     1
 68
     0
279
    -2
289
     1
 69
     0
  7
Standard
140
0.25
170
     5
 62
     0
 63
     7
283
     0
274
    -2
284
     1
 64
     0
275
    -2
285
     1
 65
     0
276
    -2
286
     1
 66
     0
277
    -2
287
     1
 67
     0
278
    -2
288
     1
 68
     0
279
    -2
289
     1
 69
     0
  7
Standard
140
0.18
170
     5
 62
     0
 63
     7
283
     0
274
    -2
284
     1
 64
     0
275
    -2
285
     1
 65
     0
276
    -2
286
     1
 66
     0
277
    -2
287
     1
 67
     0
278
    -2
288
     1
 68
     0
279
    -2
289
     1
 69
     0
  0
VISUALSTYLE
  5
C9
102
{ACAD_XDICTIONARY
360
572
102
}
102
{ACAD_REACTORS
330
C3
102
}
330
C3
100
AcDbVisualStyle
  2
2dWireframe
 70
     4
 71
     0
 72
     2
 73
     0
 90
        0
 40
-0.6
 41
-30.0
 62
     5
 63
     7
 74
     1
 91
        4
 64
     7
 65
   257
 75
     1
175
     1
 42
1.0
 92
        0
 66
   257
 43
1.0
 76
     1
 77
     6
 78
     2
 67
     7
 79
     5
170
     0
171
     0
290
     0
174
     0
 93
        1
 44
0.0
173
     0
291
     0
 45
0.0
1001
ACAD
1000
AcDbSavedByObjectVersion
1070
     0
  0
VISUALSTYLE
  5
C8
102
{ACAD_XDICTIONARY
360
570
102
}
102
{ACAD_REACTORS
330
C3
102
}
330
C3
100
AcDbVisualStyle
  2
Basic
 70
     7
 71
     1
 72
     0
 73
     1
 90
        0
 40
-0.6
 41
-30.0
 62
     5
 63
     7
 74
     0
 91
        4
 64
     7
 65
   257
 75
     1
175
     1
 42
1.0
 92
        8
 66
     7
 43
1.0
 76
     1
 77
     6
 78
     2
 67
     7
 79
     5
170
     0
171
     0
290
     0
174
     0
 93
        1
 44
0.0
173
     0
291
     1
 45
0.0
1001
ACAD
1000
AcDbSavedByObjectVersion
1070
     0
  0
VISUALSTYLE
  5
CF
102
{ACAD_XDICTIONARY
360
57E
102
}
102
{ACAD_REACTORS
330
C3
102
}
330
C3
100
AcDbVisualStyle
  2
Brighten
 70
    12
 71
     2
 72
     2
 73
     0
 90
        0
 40
-0.6
 41
-30.0
 62
     5
 63
     7
 74
     1
 91
        4
 64
     7
 65
   257
 75
     1
175
     1
 42
1.0
 92
        8
 66
     7
 43
1.0
 76
     1
 77
     6
 78
     2
 67
     7
 79
     5
170
     0
171
     0
290
     0
174
     0
 93
        1
 44
50.0
173
     0
291
     1
 45
0.0
1001
ACAD
1000
AcDbSavedByObjectVersion
1070
     0
  0
VISUALSTYLE
  5
D3
102
{ACAD_XDICTIONARY
360
586
102
}
102
{ACAD_REACTORS
330
C3
102
}
330
C3
100
AcDbVisualStyle
  2
ColorChange
 70
    16
 71
     2
 72
     2
 73
     3
 90
        0
 40
-0.6
 41
-30.0
 62
     5
 63
     8
 74
     1
 91
        4
 64
     7
 65
   257
 75
     1
175
     1
 42
1.0
 92
        8
 66
     8
 43
1.0
 76
     1
 77
     6
 78
     2
 67
     7
 79
     5
170
     0
171
     0
290
     0
174
     0
 93
        1
 44
0.0
173
     0
291
     1
 45
0.0
1001
ACAD
1000
AcDbSavedByObjectVersion
1070
     0
  0
VISUALSTYLE
  5
CC
102
{ACAD_XDICTIONARY
360
578
102
}
102
{ACAD_REACTORS
330
C3
102
}
330
C3
100
AcDbVisualStyle
  2
Conceptual
 70
     9
 71
     3
 72
     2
 73
     0
 90
        0
 40
-0.6
 41
-30.0
 62
     5
 63
     7
 74
     2
 91
        2
 64
     7
 65
   257
 75
     1
175
     1
 42
179.0
 92
        8
 66
     7
 43
1.0
 76
     1
 77
     6
 78
     2
 67
     7
 79
     3
170
     0
171
     0
290
     0
174
     0
 93
        1
 44
0.0
173
     0
291
     0
 45
0.0
1001
ACAD
1000
AcDbSavedByObjectVersion
1070
     0
  0
VISUALSTYLE
  5
CE
102
{ACAD_XDICTIONARY
360
57C
102
}
102
{ACAD_REACTORS
330
C3
102
}
330
C3
100
AcDbVisualStyle
  2
Dim
 70
    11
 71
     2
 72
     2
 73
     0
 90
        0
 40
-0.6
 41
-30.0
 62
     5
 63
     7
 74
     1
 91
        4
 64
     7
 65
   257
 75
     1
175
     1
 42
1.0
 92
        8
 66
     7
 43
1.0
 76
     1
 77
     6
 78
     2
 67
     7
 79
     5
170
     0
171
     0
290
     0
174
     0
 93
        1
 44
-50.0
173
     0
291
     1
 45
0.0
1001
ACAD
1000
AcDbSavedByObjectVersion
1070
     0
  0
VISUALSTYLE
  5
DB
102
{ACAD_XDICTIONARY
360
596
102
}
102
{ACAD_REACTORS
330
C3
102
}
330
C3
100
AcDbVisualStyle
  2
EdgeColorOff
 70
    22
 71
     2
 72
     2
 73
     0
 90
        0
 40
-0.6
 41
-30.0
 62
     5
 63
     7
 74
     1
 91
        4
 64
     7
 65
   257
 75
     1
175
     1
 42
1.0
 92
        8
 66
     7
 43
1.0
 76
     1
 77
     6
 78
     2
 67
     7
 79
     5
170
     0
171
     0
290
     0
174
     0
 93
        1
 44
0.0
173
     0
291
     1
 45
0.0
1001
ACAD
1000
AcDbSavedByObjectVersion
1070
     0
  0
VISUALSTYLE
  5
D2
102
{ACAD_XDICTIONARY
360
584
102
}
102
{ACAD_REACTORS
330
C3
102
}
330
C3
100
AcDbVisualStyle
  2
Facepattern
 70
    15
 71
     2
 72
     2
 73
     0
 90
        0
 40
-0.6
 41
-30.0
 62
     5
 63
     7
 74
     1
 91
        4
 64
     7
 65
   257
 75
     1
175
     1
 42
1.0
 92
        8
 66
     7
 43
1.0
 76
     1
 77
     6
 78
     2
 67
     7
 79
     5
170
     0
171
     0
290
     0
174
     0
 93
        1
 44
0.0
173
     0
291
     1
 45
0.0
1001
ACAD
1000
AcDbSavedByObjectVersion
1070
     0
  0
VISUALSTYLE
  5
C4
102
{ACAD_XDICTIONARY
360
568
102
}
102
{ACAD_REACTORS
330
C3
102
}
330
C3
100
AcDbVisualStyle
  2
Flat
 70
     0
 71
     2
 72
     1
 73
     1
 90
        2
 40
-0.6
 41
30.0
 62
     5
 63
     7
 74
     0
 91
        0
 64
     7
 65
   257
 75
     1
175
     1
 42
1.0
 92
        8
 66
     7
 43
1.0
 76
     1
 77
     6
 78
     2
 67
     7
 79
     5
170
     0
171
     0
290
     0
174
     0
 93
       13
 44
0.0
173
     0
291
     1
 45
0.0
1001
ACAD
1000
AcDbSavedByObjectVersion
1070
     0
  0
VISUALSTYLE
  5
C5
102
{ACAD_XDICTIONARY
360
56A
102
}
102
{ACAD_REACTORS
330
C3
102
}
330
C3
100
AcDbVisualStyle
  2
FlatWithEdges
 70
     1
 71
     2
 72
     1
 73
     1
 90
        2
 40
-0.6
 41
30.0
 62
     5
 63
     7
 74
     1
 91
        0
 64
     7
 65
   257
 75
     1
175
     1
 42
1.0
 92
        0
 66
   257
 43
1.0
 76
     1
 77
     6
 78
     2
 67
     7
 79
     5
170
     0
171
     0
290
     0
174
     0
 93
       13
 44
0.0
173
     0
291
     1
 45
0.0
1001
ACAD
1000
AcDbSavedByObjectVersion
1070
     0
  0
VISUALSTYLE
  5
C6
102
{ACAD_XDICTIONARY
360
56C
102
}
102
{ACAD_REACTORS
330
C3
102
}
330
C3
100
AcDbVisualStyle
  2
Gouraud
 70
     2
 71
     2
 72
     2
 73
     1
 90
        2
 40
-0.6
 41
30.0
 62
     5
 63
     7
 74
     0
 91
        0
 64
     7
 65
   257
 75
     1
175
     1
 42
1.0
 92
        0
 66
     7
 43
1.0
 76
     1
 77
     6
 78
     2
 67
     7
 79
     5
170
     0
171
     0
290
     0
174
     0
 93
       13
 44
0.0
173
     0
291
     1
 45
0.0
1001
ACAD
1000
AcDbSavedByObjectVersion
1070
     0
  0
VISUALSTYLE
  5
C7
102
{ACAD_XDICTIONARY
360
56E
102
}
102
{ACAD_REACTORS
330
C3
102
}
330
C3
100
AcDbVisualStyle
  2
GouraudWithEdges
 70
     3
 71
     2
 72
     2
 73
     1
 90
        2
 40
-0.6
 41
30.0
 62
     5
 63
     7
 74
     1
 91
        0
 64
     7
 65
   257
 75
     1
175
     1
 42
1.0
 92
        0
 66
   257
 43
1.0
 76
     1
 77
     6
 78
     2
 67
     7
 79
     5
170
     0
171
     0
290
     0
174
     0
 93
       13
 44
0.0
173
     0
291
     1
 45
0.0
1001
ACAD
1000
AcDbSavedByObjectVersion
1070
     0
  0
VISUALSTYLE
  5
CB
102
{ACAD_XDICTIONARY
360
576
102
}
102
{ACAD_REACTORS
330
C3
102
}
330
C3
100
AcDbVisualStyle
  2
Hidden
 70
     6
 71
     1
 72
     2
 73
     2
 90
        0
 40
-0.6
 41
-30.0
 62
     5
 63
     7
 74
     2
 91
        2
 64
     7
 65
   257
 75
     2
175
     1
 42
40.0
 92
        0
 66
   257
 43
1.0
 76
     1
 77
     6
 78
     2
 67
     7
 79
     3
170
     0
171
     0
290
     0
174
     0
 93
        1
 44
0.0
173
     0
291
     0
 45
0.0
1001
ACAD
1000
AcDbSavedByObjectVersion
1070
     0
  0
VISUALSTYLE
  5
D9
102
{ACAD_XDICTIONARY
360
592
102
}
102
{ACAD_REACTORS
330
C3
102
}
330
C3
100
AcDbVisualStyle
  2
JitterOff
 70
    20
 71
     2
 72
     2
 73
     0
 90
        0
 40
-0.6
 41
-30.0
 62
     5
 63
     7
 74
     1
 91
        4
 64
     7
 65
   257
 75
     1
175
     1
 42
1.0
 92
       10
 66
     7
 43
1.0
 76
     1
 77
     6
 78
     2
 67
     7
 79
     5
170
     0
171
     0
290
     0
174
     0
 93
        1
 44
0.0
173
     0
291
     1
 45
0.0
1001
ACAD
1000
AcDbSavedByObjectVersion
1070
     0
  0
VISUALSTYLE
  5
D1
102
{ACAD_XDICTIONARY
360
582
102
}
102
{ACAD_REACTORS
330
C3
102
}
330
C3
100
AcDbVisualStyle
  2
Linepattern
 70
    14
 71
     2
 72
     2
 73
     0
 90
        0
 40
-0.6
 41
-30.0
 62
     5
 63
     7
 74
     1
 91
        4
 64
     7
 65
   257
 75
     7
175
     7
 42
1.0
 92
        8
 66
     7
 43
1.0
 76
     1
 77
     6
 78
     2
 67
     7
 79
     5
170
     0
171
     0
290
     0
174
     0
 93
        1
 44
0.0
173
     0
291
     1
 45
0.0
1001
ACAD
1000
AcDbSavedByObjectVersion
1070
     0
  0
VISUALSTYLE
  5
DA
102
{ACAD_XDICTIONARY
360
594
102
}
102
{ACAD_REACTORS
330
C3
102
}
330
C3
100
AcDbVisualStyle
  2
OverhangOff
 70
    21
 71
     2
 72
     2
 73
     0
 90
        0
 40
-0.6
 41
-30.0
 62
     5
 63
     7
 74
     1
 91
        4
 64
     7
 65
   257
 75
     1
175
     1
 42
1.0
 92
        9
 66
     7
 43
1.0
 76
     1
 77
     6
 78
     2
 67
     7
 79
     5
170
     0
171
     0
290
     0
174
     0
 93
        1
 44
0.0
173
     0
291
     1
 45
0.0
1001
ACAD
1000
AcDbSavedByObjectVersion
1070
     0
  0
VISUALSTYLE
  5
CD
102
{ACAD_XDICTIONARY
360
57A
102
}
102
{ACAD_REACTORS
330
C3
102
}
330
C3
100
AcDbVisualStyle
  2
Realistic
 70
     8
 71
     2
 72
     2
 73
     0
 90
        2
 40
-0.6
 41
30.0
 62
     5
 63
     7
 74
     0
 91
        0
 64
     7
 65
   257
 75
     1
175
     1
 42
1.0
 92
        8
 66
   257
 43
1.0
 76
     1
 77
     6
 78
     2
 67
     7
 79
     3
170
     0
171
     0
290
     0
174
     0
 93
       13
 44
0.0
173
     0
291
     0
 45
0.0
1001
ACAD
1000
AcDbSavedByObjectVersion
1070
     0
  0
VISUALSTYLE
  5
D8
102
{ACAD_XDICTIONARY
360
590
102
}
102
{ACAD_REACTORS
330
C3
102
}
330
C3
100
AcDbVisualStyle
  2
Shaded
 70
    27
 71
     2
 72
     2
 73
     1
 90
        2
 40
-0.6
 41
30.0
 62
     5
 63
     7
 74
     0
 91
        4
 64
     7
 65
   257
 75
     1
175
     1
 42
1.0
 92
        8
 66
   257
 43
1.0
 76
     1
 77
     6
 78
     2
 67
     8
 79
     3
170
     0
171
     0
290
     0
174
     0
 93
        5
 44
0.0
173
     0
291
     0
 45
0.0
1001
ACAD
1000
AcDbSavedByObjectVersion
1070
     0
  0
VISUALSTYLE
  5
D7
102
{ACAD_XDICTIONARY
360
58E
102
}
102
{ACAD_REACTORS
330
C3
102
}
330
C3
100
AcDbVisualStyle
  2
Shaded with edges
 70
    26
 71
     2
 72
     2
 73
     1
 90
        2
 40
-0.6
 41
30.0
 62
     5
 63
     7
 74
     1
 91
       10
 64
     7
 65
   257
 75
     2
175
     1
 42
1.0
 92
        8
 66
   257
 43
1.0
 76
     1
 77
     6
 78
     2
 67
     7
 79
     3
170
     0
171
     0
290
     0
174
     0
 93
        5
 44
0.0
173
     0
291
     0
 45
0.0
1001
ACAD
1000
AcDbSavedByObjectVersion
1070
     0
  0
VISUALSTYLE
  5
D4
102
{ACAD_XDICTIONARY
360
588
102
}
102
{ACAD_REACTORS
330
C3
102
}
330
C3
100
AcDbVisualStyle
  2
Shades of Gray
 70
    23
 71
     2
 72
     2
 73
     3
 90
        0
 40
-0.6
 41
-30.0
 62
     5
 63
     7
 74
     2
 91
        2
 64
     7
 65
     7
 75
     1
175
     1
 42
40.0
 92
        8
 66
     7
 43
1.0
 76
     1
 77
     6
 78
     2
 67
     7
 79
     3
170
     0
171
     0
290
     0
174
     0
 93
        1
 44
0.0
173
     0
291
     0
 45
0.0
1001
ACAD
1000
AcDbSavedByObjectVersion
1070
     0
  0
VISUALSTYLE
  5
D5
102
{ACAD_XDICTIONARY
360
58A
102
}
102
{ACAD_REACTORS
330
C3
102
}
330
C3
100
AcDbVisualStyle
  2
Sketchy
 70
    24
 71
     1
 72
     2
 73
     2
 90
        0
 40
-0.6
 41
-30.0
 62
     5
 63
     7
 74
     2
 91
        2
 64
     7
 65
     7
 75
     1
175
     1
 42
40.0
 92
       11
 66
     7
 43
1.0
 76
     1
 77
     6
 78
     2
 67
     7
 79
     6
170
     0
171
     0
290
     0
174
     0
 93
        1
 44
0.0
173
     0
291
     0
 45
0.0
1001
ACAD
1000
AcDbSavedByObjectVersion
1070
     0
  0
VISUALSTYLE
  5
D0
102
{ACAD_XDICTIONARY
360
580
102
}
102
{ACAD_REACTORS
330
C3
102
}
330
C3
100
AcDbVisualStyle
  2
Thicken
 70
    13
 71
     2
 72
     2
 73
     0
 90
        0
 40
-0.6
 41
-30.0
 62
     5
 63
     7
 74
     1
 91
        4
 64
     7
 65
   257
 75
     1
175
     1
 42
1.0
 92
       12
 66
     7
 43
1.0
 76
     1
 77
     6
 78
     2
 67
     7
 79
     5
170
     0
171
     0
290
     0
174
     0
 93
        1
 44
0.0
173
     0
291
     1
 45
0.0
1001
ACAD
1000
AcDbSavedByObjectVersion
1070
     0
  0
VISUALSTYLE
  5
CA
102
{ACAD_XDICTIONARY
360
574
102
}
102
{ACAD_REACTORS
330
C3
102
}
330
C3
100
AcDbVisualStyle
  2
Wireframe
 70
     5
 71
     0
 72
     2
 73
     0
 90
        0
 40
-0.6
 41
-30.0
 62
     5
 63
     7
 74
     1
 91
        4
 64
     7
 65
   257
 75
     1
175
     1
 42
1.0
 92
        0
 66
   257
 43
1.0
 76
     1
 77
     6
 78
     2
 67
     7
 79
     3
170
     0
171
     0
290
     0
174
     0
 93
        1
 44
0.0
173
     0
291
     0
 45
0.0
1001
ACAD
1000
AcDbSavedByObjectVersion
1070
     0
  0
VISUALSTYLE
  5
D6
102
{ACAD_XDICTIONARY
360
58C
102
}
102
{ACAD_REACTORS
330
C3
102
}
330
C3
100
AcDbVisualStyle
  2
X-Ray
 70
    25
 71
     2
 72
     2
 73
     1
 90
        1
 40
0.5
 41
-30.0
 62
     5
 63
     7
 74
     1
 91
        0
 64
     7
 65
   257
 75
     1
175
     1
 42
1.0
 92
        8
 66
     7
 43
1.0
 76
     1
 77
     6
 78
     2
 67
     7
 79
     3
170
     0
171
     0
290
     0
174
     0
 93
       13
 44
0.0
173
     0
291
     0
 45
0.0
1001
ACAD
1000
AcDbSavedByObjectVersion
1070
     0
  0
DICTIONARYVAR
  5
503
102
{ACAD_REACTORS
330
4FD
102
}
330
4FD
100
DictionaryVariables
280
     0
  1
1:1
  0
DICTIONARYVAR
  5
4FF
102
{ACAD_REACTORS
330
4FD
102
}
330
4FD
100
DictionaryVariables
280
     0
  1
STANDARD
  0
DICTIONARYVAR
  5
4FE
102
{ACAD_REACTORS
330
4FD
102
}
330
4FD
100
DictionaryVariables
280
     0
  1
STANDARD
  0
DICTIONARYVAR
  5
500
102
{ACAD_REACTORS
330
4FD
102
}
330
4FD
100
DictionaryVariables
280
     0
  1
Imperial24
  0
DICTIONARYVAR
  5
501
102
{ACAD_REACTORS
330
4FD
102
}
330
4FD
100
DictionaryVariables
280
     0
  1
Imperial24
  0
DICTIONARYVAR
  5
55A
102
{ACAD_REACTORS
330
4FD
102
}
330
4FD
100
DictionaryVariables
280
     0
  1
1
  0
DICTIONARYVAR
  5
559
102
{ACAD_REACTORS
330
4FD
102
}
330
4FD
100
DictionaryVariables
280
     0
  1
0
  0
DICTIONARYVAR
  5
505
102
{ACAD_REACTORS
330
4FD
102
}
330
4FD
100
DictionaryVariables
280
     0
  1
1
  0
DICTIONARYVAR
  5
506
102
{ACAD_REACTORS
330
4FD
102
}
330
4FD
100
DictionaryVariables
280
     0
  1
15
  0
DICTIONARYVAR
  5
504
102
{ACAD_REACTORS
330
4FD
102
}
330
4FD
100
DictionaryVariables
280
     0
  1
0
  0
DICTIONARYVAR
  5
502
102
{ACAD_REACTORS
330
4FD
102
}
330
4FD
100
DictionaryVariables
280
     0
  1
0
  0
DICTIONARYVAR
  5
558
102
{ACAD_REACTORS
330
4FD
102
}
330
4FD
100
DictionaryVariables
280
     0
  1
127
  0
DICTIONARYVAR
  5
55B
102
{ACAD_REACTORS
330
4FD
102
}
330
4FD
100
DictionaryVariables
280
     0
  1
2
  0
DICTIONARY
  5
4FB
330
F6
100
AcDbDictionary
280
     1
281
     1
  3
ACAD_XREC_ROUNDTRIP
360
4FC
  0
DICTIONARY
  5
55F
330
1E
100
AcDbDictionary
280
     1
281
     1
  3
ACAD_XREC_ROUNDTRIP
360
560
  0
DICTIONARY
  5
563
330
26
100
AcDbDictionary
280
     1
281
     1
  3
ACAD_XREC_ROUNDTRIP
360
564
  0
DICTIONARY
  5
561
330
22
100
AcDbDictionary
280
     1
281
     1
  3
ACAD_XREC_ROUNDTRIP
360
562
  0
DICTIONARY
  5
B4
330
B3
100
AcDbDictionary
280
     1
281
     1
  3
ACAD_XREC_ROUNDTRIP
360
566
  3
BUMPTILE
360
B6
  3
DIFFUSETILE
360
B5
  3
OPACITYTILE
360
B9
  3
REFLECTIONTILE
360
B8
  3
REFRACTIONTILE
360
BA
  3
SPECULARTILE
360
B7
  0
DICTIONARY
  5
AC
330
AB
100
AcDbDictionary
280
     1
281
     1
  3
ACAD_XREC_ROUNDTRIP
360
565
  3
BUMPTILE
360
AE
  3
DIFFUSETILE
360
AD
  3
OPACITYTILE
360
B1
  3
REFLECTIONTILE
360
B0
  3
REFRACTIONTILE
360
B2
  3
SPECULARTILE
360
AF
  0
DICTIONARY
  5
BC
330
BB
100
AcDbDictionary
280
     1
281
     1
  3
ACAD_XREC_ROUNDTRIP
360
567
  3
BUMPTILE
360
BE
  3
DIFFUSETILE
360
BD
  3
OPACITYTILE
360
C1
  3
REFLECTIONTILE
360
C0
  3
REFRACTIONTILE
360
C2
  3
SPECULARTILE
360
BF
  0
DICTIONARY
  5
599
330
F2
100
AcDbDictionary
280
     1
281
     1
  3
ACAD_XREC_ROUNDTRIP
360
59A
  0
DICTIONARY
  5
4F9
330
F4
100
AcDbDictionary
280
     1
281
     1
  3
ACAD_XREC_ROUNDTRIP
360
4FA
  0
DICTIONARY
  5
4C1
330
DE
100
AcDbDictionary
280
     1
281
     1
  3
ACAD_ROUNDTRIP_2008_TABLESTYLE_CELLSTYLEMAP
360
55C
  3
ACAD_XREC_ROUNDTRIP
360
598
  0
DICTIONARY
  5
572
330
C9
100
AcDbDictionary
280
     1
281
     1
  3
ACAD_XREC_ROUNDTRIP
360
573
  0
DICTIONARY
  5
570
330
C8
100
AcDbDictionary
280
     1
281
     1
  3
ACAD_XREC_ROUNDTRIP
360
571
  0
DICTIONARY
  5
57E
330
CF
100
AcDbDictionary
280
     1
281
     1
  3
ACAD_XREC_ROUNDTRIP
360
57F
  0
DICTIONARY
  5
586
330
D3
100
AcDbDictionary
280
     1
281
     1
  3
ACAD_XREC_ROUNDTRIP
360
587
  0
DICTIONARY
  5
578
330
CC
100
AcDbDictionary
280
     1
281
     1
  3
ACAD_XREC_ROUNDTRIP
360
579
  0
DICTIONARY
  5
57C
330
CE
100
AcDbDictionary
280
     1
281
     1
  3
ACAD_XREC_ROUNDTRIP
360
57D
  0
DICTIONARY
  5
596
330
DB
100
AcDbDictionary
280
     1
281
     1
  3
ACAD_XREC_ROUNDTRIP
360
597
  0
DICTIONARY
  5
584
330
D2
100
AcDbDictionary
280
     1
281
     1
  3
ACAD_XREC_ROUNDTRIP
360
585
  0
DICTIONARY
  5
568
330
C4
100
AcDbDictionary
280
     1
281
     1
  3
ACAD_XREC_ROUNDTRIP
360
569
  0
DICTIONARY
  5
56A
330
C5
100
AcDbDictionary
280
     1
281
     1
  3
ACAD_XREC_ROUNDTRIP
360
56B
  0
DICTIONARY
  5
56C
330
C6
100
AcDbDictionary
280
     1
281
     1
  3
ACAD_XREC_ROUNDTRIP
360
56D
  0
DICTIONARY
  5
56E
330
C7
100
AcDbDictionary
280
     1
281
     1
  3
ACAD_XREC_ROUNDTRIP
360
56F
  0
DICTIONARY
  5
576
330
CB
100
AcDbDictionary
280
     1
281
     1
  3
ACAD_XREC_ROUNDTRIP
360
577
  0
DICTIONARY
  5
592
330
D9
100
AcDbDictionary
280
     1
281
     1
  3
ACAD_XREC_ROUNDTRIP
360
593
  0
DICTIONARY
  5
582
330
D1
100
AcDbDictionary
280
     1
281
     1
  3
ACAD_XREC_ROUNDTRIP
360
583
  0
DICTIONARY
  5
594
330
DA
100
AcDbDictionary
280
     1
281
     1
  3
ACAD_XREC_ROUNDTRIP
360
595
  0
DICTIONARY
  5
57A
330
CD
100
AcDbDictionary
280
     1
281
     1
  3
ACAD_XREC_ROUNDTRIP
360
57B
  0
DICTIONARY
  5
590
330
D8
100
AcDbDictionary
280
     1
281
     1
  3
ACAD_XREC_ROUNDTRIP
360
591
  0
DICTIONARY
  5
58E
330
D7
100
AcDbDictionary
280
     1
281
     1
  3
ACAD_XREC_ROUNDTRIP
360
58F
  0
DICTIONARY
  5
588
330
D4
100
AcDbDictionary
280
     1
281
     1
  3
ACAD_XREC_ROUNDTRIP
360
589
  0
DICTIONARY
  5
58A
330
D5
100
AcDbDictionary
280
     1
281
     1
  3
ACAD_XREC_ROUNDTRIP
360
58B
  0
DICTIONARY
  5
580
330
D0
100
AcDbDictionary
280
     1
281
     1
  3
ACAD_XREC_ROUNDTRIP
360
581
  0
DICTIONARY
  5
574
330
CA
100
AcDbDictionary
280
     1
281
     1
  3
ACAD_XREC_ROUNDTRIP
360
575
  0
DICTIONARY
  5
58C
330
D6
100
AcDbDictionary
280
     1
281
     1
  3
ACAD_XREC_ROUNDTRIP
360
58D
  0
XRECORD
  5
4FC
102
{ACAD_REACTORS
330
4FB
102
}
330
4FB
100
AcDbXrecord
280
     1
102
DISPLAYNAME
  1
Imperial24
102
FLAGS
 90
        0
  0
XRECORD
  5
560
102
{ACAD_REACTORS
330
55F
102
}
330
55F
100
AcDbXrecord
280
     1
102
SHADEPLOT
 70
     0
102
SHADEPLOTRESLEVEL
 70
     2
102
SHADEPLOTCUSTOMDPI
 70
   300
  0
XRECORD
  5
564
102
{ACAD_REACTORS
330
563
102
}
330
563
100
AcDbXrecord
280
     1
102
SHADEPLOT
 70
     0
102
SHADEPLOTRESLEVEL
 70
     2
102
SHADEPLOTCUSTOMDPI
 70
   300
  0
XRECORD
  5
562
102
{ACAD_REACTORS
330
561
102
}
330
561
100
AcDbXrecord
280
     1
102
SHADEPLOT
 70
     0
102
SHADEPLOTRESLEVEL
 70
     2
102
SHADEPLOTCUSTOMDPI
 70
   300
  0
XRECORD
  5
566
102
{ACAD_REACTORS
330
B4
102
}
330
B4
100
AcDbXrecord
280
     1
102
MATERIAL
148
0.0
149
0.0
149
0.0
 93
        0
 94
      127
282
     0
 72
     0
 77
     0
171
     0
175
     0
179
     0
273
     0
  0
XRECORD
  5
B6
102
{ACAD_REACTORS
330
B4
102
}
330
B4
100
AcDbXrecord
280
     1
270
     1
271
     1
  0
XRECORD
  5
B5
102
{ACAD_REACTORS
330
B4
102
}
330
B4
100
AcDbXrecord
280
     1
270
     1
271
     1
  0
XRECORD
  5
B9
102
{ACAD_REACTORS
330
B4
102
}
330
B4
100
AcDbXrecord
280
     1
270
     1
271
     1
  0
XRECORD
  5
B8
102
{ACAD_REACTORS
330
B4
102
}
330
B4
100
AcDbXrecord
280
     1
270
     1
271
     1
  0
XRECORD
  5
BA
102
{ACAD_REACTORS
330
B4
102
}
330
B4
100
AcDbXrecord
280
     1
270
     1
271
     1
  0
XRECORD
  5
B7
102
{ACAD_REACTORS
330
B4
102
}
330
B4
100
AcDbXrecord
280
     1
270
     1
271
     1
  0
XRECORD
  5
565
102
{ACAD_REACTORS
330
AC
102
}
330
AC
100
AcDbXrecord
280
     1
102
MATERIAL
148
0.0
149
0.0
149
0.0
 93
        0
 94
      127
282
     0
 72
     0
 77
     0
171
     0
175
     0
179
     0
273
     0
  0
XRECORD
  5
AE
102
{ACAD_REACTORS
330
AC
102
}
330
AC
100
AcDbXrecord
280
     1
270
     1
271
     1
  0
XRECORD
  5
AD
102
{ACAD_REACTORS
330
AC
102
}
330
AC
100
AcDbXrecord
280
     1
270
     1
271
     1
  0
XRECORD
  5
B1
102
{ACAD_REACTORS
330
AC
102
}
330
AC
100
AcDbXrecord
280
     1
270
     1
271
     1
  0
XRECORD
  5
B0
102
{ACAD_REACTORS
330
AC
102
}
330
AC
100
AcDbXrecord
280
     1
270
     1
271
     1
  0
XRECORD
  5
B2
102
{ACAD_REACTORS
330
AC
102
}
330
AC
100
AcDbXrecord
280
     1
270
     1
271
     1
  0
XRECORD
  5
AF
102
{ACAD_REACTORS
330
AC
102
}
330
AC
100
AcDbXrecord
280
     1
270
     1
271
     1
  0
XRECORD
  5
567
102
{ACAD_REACTORS
330
BC
102
}
330
BC
100
AcDbXrecord
280
     1
102
MATERIAL
148
0.0
149
0.0
149
0.0
 93
        0
 94
      127
282
     0
 72
     0
 77
     0
171
     0
175
     0
179
     0
273
     0
  0
XRECORD
  5
BE
102
{ACAD_REACTORS
330
BC
102
}
330
BC
100
AcDbXrecord
280
     1
270
     1
271
     1
  0
XRECORD
  5
BD
102
{ACAD_REACTORS
330
BC
102
}
330
BC
100
AcDbXrecord
280
     1
270
     1
271
     1
  0
XRECORD
  5
C1
102
{ACAD_REACTORS
330
BC
102
}
330
BC
100
AcDbXrecord
280
     1
270
     1
271
     1
  0
XRECORD
  5
C0
102
{ACAD_REACTORS
330
BC
102
}
330
BC
100
AcDbXrecord
280
     1
270
     1
271
     1
  0
XRECORD
  5
C2
102
{ACAD_REACTORS
330
BC
102
}
330
BC
100
AcDbXrecord
280
     1
270
     1
271
     1
  0
XRECORD
  5
BF
102
{ACAD_REACTORS
330
BC
102
}
330
BC
100
AcDbXrecord
280
     1
270
     1
271
     1
  0
XRECORD
  5
59A
102
{ACAD_REACTORS
330
599
102
}
330
599
100
AcDbXrecord
280
     1
102
ACAD_ROUNDTRIP_2012_MLEADER_STYLE
298
     1
  0
XRECORD
  5
4FA
102
{ACAD_REACTORS
330
4F9
102
}
330
4F9
100
AcDbXrecord
280
     1
102
DISPLAYNAME
  1
Imperial24
102
FLAGS
 90
        0
  0
CELLSTYLEMAP
  5
55C
102
{ACAD_REACTORS
330
4C1
102
}
330
4C1
100
AcDbCellStyleMap
 90
        3
300
CELLSTYLE
  1
TABLEFORMAT_BEGIN
 90
        5
170
     1
 91
        0
 92
    32768
 62
   257
 93
        1
300
CONTENTFORMAT
  1
CONTENTFORMAT_BEGIN
 90
        0
 91
        0
 92
      512
 93
        0
300

 40
0.0
140
1.0
 94
        5
 62
     0
340
11
144
0.25
309
CONTENTFORMAT_END
171
     0
 94
        0
309
TABLEFORMAT_END
  1
CELLSTYLE_BEGIN
 90
        1
 91
        1
300
_TITLE
309
CELLSTYLE_END
300
CELLSTYLE
  1
TABLEFORMAT_BEGIN
 90
        5
170
     1
 91
        0
 92
        0
 62
   257
 93
        1
300
CONTENTFORMAT
  1
CONTENTFORMAT_BEGIN
 90
        0
 91
        0
 92
      512
 93
        0
300

 40
0.0
140
1.0
 94
        5
 62
     0
340
11
144
0.18
309
CONTENTFORMAT_END
171
     0
 94
        0
309
TABLEFORMAT_END
  1
CELLSTYLE_BEGIN
 90
        2
 91
        1
300
_HEADER
309
CELLSTYLE_END
300
CELLSTYLE
  1
TABLEFORMAT_BEGIN
 90
        5
170
     1
 91
        0
 92
        0
 62
   257
 93
        1
300
CONTENTFORMAT
  1
CONTENTFORMAT_BEGIN
 90
        0
 91
        0
 92
      512
 93
        0
300

 40
0.0
140
1.0
 94
        2
 62
     0
340
11
144
0.18
309
CONTENTFORMAT_END
171
     0
 94
        0
309
TABLEFORMAT_END
  1
CELLSTYLE_BEGIN
 90
        3
 91
        2
300
_DATA
309
CELLSTYLE_END
  0
XRECORD
  5
598
102
{ACAD_REACTORS
330
4C1
102
}
330
4C1
100
AcDbXrecord
280
     1
102
ACAD_ROUNDTRIP_PRE2007_TABLESTYLE
 90
      512
 91
        0
  1

 92
      512
 93
        0
  2

 94
      512
 95
        0
  3

  0
XRECORD
  5
573
102
{ACAD_REACTORS
330
572
102
}
330
572
100
AcDbXrecord
280
     1
102
RTVSPost2010Prop28
280
     1
102
RTVSPost2010PropOp28
 70
     1
102
RTVSPost2010Prop29
280
     1
102
RTVSPost2010PropOp29
 70
     1
102
RTVSPost2010Prop30
280
     0
102
RTVSPost2010PropOp30
 70
     1
102
RTVSPost2010Prop31
280
     0
102
RTVSPost2010PropOp31
 70
     1
102
RTVSPost2010Prop32
280
     0
102
RTVSPost2010PropOp32
 70
     1
102
RTVSPost2010Prop33
280
     0
102
RTVSPost2010PropOp33
 70
     1
102
RTVSPost2010Prop34
280
     0
102
RTVSPost2010PropOp34
 70
     1
102
RTVSPost2010Prop35
280
     0
102
RTVSPost2010PropOp35
 70
     1
102
RTVSPost2010Prop36
280
     0
102
RTVSPost2010PropOp36
 70
     1
102
RTVSPost2010Prop37
 90
       50
102
RTVSPost2010PropOp37
 70
     1
102
RTVSPost2010Prop38
140
0.0
102
RTVSPost2010PropOp38
 70
     1
102
RTVSPost2010Prop39
140
1.0
102
RTVSPost2010PropOp39
 70
     1
102
RTVSPost2010Prop40
 90
        0
102
RTVSPost2010PropOp40
 70
     1
102
RTVSPost2010Prop41ColorIndex
 90
       18
102
RTVSPost2010Prop41ColorRGB
 90
        0
102
RTVSPost2010PropOp41
 70
     1
102
RTVSPost2010Prop42
 90
       50
102
RTVSPost2010PropOp42
 70
     1
102
RTVSPost2010Prop43
 90
        3
102
RTVSPost2010PropOp43
 70
     1
102
RTVSPost2010Prop44ColorIndex
 90
        5
102
RTVSPost2010Prop44ColorRGB
 90
      255
102
RTVSPost2010PropOp44
 70
     1
102
RTVSPost2010Prop45
280
     0
102
RTVSPost2010PropOp45
 70
     1
102
RTVSPost2010Prop46
 90
       50
102
RTVSPost2010PropOp46
 70
     1
102
RTVSPost2010Prop47
 90
       50
102
RTVSPost2010PropOp47
 70
     1
102
RTVSPost2010Prop48
 90
       50
102
RTVSPost2010PropOp48
 70
     1
102
RTVSPost2010Prop49
280
     0
102
RTVSPost2010PropOp49
 70
     1
102
RTVSPost2010Prop50
 90
       50
102
RTVSPost2010PropOp50
 70
     1
102
RTVSPost2010Prop51ColorIndex
 90
      256
102
RTVSPost2010Prop51ColorRGB
 90
-16777216
102
RTVSPost2010PropOp51
 70
     0
102
RTVSPost2010Prop52
140
1.0
102
RTVSPost2010PropOp52
 70
     0
102
RTVSPost2010Prop53
 90
        2
102
RTVSPost2010PropOp53
 70
     1
102
RTVSPost2010Prop54
  1
strokes_ogs.tif
102
RTVSPost2010PropOp54
 70
     1
102
RTVSPost2010Prop55
280
     0
102
RTVSPost2010PropOp55
 70
     1
102
RTVSPost2010Prop56
140
1.0
102
RTVSPost2010PropOp56
 70
     1
102
RTVSPost2010Prop57
140
1.0
102
RTVSPost2010PropOp57
 70
     1
102
RTVSPropertyOp0
 70
     1
102
RTVSPropertyOp1
 70
     1
102
RTVSPropertyOp2
 70
     1
102
RTVSPropertyOp3
 70
     1
102
RTVSPropertyOp4
 70
     1
102
RTVSPropertyOp5
 70
     1
102
RTVSPropertyOp6
 70
     1
102
RTVSPropertyOp7
 70
     1
102
RTVSPropertyOp8
 70
     1
102
RTVSPropertyOp9
 70
     1
102
RTVSPropertyOp10
 70
     1
102
RTVSPropertyOp11
 70
     1
102
RTVSPropertyOp12
 70
     1
102
RTVSPropertyOp13
 70
     1
102
RTVSPropertyOp14
 70
     1
102
RTVSPropertyOp15
 70
     1
102
RTVSPropertyOp16
 70
     1
102
RTVSPropertyOp17
 70
     1
102
RTVSPropertyOp18
 70
     1
102
RTVSPropertyOp19
 70
     1
102
RTVSPropertyOp20
 70
     1
102
RTVSPropertyOp21
 70
     1
102
RTVSPropertyOp22
 70
     1
102
RTVSPropertyOp23
 70
     1
102
RTVSPropertyOp24
 70
     1
102
RTVSPropertyOp25
 70
     1
102
RTVSPropertyOp26
 70
     1
102
RTVSPropertyOp27
 70
     1
102
RTVSPropertyOp28
 70
     1
102
RTVSPropertyOp29
 70
     1
102
RTVSPropertyOp30
 70
     1
102
RTVSPropertyOp31
 70
     1
102
RTVSPropertyOp32
 70
     1
102
RTVSPropertyOp33
 70
     1
102
RTVSPropertyOp34
 70
     1
102
RTVSPropertyOp35
 70
     1
102
RTVSPropertyOp36
 70
     1
102
RTVSPropertyOp37
 70
     1
102
RTVSPropertyOp38
 70
     1
102
RTVSPropertyOp39
 70
     1
102
RTVSPropertyOp40
 70
     1
102
RTVSPropertyOp41
 70
     1
102
RTVSPropertyOp42
 70
     1
102
RTVSPropertyOp43
 70
     1
102
RTVSPropertyOp44
 70
     1
102
RTVSPropertyOp45
 70
     1
102
RTVSPropertyOp46
 70
     1
102
RTVSPropertyOp47
 70
     1
102
RTVSPropertyOp48
 70
     1
102
RTVSPropertyOp49
 70
     1
102
RTVSPropertyOp50
 70
     1
102
RTVSPropertyOp51
 70
     0
102
RTVSPropertyOp52
 70
     0
102
RTVSPropertyOp53
 70
     1
102
RTVSPropertyOp54
 70
     1
102
RTVSPropertyOp55
 70
     1
102
RTVSPropertyOp56
 70
     1
102
RTVSPropertyOp57
 70
     1
102
RTVSPropertyOp58
 70
     1
102
RTVSPropertyOp59
 70
     1
102
RTVSPropertyOp60
 70
     1
102
RTVSPropertyOp61
 70
     1
102
RTVSPropertyOp62
 70
     1
  0
XRECORD
  5
571
102
{ACAD_REACTORS
330
570
102
}
330
570
100
AcDbXrecord
280
     1
102
RTVSPost2010Prop28
280
     0
102
RTVSPost2010PropOp28
 70
     1
102
RTVSPost2010Prop29
280
     1
102
RTVSPost2010PropOp29
 70
     1
102
RTVSPost2010Prop30
280
     1
102
RTVSPost2010PropOp30
 70
     1
102
RTVSPost2010Prop31
280
     0
102
RTVSPost2010PropOp31
 70
     1
102
RTVSPost2010Prop32
280
     0
102
RTVSPost2010PropOp32
 70
     1
102
RTVSPost2010Prop33
280
     0
102
RTVSPost2010PropOp33
 70
     1
102
RTVSPost2010Prop34
280
     0
102
RTVSPost2010PropOp34
 70
     1
102
RTVSPost2010Prop35
280
     0
102
RTVSPost2010PropOp35
 70
     1
102
RTVSPost2010Prop36
280
     0
102
RTVSPost2010PropOp36
 70
     1
102
RTVSPost2010Prop37
 90
       50
102
RTVSPost2010PropOp37
 70
     1
102
RTVSPost2010Prop38
140
0.0
102
RTVSPost2010PropOp38
 70
     1
102
RTVSPost2010Prop39
140
1.0
102
RTVSPost2010PropOp39
 70
     1
102
RTVSPost2010Prop40
 90
        0
102
RTVSPost2010PropOp40
 70
     1
102
RTVSPost2010Prop41ColorIndex
 90
       18
102
RTVSPost2010Prop41ColorRGB
 90
        0
102
RTVSPost2010PropOp41
 70
     1
102
RTVSPost2010Prop42
 90
       50
102
RTVSPost2010PropOp42
 70
     1
102
RTVSPost2010Prop43
 90
        3
102
RTVSPost2010PropOp43
 70
     1
102
RTVSPost2010Prop44ColorIndex
 90
        5
102
RTVSPost2010Prop44ColorRGB
 90
      255
102
RTVSPost2010PropOp44
 70
     1
102
RTVSPost2010Prop45
280
     0
102
RTVSPost2010PropOp45
 70
     1
102
RTVSPost2010Prop46
 90
       50
102
RTVSPost2010PropOp46
 70
     1
102
RTVSPost2010Prop47
 90
       50
102
RTVSPost2010PropOp47
 70
     1
102
RTVSPost2010Prop48
 90
       50
102
RTVSPost2010PropOp48
 70
     1
102
RTVSPost2010Prop49
280
     0
102
RTVSPost2010PropOp49
 70
     1
102
RTVSPost2010Prop50
 90
       50
102
RTVSPost2010PropOp50
 70
     1
102
RTVSPost2010Prop51ColorIndex
 90
      256
102
RTVSPost2010Prop51ColorRGB
 90
-16777216
102
RTVSPost2010PropOp51
 70
     0
102
RTVSPost2010Prop52
140
1.0
102
RTVSPost2010PropOp52
 70
     0
102
RTVSPost2010Prop53
 90
        2
102
RTVSPost2010PropOp53
 70
     1
102
RTVSPost2010Prop54
  1
strokes_ogs.tif
102
RTVSPost2010PropOp54
 70
     1
102
RTVSPost2010Prop55
280
     0
102
RTVSPost2010PropOp55
 70
     1
102
RTVSPost2010Prop56
140
1.0
102
RTVSPost2010PropOp56
 70
     1
102
RTVSPost2010Prop57
140
1.0
102
RTVSPost2010PropOp57
 70
     1
102
RTVSPropertyOp0
 70
     1
102
RTVSPropertyOp1
 70
     1
102
RTVSPropertyOp2
 70
     1
102
RTVSPropertyOp3
 70
     1
102
RTVSPropertyOp4
 70
     1
102
RTVSPropertyOp5
 70
     1
102
RTVSPropertyOp6
 70
     1
102
RTVSPropertyOp7
 70
     1
102
RTVSPropertyOp8
 70
     1
102
RTVSPropertyOp9
 70
     1
102
RTVSPropertyOp10
 70
     1
102
RTVSPropertyOp11
 70
     1
102
RTVSPropertyOp12
 70
     1
102
RTVSPropertyOp13
 70
     1
102
RTVSPropertyOp14
 70
     1
102
RTVSPropertyOp15
 70
     1
102
RTVSPropertyOp16
 70
     1
102
RTVSPropertyOp17
 70
     1
102
RTVSPropertyOp18
 70
     1
102
RTVSPropertyOp19
 70
     1
102
RTVSPropertyOp20
 70
     1
102
RTVSPropertyOp21
 70
     1
102
RTVSPropertyOp22
 70
     1
102
RTVSPropertyOp23
 70
     1
102
RTVSPropertyOp24
 70
     1
102
RTVSPropertyOp25
 70
     1
102
RTVSPropertyOp26
 70
     1
102
RTVSPropertyOp27
 70
     1
102
RTVSPropertyOp28
 70
     1
102
RTVSPropertyOp29
 70
     1
102
RTVSPropertyOp30
 70
     1
102
RTVSPropertyOp31
 70
     1
102
RTVSPropertyOp32
 70
     1
102
RTVSPropertyOp33
 70
     1
102
RTVSPropertyOp34
 70
     1
102
RTVSPropertyOp35
 70
     1
102
RTVSPropertyOp36
 70
     1
102
RTVSPropertyOp37
 70
     1
102
RTVSPropertyOp38
 70
     1
102
RTVSPropertyOp39
 70
     1
102
RTVSPropertyOp40
 70
     1
102
RTVSPropertyOp41
 70
     1
102
RTVSPropertyOp42
 70
     1
102
RTVSPropertyOp43
 70
     1
102
RTVSPropertyOp44
 70
     1
102
RTVSPropertyOp45
 70
     1
102
RTVSPropertyOp46
 70
     1
102
RTVSPropertyOp47
 70
     1
102
RTVSPropertyOp48
 70
     1
102
RTVSPropertyOp49
 70
     1
102
RTVSPropertyOp50
 70
     1
102
RTVSPropertyOp51
 70
     0
102
RTVSPropertyOp52
 70
     0
102
RTVSPropertyOp53
 70
     1
102
RTVSPropertyOp54
 70
     1
102
RTVSPropertyOp55
 70
     1
102
RTVSPropertyOp56
 70
     1
102
RTVSPropertyOp57
 70
     1
102
RTVSPropertyOp58
 70
     1
102
RTVSPropertyOp59
 70
     1
102
RTVSPropertyOp60
 70
     1
102
RTVSPropertyOp61
 70
     1
102
RTVSPropertyOp62
 70
     1
  0
XRECORD
  5
57F
102
{ACAD_REACTORS
330
57E
102
}
330
57E
100
AcDbXrecord
280
     1
102
RTVSPost2010Prop28
280
     0
102
RTVSPost2010PropOp28
 70
     1
102
RTVSPost2010Prop29
280
     1
102
RTVSPost2010PropOp29
 70
     1
102
RTVSPost2010Prop30
280
     1
102
RTVSPost2010PropOp30
 70
     1
102
RTVSPost2010Prop31
280
     0
102
RTVSPost2010PropOp31
 70
     1
102
RTVSPost2010Prop32
280
     0
102
RTVSPost2010PropOp32
 70
     1
102
RTVSPost2010Prop33
280
     0
102
RTVSPost2010PropOp33
 70
     1
102
RTVSPost2010Prop34
280
     0
102
RTVSPost2010PropOp34
 70
     1
102
RTVSPost2010Prop35
280
     0
102
RTVSPost2010PropOp35
 70
     1
102
RTVSPost2010Prop36
280
     0
102
RTVSPost2010PropOp36
 70
     1
102
RTVSPost2010Prop37
 90
       50
102
RTVSPost2010PropOp37
 70
     1
102
RTVSPost2010Prop38
140
0.0
102
RTVSPost2010PropOp38
 70
     1
102
RTVSPost2010Prop39
140
1.0
102
RTVSPost2010PropOp39
 70
     1
102
RTVSPost2010Prop40
 90
        0
102
RTVSPost2010PropOp40
 70
     1
102
RTVSPost2010Prop41ColorIndex
 90
       18
102
RTVSPost2010Prop41ColorRGB
 90
        0
102
RTVSPost2010PropOp41
 70
     1
102
RTVSPost2010Prop42
 90
       50
102
RTVSPost2010PropOp42
 70
     1
102
RTVSPost2010Prop43
 90
        3
102
RTVSPost2010PropOp43
 70
     1
102
RTVSPost2010Prop44ColorIndex
 90
        5
102
RTVSPost2010Prop44ColorRGB
 90
      255
102
RTVSPost2010PropOp44
 70
     1
102
RTVSPost2010Prop45
280
     0
102
RTVSPost2010PropOp45
 70
     1
102
RTVSPost2010Prop46
 90
       50
102
RTVSPost2010PropOp46
 70
     1
102
RTVSPost2010Prop47
 90
       50
102
RTVSPost2010PropOp47
 70
     1
102
RTVSPost2010Prop48
 90
       50
102
RTVSPost2010PropOp48
 70
     1
102
RTVSPost2010Prop49
280
     0
102
RTVSPost2010PropOp49
 70
     1
102
RTVSPost2010Prop50
 90
       50
102
RTVSPost2010PropOp50
 70
     1
102
RTVSPost2010Prop51ColorIndex
 90
      256
102
RTVSPost2010Prop51ColorRGB
 90
-16777216
102
RTVSPost2010PropOp51
 70
     0
102
RTVSPost2010Prop52
140
1.0
102
RTVSPost2010PropOp52
 70
     0
102
RTVSPost2010Prop53
 90
        2
102
RTVSPost2010PropOp53
 70
     1
102
RTVSPost2010Prop54
  1
strokes_ogs.tif
102
RTVSPost2010PropOp54
 70
     1
102
RTVSPost2010Prop55
280
     0
102
RTVSPost2010PropOp55
 70
     1
102
RTVSPost2010Prop56
140
1.0
102
RTVSPost2010PropOp56
 70
     1
102
RTVSPost2010Prop57
140
1.0
102
RTVSPost2010PropOp57
 70
     1
102
RTVSPropertyOp0
 70
     1
102
RTVSPropertyOp1
 70
     1
102
RTVSPropertyOp2
 70
     1
102
RTVSPropertyOp3
 70
     1
102
RTVSPropertyOp4
 70
     1
102
RTVSPropertyOp5
 70
     1
102
RTVSPropertyOp6
 70
     1
102
RTVSPropertyOp7
 70
     1
102
RTVSPropertyOp8
 70
     1
102
RTVSPropertyOp9
 70
     1
102
RTVSPropertyOp10
 70
     1
102
RTVSPropertyOp11
 70
     1
102
RTVSPropertyOp12
 70
     1
102
RTVSPropertyOp13
 70
     1
102
RTVSPropertyOp14
 70
     1
102
RTVSPropertyOp15
 70
     1
102
RTVSPropertyOp16
 70
     1
102
RTVSPropertyOp17
 70
     1
102
RTVSPropertyOp18
 70
     1
102
RTVSPropertyOp19
 70
     1
102
RTVSPropertyOp20
 70
     1
102
RTVSPropertyOp21
 70
     1
102
RTVSPropertyOp22
 70
     1
102
RTVSPropertyOp23
 70
     1
102
RTVSPropertyOp24
 70
     1
102
RTVSPropertyOp25
 70
     1
102
RTVSPropertyOp26
 70
     1
102
RTVSPropertyOp27
 70
     1
102
RTVSPropertyOp28
 70
     1
102
RTVSPropertyOp29
 70
     1
102
RTVSPropertyOp30
 70
     1
102
RTVSPropertyOp31
 70
     1
102
RTVSPropertyOp32
 70
     1
102
RTVSPropertyOp33
 70
     1
102
RTVSPropertyOp34
 70
     1
102
RTVSPropertyOp35
 70
     1
102
RTVSPropertyOp36
 70
     1
102
RTVSPropertyOp37
 70
     1
102
RTVSPropertyOp38
 70
     1
102
RTVSPropertyOp39
 70
     1
102
RTVSPropertyOp40
 70
     1
102
RTVSPropertyOp41
 70
     1
102
RTVSPropertyOp42
 70
     1
102
RTVSPropertyOp43
 70
     1
102
RTVSPropertyOp44
 70
     1
102
RTVSPropertyOp45
 70
     1
102
RTVSPropertyOp46
 70
     1
102
RTVSPropertyOp47
 70
     1
102
RTVSPropertyOp48
 70
     1
102
RTVSPropertyOp49
 70
     1
102
RTVSPropertyOp50
 70
     1
102
RTVSPropertyOp51
 70
     0
102
RTVSPropertyOp52
 70
     0
102
RTVSPropertyOp53
 70
     1
102
RTVSPropertyOp54
 70
     1
102
RTVSPropertyOp55
 70
     1
102
RTVSPropertyOp56
 70
     1
102
RTVSPropertyOp57
 70
     1
102
RTVSPropertyOp58
 70
     1
102
RTVSPropertyOp59
 70
     1
102
RTVSPropertyOp60
 70
     1
102
RTVSPropertyOp61
 70
     1
102
RTVSPropertyOp62
 70
     1
  0
XRECORD
  5
587
102
{ACAD_REACTORS
330
586
102
}
330
586
100
AcDbXrecord
280
     1
102
RTVSPost2010Prop28
280
     0
102
RTVSPost2010PropOp28
 70
     1
102
RTVSPost2010Prop29
280
     1
102
RTVSPost2010PropOp29
 70
     1
102
RTVSPost2010Prop30
280
     1
102
RTVSPost2010PropOp30
 70
     1
102
RTVSPost2010Prop31
280
     0
102
RTVSPost2010PropOp31
 70
     1
102
RTVSPost2010Prop32
280
     0
102
RTVSPost2010PropOp32
 70
     1
102
RTVSPost2010Prop33
280
     0
102
RTVSPost2010PropOp33
 70
     1
102
RTVSPost2010Prop34
280
     0
102
RTVSPost2010PropOp34
 70
     1
102
RTVSPost2010Prop35
280
     0
102
RTVSPost2010PropOp35
 70
     1
102
RTVSPost2010Prop36
280
     0
102
RTVSPost2010PropOp36
 70
     1
102
RTVSPost2010Prop37
 90
       50
102
RTVSPost2010PropOp37
 70
     1
102
RTVSPost2010Prop38
140
0.0
102
RTVSPost2010PropOp38
 70
     1
102
RTVSPost2010Prop39
140
1.0
102
RTVSPost2010PropOp39
 70
     1
102
RTVSPost2010Prop40
 90
        0
102
RTVSPost2010PropOp40
 70
     1
102
RTVSPost2010Prop41ColorIndex
 90
       18
102
RTVSPost2010Prop41ColorRGB
 90
        0
102
RTVSPost2010PropOp41
 70
     1
102
RTVSPost2010Prop42
 90
       50
102
RTVSPost2010PropOp42
 70
     1
102
RTVSPost2010Prop43
 90
        3
102
RTVSPost2010PropOp43
 70
     1
102
RTVSPost2010Prop44ColorIndex
 90
        5
102
RTVSPost2010Prop44ColorRGB
 90
      255
102
RTVSPost2010PropOp44
 70
     1
102
RTVSPost2010Prop45
280
     0
102
RTVSPost2010PropOp45
 70
     1
102
RTVSPost2010Prop46
 90
       50
102
RTVSPost2010PropOp46
 70
     1
102
RTVSPost2010Prop47
 90
       50
102
RTVSPost2010PropOp47
 70
     1
102
RTVSPost2010Prop48
 90
       50
102
RTVSPost2010PropOp48
 70
     1
102
RTVSPost2010Prop49
280
     0
102
RTVSPost2010PropOp49
 70
     1
102
RTVSPost2010Prop50
 90
       50
102
RTVSPost2010PropOp50
 70
     1
102
RTVSPost2010Prop51ColorIndex
 90
      256
102
RTVSPost2010Prop51ColorRGB
 90
-16777216
102
RTVSPost2010PropOp51
 70
     0
102
RTVSPost2010Prop52
140
1.0
102
RTVSPost2010PropOp52
 70
     0
102
RTVSPost2010Prop53
 90
        2
102
RTVSPost2010PropOp53
 70
     1
102
RTVSPost2010Prop54
  1
strokes_ogs.tif
102
RTVSPost2010PropOp54
 70
     1
102
RTVSPost2010Prop55
280
     0
102
RTVSPost2010PropOp55
 70
     1
102
RTVSPost2010Prop56
140
1.0
102
RTVSPost2010PropOp56
 70
     1
102
RTVSPost2010Prop57
140
1.0
102
RTVSPost2010PropOp57
 70
     1
102
RTVSPropertyOp0
 70
     1
102
RTVSPropertyOp1
 70
     1
102
RTVSPropertyOp2
 70
     1
102
RTVSPropertyOp3
 70
     1
102
RTVSPropertyOp4
 70
     1
102
RTVSPropertyOp5
 70
     1
102
RTVSPropertyOp6
 70
     1
102
RTVSPropertyOp7
 70
     1
102
RTVSPropertyOp8
 70
     1
102
RTVSPropertyOp9
 70
     1
102
RTVSPropertyOp10
 70
     1
102
RTVSPropertyOp11
 70
     1
102
RTVSPropertyOp12
 70
     1
102
RTVSPropertyOp13
 70
     1
102
RTVSPropertyOp14
 70
     1
102
RTVSPropertyOp15
 70
     1
102
RTVSPropertyOp16
 70
     1
102
RTVSPropertyOp17
 70
     1
102
RTVSPropertyOp18
 70
     1
102
RTVSPropertyOp19
 70
     1
102
RTVSPropertyOp20
 70
     1
102
RTVSPropertyOp21
 70
     1
102
RTVSPropertyOp22
 70
     1
102
RTVSPropertyOp23
 70
     1
102
RTVSPropertyOp24
 70
     1
102
RTVSPropertyOp25
 70
     1
102
RTVSPropertyOp26
 70
     1
102
RTVSPropertyOp27
 70
     1
102
RTVSPropertyOp28
 70
     1
102
RTVSPropertyOp29
 70
     1
102
RTVSPropertyOp30
 70
     1
102
RTVSPropertyOp31
 70
     1
102
RTVSPropertyOp32
 70
     1
102
RTVSPropertyOp33
 70
     1
102
RTVSPropertyOp34
 70
     1
102
RTVSPropertyOp35
 70
     1
102
RTVSPropertyOp36
 70
     1
102
RTVSPropertyOp37
 70
     1
102
RTVSPropertyOp38
 70
     1
102
RTVSPropertyOp39
 70
     1
102
RTVSPropertyOp40
 70
     1
102
RTVSPropertyOp41
 70
     1
102
RTVSPropertyOp42
 70
     1
102
RTVSPropertyOp43
 70
     1
102
RTVSPropertyOp44
 70
     1
102
RTVSPropertyOp45
 70
     1
102
RTVSPropertyOp46
 70
     1
102
RTVSPropertyOp47
 70
     1
102
RTVSPropertyOp48
 70
     1
102
RTVSPropertyOp49
 70
     1
102
RTVSPropertyOp50
 70
     1
102
RTVSPropertyOp51
 70
     0
102
RTVSPropertyOp52
 70
     0
102
RTVSPropertyOp53
 70
     1
102
RTVSPropertyOp54
 70
     1
102
RTVSPropertyOp55
 70
     1
102
RTVSPropertyOp56
 70
     1
102
RTVSPropertyOp57
 70
     1
102
RTVSPropertyOp58
 70
     1
102
RTVSPropertyOp59
 70
     1
102
RTVSPropertyOp60
 70
     1
102
RTVSPropertyOp61
 70
     1
102
RTVSPropertyOp62
 70
     1
  0
XRECORD
  5
579
102
{ACAD_REACTORS
330
578
102
}
330
578
100
AcDbXrecord
280
     1
102
RTVSPost2010Prop28
280
     0
102
RTVSPost2010PropOp28
 70
     1
102
RTVSPost2010Prop29
280
     1
102
RTVSPost2010PropOp29
 70
     1
102
RTVSPost2010Prop30
280
     1
102
RTVSPost2010PropOp30
 70
     1
102
RTVSPost2010Prop31
280
     0
102
RTVSPost2010PropOp31
 70
     1
102
RTVSPost2010Prop32
280
     0
102
RTVSPost2010PropOp32
 70
     1
102
RTVSPost2010Prop33
280
     0
102
RTVSPost2010PropOp33
 70
     1
102
RTVSPost2010Prop34
280
     0
102
RTVSPost2010PropOp34
 70
     1
102
RTVSPost2010Prop35
280
     0
102
RTVSPost2010PropOp35
 70
     1
102
RTVSPost2010Prop36
280
     0
102
RTVSPost2010PropOp36
 70
     1
102
RTVSPost2010Prop37
 90
       50
102
RTVSPost2010PropOp37
 70
     1
102
RTVSPost2010Prop38
140
0.0
102
RTVSPost2010PropOp38
 70
     1
102
RTVSPost2010Prop39
140
1.0
102
RTVSPost2010PropOp39
 70
     1
102
RTVSPost2010Prop40
 90
        0
102
RTVSPost2010PropOp40
 70
     1
102
RTVSPost2010Prop41ColorIndex
 90
       18
102
RTVSPost2010Prop41ColorRGB
 90
        0
102
RTVSPost2010PropOp41
 70
     1
102
RTVSPost2010Prop42
 90
       50
102
RTVSPost2010PropOp42
 70
     1
102
RTVSPost2010Prop43
 90
        3
102
RTVSPost2010PropOp43
 70
     1
102
RTVSPost2010Prop44ColorIndex
 90
        5
102
RTVSPost2010Prop44ColorRGB
 90
      255
102
RTVSPost2010PropOp44
 70
     1
102
RTVSPost2010Prop45
280
     0
102
RTVSPost2010PropOp45
 70
     1
102
RTVSPost2010Prop46
 90
       50
102
RTVSPost2010PropOp46
 70
     1
102
RTVSPost2010Prop47
 90
       50
102
RTVSPost2010PropOp47
 70
     1
102
RTVSPost2010Prop48
 90
       50
102
RTVSPost2010PropOp48
 70
     1
102
RTVSPost2010Prop49
280
     0
102
RTVSPost2010PropOp49
 70
     1
102
RTVSPost2010Prop50
 90
       50
102
RTVSPost2010PropOp50
 70
     1
102
RTVSPost2010Prop51ColorIndex
 90
      256
102
RTVSPost2010Prop51ColorRGB
 90
-16777216
102
RTVSPost2010PropOp51
 70
     0
102
RTVSPost2010Prop52
140
1.0
102
RTVSPost2010PropOp52
 70
     0
102
RTVSPost2010Prop53
 90
        2
102
RTVSPost2010PropOp53
 70
     1
102
RTVSPost2010Prop54
  1
strokes_ogs.tif
102
RTVSPost2010PropOp54
 70
     1
102
RTVSPost2010Prop55
280
     0
102
RTVSPost2010PropOp55
 70
     1
102
RTVSPost2010Prop56
140
1.0
102
RTVSPost2010PropOp56
 70
     1
102
RTVSPost2010Prop57
140
1.0
102
RTVSPost2010PropOp57
 70
     1
102
RTVSPropertyOp0
 70
     1
102
RTVSPropertyOp1
 70
     1
102
RTVSPropertyOp2
 70
     1
102
RTVSPropertyOp3
 70
     1
102
RTVSPropertyOp4
 70
     1
102
RTVSPropertyOp5
 70
     1
102
RTVSPropertyOp6
 70
     1
102
RTVSPropertyOp7
 70
     1
102
RTVSPropertyOp8
 70
     1
102
RTVSPropertyOp9
 70
     1
102
RTVSPropertyOp10
 70
     1
102
RTVSPropertyOp11
 70
     1
102
RTVSPropertyOp12
 70
     1
102
RTVSPropertyOp13
 70
     1
102
RTVSPropertyOp14
 70
     1
102
RTVSPropertyOp15
 70
     1
102
RTVSPropertyOp16
 70
     1
102
RTVSPropertyOp17
 70
     1
102
RTVSPropertyOp18
 70
     1
102
RTVSPropertyOp19
 70
     1
102
RTVSPropertyOp20
 70
     1
102
RTVSPropertyOp21
 70
     1
102
RTVSPropertyOp22
 70
     1
102
RTVSPropertyOp23
 70
     1
102
RTVSPropertyOp24
 70
     1
102
RTVSPropertyOp25
 70
     1
102
RTVSPropertyOp26
 70
     1
102
RTVSPropertyOp27
 70
     1
102
RTVSPropertyOp28
 70
     1
102
RTVSPropertyOp29
 70
     1
102
RTVSPropertyOp30
 70
     1
102
RTVSPropertyOp31
 70
     1
102
RTVSPropertyOp32
 70
     1
102
RTVSPropertyOp33
 70
     1
102
RTVSPropertyOp34
 70
     1
102
RTVSPropertyOp35
 70
     1
102
RTVSPropertyOp36
 70
     1
102
RTVSPropertyOp37
 70
     1
102
RTVSPropertyOp38
 70
     1
102
RTVSPropertyOp39
 70
     1
102
RTVSPropertyOp40
 70
     1
102
RTVSPropertyOp41
 70
     1
102
RTVSPropertyOp42
 70
     1
102
RTVSPropertyOp43
 70
     1
102
RTVSPropertyOp44
 70
     1
102
RTVSPropertyOp45
 70
     1
102
RTVSPropertyOp46
 70
     1
102
RTVSPropertyOp47
 70
     1
102
RTVSPropertyOp48
 70
     1
102
RTVSPropertyOp49
 70
     1
102
RTVSPropertyOp50
 70
     1
102
RTVSPropertyOp51
 70
     0
102
RTVSPropertyOp52
 70
     0
102
RTVSPropertyOp53
 70
     1
102
RTVSPropertyOp54
 70
     1
102
RTVSPropertyOp55
 70
     1
102
RTVSPropertyOp56
 70
     1
102
RTVSPropertyOp57
 70
     1
102
RTVSPropertyOp58
 70
     1
102
RTVSPropertyOp59
 70
     1
102
RTVSPropertyOp60
 70
     1
102
RTVSPropertyOp61
 70
     1
102
RTVSPropertyOp62
 70
     1
  0
XRECORD
  5
57D
102
{ACAD_REACTORS
330
57C
102
}
330
57C
100
AcDbXrecord
280
     1
102
RTVSPost2010Prop28
280
     0
102
RTVSPost2010PropOp28
 70
     1
102
RTVSPost2010Prop29
280
     1
102
RTVSPost2010PropOp29
 70
     1
102
RTVSPost2010Prop30
280
     1
102
RTVSPost2010PropOp30
 70
     1
102
RTVSPost2010Prop31
280
     0
102
RTVSPost2010PropOp31
 70
     1
102
RTVSPost2010Prop32
280
     0
102
RTVSPost2010PropOp32
 70
     1
102
RTVSPost2010Prop33
280
     0
102
RTVSPost2010PropOp33
 70
     1
102
RTVSPost2010Prop34
280
     0
102
RTVSPost2010PropOp34
 70
     1
102
RTVSPost2010Prop35
280
     0
102
RTVSPost2010PropOp35
 70
     1
102
RTVSPost2010Prop36
280
     0
102
RTVSPost2010PropOp36
 70
     1
102
RTVSPost2010Prop37
 90
       50
102
RTVSPost2010PropOp37
 70
     1
102
RTVSPost2010Prop38
140
0.0
102
RTVSPost2010PropOp38
 70
     1
102
RTVSPost2010Prop39
140
1.0
102
RTVSPost2010PropOp39
 70
     1
102
RTVSPost2010Prop40
 90
        0
102
RTVSPost2010PropOp40
 70
     1
102
RTVSPost2010Prop41ColorIndex
 90
       18
102
RTVSPost2010Prop41ColorRGB
 90
        0
102
RTVSPost2010PropOp41
 70
     1
102
RTVSPost2010Prop42
 90
       50
102
RTVSPost2010PropOp42
 70
     1
102
RTVSPost2010Prop43
 90
        3
102
RTVSPost2010PropOp43
 70
     1
102
RTVSPost2010Prop44ColorIndex
 90
        5
102
RTVSPost2010Prop44ColorRGB
 90
      255
102
RTVSPost2010PropOp44
 70
     1
102
RTVSPost2010Prop45
280
     0
102
RTVSPost2010PropOp45
 70
     1
102
RTVSPost2010Prop46
 90
       50
102
RTVSPost2010PropOp46
 70
     1
102
RTVSPost2010Prop47
 90
       50
102
RTVSPost2010PropOp47
 70
     1
102
RTVSPost2010Prop48
 90
       50
102
RTVSPost2010PropOp48
 70
     1
102
RTVSPost2010Prop49
280
     0
102
RTVSPost2010PropOp49
 70
     1
102
RTVSPost2010Prop50
 90
       50
102
RTVSPost2010PropOp50
 70
     1
102
RTVSPost2010Prop51ColorIndex
 90
      256
102
RTVSPost2010Prop51ColorRGB
 90
-16777216
102
RTVSPost2010PropOp51
 70
     0
102
RTVSPost2010Prop52
140
1.0
102
RTVSPost2010PropOp52
 70
     0
102
RTVSPost2010Prop53
 90
        2
102
RTVSPost2010PropOp53
 70
     1
102
RTVSPost2010Prop54
  1
strokes_ogs.tif
102
RTVSPost2010PropOp54
 70
     1
102
RTVSPost2010Prop55
280
     0
102
RTVSPost2010PropOp55
 70
     1
102
RTVSPost2010Prop56
140
1.0
102
RTVSPost2010PropOp56
 70
     1
102
RTVSPost2010Prop57
140
1.0
102
RTVSPost2010PropOp57
 70
     1
102
RTVSPropertyOp0
 70
     1
102
RTVSPropertyOp1
 70
     1
102
RTVSPropertyOp2
 70
     1
102
RTVSPropertyOp3
 70
     1
102
RTVSPropertyOp4
 70
     1
102
RTVSPropertyOp5
 70
     1
102
RTVSPropertyOp6
 70
     1
102
RTVSPropertyOp7
 70
     1
102
RTVSPropertyOp8
 70
     1
102
RTVSPropertyOp9
 70
     1
102
RTVSPropertyOp10
 70
     1
102
RTVSPropertyOp11
 70
     1
102
RTVSPropertyOp12
 70
     1
102
RTVSPropertyOp13
 70
     1
102
RTVSPropertyOp14
 70
     1
102
RTVSPropertyOp15
 70
     1
102
RTVSPropertyOp16
 70
     1
102
RTVSPropertyOp17
 70
     1
102
RTVSPropertyOp18
 70
     1
102
RTVSPropertyOp19
 70
     1
102
RTVSPropertyOp20
 70
     1
102
RTVSPropertyOp21
 70
     1
102
RTVSPropertyOp22
 70
     1
102
RTVSPropertyOp23
 70
     1
102
RTVSPropertyOp24
 70
     1
102
RTVSPropertyOp25
 70
     1
102
RTVSPropertyOp26
 70
     1
102
RTVSPropertyOp27
 70
     1
102
RTVSPropertyOp28
 70
     1
102
RTVSPropertyOp29
 70
     1
102
RTVSPropertyOp30
 70
     1
102
RTVSPropertyOp31
 70
     1
102
RTVSPropertyOp32
 70
     1
102
RTVSPropertyOp33
 70
     1
102
RTVSPropertyOp34
 70
     1
102
RTVSPropertyOp35
 70
     1
102
RTVSPropertyOp36
 70
     1
102
RTVSPropertyOp37
 70
     1
102
RTVSPropertyOp38
 70
     1
102
RTVSPropertyOp39
 70
     1
102
RTVSPropertyOp40
 70
     1
102
RTVSPropertyOp41
 70
     1
102
RTVSPropertyOp42
 70
     1
102
RTVSPropertyOp43
 70
     1
102
RTVSPropertyOp44
 70
     1
102
RTVSPropertyOp45
 70
     1
102
RTVSPropertyOp46
 70
     1
102
RTVSPropertyOp47
 70
     1
102
RTVSPropertyOp48
 70
     1
102
RTVSPropertyOp49
 70
     1
102
RTVSPropertyOp50
 70
     1
102
RTVSPropertyOp51
 70
     0
102
RTVSPropertyOp52
 70
     0
102
RTVSPropertyOp53
 70
     1
102
RTVSPropertyOp54
 70
     1
102
RTVSPropertyOp55
 70
     1
102
RTVSPropertyOp56
 70
     1
102
RTVSPropertyOp57
 70
     1
102
RTVSPropertyOp58
 70
     1
102
RTVSPropertyOp59
 70
     1
102
RTVSPropertyOp60
 70
     1
102
RTVSPropertyOp61
 70
     1
102
RTVSPropertyOp62
 70
     1
  0
XRECORD
  5
597
102
{ACAD_REACTORS
330
596
102
}
330
596
100
AcDbXrecord
280
     1
102
RTVSPost2010Prop28
280
     0
102
RTVSPost2010PropOp28
 70
     0
102
RTVSPost2010Prop29
280
     1
102
RTVSPost2010PropOp29
 70
     0
102
RTVSPost2010Prop30
280
     1
102
RTVSPost2010PropOp30
 70
     0
102
RTVSPost2010Prop31
280
     0
102
RTVSPost2010PropOp31
 70
     0
102
RTVSPost2010Prop32
280
     0
102
RTVSPost2010PropOp32
 70
     0
102
RTVSPost2010Prop33
280
     0
102
RTVSPost2010PropOp33
 70
     0
102
RTVSPost2010Prop34
280
     0
102
RTVSPost2010PropOp34
 70
     0
102
RTVSPost2010Prop35
280
     0
102
RTVSPost2010PropOp35
 70
     0
102
RTVSPost2010Prop36
280
     0
102
RTVSPost2010PropOp36
 70
     0
102
RTVSPost2010Prop37
 90
       50
102
RTVSPost2010PropOp37
 70
     0
102
RTVSPost2010Prop38
140
0.0
102
RTVSPost2010PropOp38
 70
     0
102
RTVSPost2010Prop39
140
1.0
102
RTVSPost2010PropOp39
 70
     0
102
RTVSPost2010Prop40
 90
        0
102
RTVSPost2010PropOp40
 70
     0
102
RTVSPost2010Prop41ColorIndex
 90
       18
102
RTVSPost2010Prop41ColorRGB
 90
        0
102
RTVSPost2010PropOp41
 70
     0
102
RTVSPost2010Prop42
 90
       50
102
RTVSPost2010PropOp42
 70
     0
102
RTVSPost2010Prop43
 90
        3
102
RTVSPost2010PropOp43
 70
     0
102
RTVSPost2010Prop44ColorIndex
 90
        5
102
RTVSPost2010Prop44ColorRGB
 90
      255
102
RTVSPost2010PropOp44
 70
     0
102
RTVSPost2010Prop45
280
     0
102
RTVSPost2010PropOp45
 70
     0
102
RTVSPost2010Prop46
 90
       50
102
RTVSPost2010PropOp46
 70
     0
102
RTVSPost2010Prop47
 90
       50
102
RTVSPost2010PropOp47
 70
     0
102
RTVSPost2010Prop48
 90
       50
102
RTVSPost2010PropOp48
 70
     0
102
RTVSPost2010Prop49
280
     0
102
RTVSPost2010PropOp49
 70
     0
102
RTVSPost2010Prop50
 90
       50
102
RTVSPost2010PropOp50
 70
     0
102
RTVSPost2010Prop51ColorIndex
 90
      256
102
RTVSPost2010Prop51ColorRGB
 90
-16777216
102
RTVSPost2010PropOp51
 70
     0
102
RTVSPost2010Prop52
140
1.0
102
RTVSPost2010PropOp52
 70
     0
102
RTVSPost2010Prop53
 90
        2
102
RTVSPost2010PropOp53
 70
     0
102
RTVSPost2010Prop54
  1
strokes_ogs.tif
102
RTVSPost2010PropOp54
 70
     0
102
RTVSPost2010Prop55
280
     0
102
RTVSPost2010PropOp55
 70
     0
102
RTVSPost2010Prop56
140
1.0
102
RTVSPost2010PropOp56
 70
     0
102
RTVSPost2010Prop57
140
1.0
102
RTVSPost2010PropOp57
 70
     0
102
RTVSPropertyOp0
 70
     0
102
RTVSPropertyOp1
 70
     0
102
RTVSPropertyOp2
 70
     0
102
RTVSPropertyOp3
 70
     0
102
RTVSPropertyOp4
 70
     0
102
RTVSPropertyOp5
 70
     0
102
RTVSPropertyOp6
 70
     0
102
RTVSPropertyOp7
 70
     0
102
RTVSPropertyOp8
 70
     0
102
RTVSPropertyOp9
 70
     0
102
RTVSPropertyOp10
 70
     0
102
RTVSPropertyOp11
 70
     0
102
RTVSPropertyOp12
 70
     0
102
RTVSPropertyOp13
 70
     0
102
RTVSPropertyOp14
 70
     2
102
RTVSPropertyOp15
 70
     0
102
RTVSPropertyOp16
 70
     0
102
RTVSPropertyOp17
 70
     0
102
RTVSPropertyOp18
 70
     0
102
RTVSPropertyOp19
 70
     0
102
RTVSPropertyOp20
 70
     0
102
RTVSPropertyOp21
 70
     0
102
RTVSPropertyOp22
 70
     0
102
RTVSPropertyOp23
 70
     0
102
RTVSPropertyOp24
 70
     0
102
RTVSPropertyOp25
 70
     0
102
RTVSPropertyOp26
 70
     0
102
RTVSPropertyOp27
 70
     0
102
RTVSPropertyOp28
 70
     0
102
RTVSPropertyOp29
 70
     0
102
RTVSPropertyOp30
 70
     0
102
RTVSPropertyOp31
 70
     0
102
RTVSPropertyOp32
 70
     0
102
RTVSPropertyOp33
 70
     0
102
RTVSPropertyOp34
 70
     0
102
RTVSPropertyOp35
 70
     0
102
RTVSPropertyOp36
 70
     0
102
RTVSPropertyOp37
 70
     0
102
RTVSPropertyOp38
 70
     0
102
RTVSPropertyOp39
 70
     0
102
RTVSPropertyOp40
 70
     0
102
RTVSPropertyOp41
 70
     0
102
RTVSPropertyOp42
 70
     0
102
RTVSPropertyOp43
 70
     0
102
RTVSPropertyOp44
 70
     0
102
RTVSPropertyOp45
 70
     0
102
RTVSPropertyOp46
 70
     0
102
RTVSPropertyOp47
 70
     0
102
RTVSPropertyOp48
 70
     0
102
RTVSPropertyOp49
 70
     0
102
RTVSPropertyOp50
 70
     0
102
RTVSPropertyOp51
 70
     0
102
RTVSPropertyOp52
 70
     0
102
RTVSPropertyOp53
 70
     0
102
RTVSPropertyOp54
 70
     0
102
RTVSPropertyOp55
 70
     0
102
RTVSPropertyOp56
 70
     0
102
RTVSPropertyOp57
 70
     0
102
RTVSPropertyOp58
 70
     0
102
RTVSPropertyOp59
 70
     0
102
RTVSPropertyOp60
 70
     0
102
RTVSPropertyOp61
 70
     0
102
RTVSPropertyOp62
 70
     0
  0
XRECORD
  5
585
102
{ACAD_REACTORS
330
584
102
}
330
584
100
AcDbXrecord
280
     1
102
RTVSPost2010Prop28
280
     0
102
RTVSPost2010PropOp28
 70
     1
102
RTVSPost2010Prop29
280
     1
102
RTVSPost2010PropOp29
 70
     1
102
RTVSPost2010Prop30
280
     1
102
RTVSPost2010PropOp30
 70
     1
102
RTVSPost2010Prop31
280
     0
102
RTVSPost2010PropOp31
 70
     1
102
RTVSPost2010Prop32
280
     0
102
RTVSPost2010PropOp32
 70
     1
102
RTVSPost2010Prop33
280
     0
102
RTVSPost2010PropOp33
 70
     1
102
RTVSPost2010Prop34
280
     0
102
RTVSPost2010PropOp34
 70
     1
102
RTVSPost2010Prop35
280
     0
102
RTVSPost2010PropOp35
 70
     1
102
RTVSPost2010Prop36
280
     0
102
RTVSPost2010PropOp36
 70
     1
102
RTVSPost2010Prop37
 90
       50
102
RTVSPost2010PropOp37
 70
     1
102
RTVSPost2010Prop38
140
0.0
102
RTVSPost2010PropOp38
 70
     1
102
RTVSPost2010Prop39
140
1.0
102
RTVSPost2010PropOp39
 70
     1
102
RTVSPost2010Prop40
 90
        0
102
RTVSPost2010PropOp40
 70
     1
102
RTVSPost2010Prop41ColorIndex
 90
       18
102
RTVSPost2010Prop41ColorRGB
 90
        0
102
RTVSPost2010PropOp41
 70
     1
102
RTVSPost2010Prop42
 90
       50
102
RTVSPost2010PropOp42
 70
     1
102
RTVSPost2010Prop43
 90
        3
102
RTVSPost2010PropOp43
 70
     1
102
RTVSPost2010Prop44ColorIndex
 90
        5
102
RTVSPost2010Prop44ColorRGB
 90
      255
102
RTVSPost2010PropOp44
 70
     1
102
RTVSPost2010Prop45
280
     0
102
RTVSPost2010PropOp45
 70
     1
102
RTVSPost2010Prop46
 90
       50
102
RTVSPost2010PropOp46
 70
     1
102
RTVSPost2010Prop47
 90
       50
102
RTVSPost2010PropOp47
 70
     1
102
RTVSPost2010Prop48
 90
       50
102
RTVSPost2010PropOp48
 70
     1
102
RTVSPost2010Prop49
280
     0
102
RTVSPost2010PropOp49
 70
     1
102
RTVSPost2010Prop50
 90
       50
102
RTVSPost2010PropOp50
 70
     1
102
RTVSPost2010Prop51ColorIndex
 90
      256
102
RTVSPost2010Prop51ColorRGB
 90
-16777216
102
RTVSPost2010PropOp51
 70
     0
102
RTVSPost2010Prop52
140
1.0
102
RTVSPost2010PropOp52
 70
     0
102
RTVSPost2010Prop53
 90
        2
102
RTVSPost2010PropOp53
 70
     1
102
RTVSPost2010Prop54
  1
strokes_ogs.tif
102
RTVSPost2010PropOp54
 70
     1
102
RTVSPost2010Prop55
280
     0
102
RTVSPost2010PropOp55
 70
     1
102
RTVSPost2010Prop56
140
1.0
102
RTVSPost2010PropOp56
 70
     1
102
RTVSPost2010Prop57
140
1.0
102
RTVSPost2010PropOp57
 70
     1
102
RTVSPropertyOp0
 70
     1
102
RTVSPropertyOp1
 70
     1
102
RTVSPropertyOp2
 70
     1
102
RTVSPropertyOp3
 70
     1
102
RTVSPropertyOp4
 70
     1
102
RTVSPropertyOp5
 70
     1
102
RTVSPropertyOp6
 70
     1
102
RTVSPropertyOp7
 70
     1
102
RTVSPropertyOp8
 70
     1
102
RTVSPropertyOp9
 70
     1
102
RTVSPropertyOp10
 70
     1
102
RTVSPropertyOp11
 70
     1
102
RTVSPropertyOp12
 70
     1
102
RTVSPropertyOp13
 70
     1
102
RTVSPropertyOp14
 70
     1
102
RTVSPropertyOp15
 70
     1
102
RTVSPropertyOp16
 70
     1
102
RTVSPropertyOp17
 70
     1
102
RTVSPropertyOp18
 70
     1
102
RTVSPropertyOp19
 70
     1
102
RTVSPropertyOp20
 70
     1
102
RTVSPropertyOp21
 70
     1
102
RTVSPropertyOp22
 70
     1
102
RTVSPropertyOp23
 70
     1
102
RTVSPropertyOp24
 70
     1
102
RTVSPropertyOp25
 70
     1
102
RTVSPropertyOp26
 70
     1
102
RTVSPropertyOp27
 70
     1
102
RTVSPropertyOp28
 70
     1
102
RTVSPropertyOp29
 70
     1
102
RTVSPropertyOp30
 70
     1
102
RTVSPropertyOp31
 70
     1
102
RTVSPropertyOp32
 70
     1
102
RTVSPropertyOp33
 70
     1
102
RTVSPropertyOp34
 70
     1
102
RTVSPropertyOp35
 70
     1
102
RTVSPropertyOp36
 70
     1
102
RTVSPropertyOp37
 70
     1
102
RTVSPropertyOp38
 70
     1
102
RTVSPropertyOp39
 70
     1
102
RTVSPropertyOp40
 70
     1
102
RTVSPropertyOp41
 70
     1
102
RTVSPropertyOp42
 70
     1
102
RTVSPropertyOp43
 70
     1
102
RTVSPropertyOp44
 70
     1
102
RTVSPropertyOp45
 70
     1
102
RTVSPropertyOp46
 70
     1
102
RTVSPropertyOp47
 70
     1
102
RTVSPropertyOp48
 70
     1
102
RTVSPropertyOp49
 70
     1
102
RTVSPropertyOp50
 70
     1
102
RTVSPropertyOp51
 70
     0
102
RTVSPropertyOp52
 70
     0
102
RTVSPropertyOp53
 70
     1
102
RTVSPropertyOp54
 70
     1
102
RTVSPropertyOp55
 70
     1
102
RTVSPropertyOp56
 70
     1
102
RTVSPropertyOp57
 70
     1
102
RTVSPropertyOp58
 70
     1
102
RTVSPropertyOp59
 70
     1
102
RTVSPropertyOp60
 70
     1
102
RTVSPropertyOp61
 70
     1
102
RTVSPropertyOp62
 70
     1
  0
XRECORD
  5
569
102
{ACAD_REACTORS
330
568
102
}
330
568
100
AcDbXrecord
280
     1
102
RTVSPost2010Prop28
280
     0
102
RTVSPost2010PropOp28
 70
     1
102
RTVSPost2010Prop29
280
     1
102
RTVSPost2010PropOp29
 70
     1
102
RTVSPost2010Prop30
280
     1
102
RTVSPost2010PropOp30
 70
     1
102
RTVSPost2010Prop31
280
     0
102
RTVSPost2010PropOp31
 70
     1
102
RTVSPost2010Prop32
280
     0
102
RTVSPost2010PropOp32
 70
     1
102
RTVSPost2010Prop33
280
     0
102
RTVSPost2010PropOp33
 70
     1
102
RTVSPost2010Prop34
280
     0
102
RTVSPost2010PropOp34
 70
     1
102
RTVSPost2010Prop35
280
     0
102
RTVSPost2010PropOp35
 70
     1
102
RTVSPost2010Prop36
280
     0
102
RTVSPost2010PropOp36
 70
     1
102
RTVSPost2010Prop37
 90
       50
102
RTVSPost2010PropOp37
 70
     1
102
RTVSPost2010Prop38
140
0.0
102
RTVSPost2010PropOp38
 70
     1
102
RTVSPost2010Prop39
140
1.0
102
RTVSPost2010PropOp39
 70
     1
102
RTVSPost2010Prop40
 90
        0
102
RTVSPost2010PropOp40
 70
     1
102
RTVSPost2010Prop41ColorIndex
 90
       18
102
RTVSPost2010Prop41ColorRGB
 90
        0
102
RTVSPost2010PropOp41
 70
     1
102
RTVSPost2010Prop42
 90
       50
102
RTVSPost2010PropOp42
 70
     1
102
RTVSPost2010Prop43
 90
        3
102
RTVSPost2010PropOp43
 70
     1
102
RTVSPost2010Prop44ColorIndex
 90
        5
102
RTVSPost2010Prop44ColorRGB
 90
      255
102
RTVSPost2010PropOp44
 70
     1
102
RTVSPost2010Prop45
280
     0
102
RTVSPost2010PropOp45
 70
     1
102
RTVSPost2010Prop46
 90
       50
102
RTVSPost2010PropOp46
 70
     1
102
RTVSPost2010Prop47
 90
       50
102
RTVSPost2010PropOp47
 70
     1
102
RTVSPost2010Prop48
 90
       50
102
RTVSPost2010PropOp48
 70
     1
102
RTVSPost2010Prop49
280
     0
102
RTVSPost2010PropOp49
 70
     1
102
RTVSPost2010Prop50
 90
       50
102
RTVSPost2010PropOp50
 70
     1
102
RTVSPost2010Prop51ColorIndex
 90
      256
102
RTVSPost2010Prop51ColorRGB
 90
-16777216
102
RTVSPost2010PropOp51
 70
     0
102
RTVSPost2010Prop52
140
1.0
102
RTVSPost2010PropOp52
 70
     0
102
RTVSPost2010Prop53
 90
        2
102
RTVSPost2010PropOp53
 70
     1
102
RTVSPost2010Prop54
  1
strokes_ogs.tif
102
RTVSPost2010PropOp54
 70
     1
102
RTVSPost2010Prop55
280
     0
102
RTVSPost2010PropOp55
 70
     1
102
RTVSPost2010Prop56
140
1.0
102
RTVSPost2010PropOp56
 70
     1
102
RTVSPost2010Prop57
140
1.0
102
RTVSPost2010PropOp57
 70
     1
102
RTVSPropertyOp0
 70
     1
102
RTVSPropertyOp1
 70
     1
102
RTVSPropertyOp2
 70
     1
102
RTVSPropertyOp3
 70
     1
102
RTVSPropertyOp4
 70
     1
102
RTVSPropertyOp5
 70
     1
102
RTVSPropertyOp6
 70
     1
102
RTVSPropertyOp7
 70
     1
102
RTVSPropertyOp8
 70
     1
102
RTVSPropertyOp9
 70
     1
102
RTVSPropertyOp10
 70
     1
102
RTVSPropertyOp11
 70
     1
102
RTVSPropertyOp12
 70
     1
102
RTVSPropertyOp13
 70
     1
102
RTVSPropertyOp14
 70
     1
102
RTVSPropertyOp15
 70
     1
102
RTVSPropertyOp16
 70
     1
102
RTVSPropertyOp17
 70
     1
102
RTVSPropertyOp18
 70
     1
102
RTVSPropertyOp19
 70
     1
102
RTVSPropertyOp20
 70
     1
102
RTVSPropertyOp21
 70
     1
102
RTVSPropertyOp22
 70
     1
102
RTVSPropertyOp23
 70
     1
102
RTVSPropertyOp24
 70
     1
102
RTVSPropertyOp25
 70
     1
102
RTVSPropertyOp26
 70
     1
102
RTVSPropertyOp27
 70
     1
102
RTVSPropertyOp28
 70
     1
102
RTVSPropertyOp29
 70
     1
102
RTVSPropertyOp30
 70
     1
102
RTVSPropertyOp31
 70
     1
102
RTVSPropertyOp32
 70
     1
102
RTVSPropertyOp33
 70
     1
102
RTVSPropertyOp34
 70
     1
102
RTVSPropertyOp35
 70
     1
102
RTVSPropertyOp36
 70
     1
102
RTVSPropertyOp37
 70
     1
102
RTVSPropertyOp38
 70
     1
102
RTVSPropertyOp39
 70
     1
102
RTVSPropertyOp40
 70
     1
102
RTVSPropertyOp41
 70
     1
102
RTVSPropertyOp42
 70
     1
102
RTVSPropertyOp43
 70
     1
102
RTVSPropertyOp44
 70
     1
102
RTVSPropertyOp45
 70
     1
102
RTVSPropertyOp46
 70
     1
102
RTVSPropertyOp47
 70
     1
102
RTVSPropertyOp48
 70
     1
102
RTVSPropertyOp49
 70
     1
102
RTVSPropertyOp50
 70
     1
102
RTVSPropertyOp51
 70
     0
102
RTVSPropertyOp52
 70
     0
102
RTVSPropertyOp53
 70
     1
102
RTVSPropertyOp54
 70
     1
102
RTVSPropertyOp55
 70
     1
102
RTVSPropertyOp56
 70
     1
102
RTVSPropertyOp57
 70
     1
102
RTVSPropertyOp58
 70
     1
102
RTVSPropertyOp59
 70
     1
102
RTVSPropertyOp60
 70
     1
102
RTVSPropertyOp61
 70
     1
102
RTVSPropertyOp62
 70
     1
  0
XRECORD
  5
56B
102
{ACAD_REACTORS
330
56A
102
}
330
56A
100
AcDbXrecord
280
     1
102
RTVSPost2010Prop28
280
     0
102
RTVSPost2010PropOp28
 70
     1
102
RTVSPost2010Prop29
280
     1
102
RTVSPost2010PropOp29
 70
     1
102
RTVSPost2010Prop30
280
     1
102
RTVSPost2010PropOp30
 70
     1
102
RTVSPost2010Prop31
280
     0
102
RTVSPost2010PropOp31
 70
     1
102
RTVSPost2010Prop32
280
     0
102
RTVSPost2010PropOp32
 70
     1
102
RTVSPost2010Prop33
280
     0
102
RTVSPost2010PropOp33
 70
     1
102
RTVSPost2010Prop34
280
     0
102
RTVSPost2010PropOp34
 70
     1
102
RTVSPost2010Prop35
280
     0
102
RTVSPost2010PropOp35
 70
     1
102
RTVSPost2010Prop36
280
     0
102
RTVSPost2010PropOp36
 70
     1
102
RTVSPost2010Prop37
 90
       50
102
RTVSPost2010PropOp37
 70
     1
102
RTVSPost2010Prop38
140
0.0
102
RTVSPost2010PropOp38
 70
     1
102
RTVSPost2010Prop39
140
1.0
102
RTVSPost2010PropOp39
 70
     1
102
RTVSPost2010Prop40
 90
        0
102
RTVSPost2010PropOp40
 70
     1
102
RTVSPost2010Prop41ColorIndex
 90
       18
102
RTVSPost2010Prop41ColorRGB
 90
        0
102
RTVSPost2010PropOp41
 70
     1
102
RTVSPost2010Prop42
 90
       50
102
RTVSPost2010PropOp42
 70
     1
102
RTVSPost2010Prop43
 90
        3
102
RTVSPost2010PropOp43
 70
     1
102
RTVSPost2010Prop44ColorIndex
 90
        5
102
RTVSPost2010Prop44ColorRGB
 90
      255
102
RTVSPost2010PropOp44
 70
     1
102
RTVSPost2010Prop45
280
     0
102
RTVSPost2010PropOp45
 70
     1
102
RTVSPost2010Prop46
 90
       50
102
RTVSPost2010PropOp46
 70
     1
102
RTVSPost2010Prop47
 90
       50
102
RTVSPost2010PropOp47
 70
     1
102
RTVSPost2010Prop48
 90
       50
102
RTVSPost2010PropOp48
 70
     1
102
RTVSPost2010Prop49
280
     0
102
RTVSPost2010PropOp49
 70
     1
102
RTVSPost2010Prop50
 90
       50
102
RTVSPost2010PropOp50
 70
     1
102
RTVSPost2010Prop51ColorIndex
 90
      256
102
RTVSPost2010Prop51ColorRGB
 90
-16777216
102
RTVSPost2010PropOp51
 70
     0
102
RTVSPost2010Prop52
140
1.0
102
RTVSPost2010PropOp52
 70
     0
102
RTVSPost2010Prop53
 90
        2
102
RTVSPost2010PropOp53
 70
     1
102
RTVSPost2010Prop54
  1
strokes_ogs.tif
102
RTVSPost2010PropOp54
 70
     1
102
RTVSPost2010Prop55
280
     0
102
RTVSPost2010PropOp55
 70
     1
102
RTVSPost2010Prop56
140
1.0
102
RTVSPost2010PropOp56
 70
     1
102
RTVSPost2010Prop57
140
1.0
102
RTVSPost2010PropOp57
 70
     1
102
RTVSPropertyOp0
 70
     1
102
RTVSPropertyOp1
 70
     1
102
RTVSPropertyOp2
 70
     1
102
RTVSPropertyOp3
 70
     1
102
RTVSPropertyOp4
 70
     1
102
RTVSPropertyOp5
 70
     1
102
RTVSPropertyOp6
 70
     1
102
RTVSPropertyOp7
 70
     1
102
RTVSPropertyOp8
 70
     1
102
RTVSPropertyOp9
 70
     1
102
RTVSPropertyOp10
 70
     1
102
RTVSPropertyOp11
 70
     1
102
RTVSPropertyOp12
 70
     1
102
RTVSPropertyOp13
 70
     1
102
RTVSPropertyOp14
 70
     1
102
RTVSPropertyOp15
 70
     1
102
RTVSPropertyOp16
 70
     1
102
RTVSPropertyOp17
 70
     1
102
RTVSPropertyOp18
 70
     1
102
RTVSPropertyOp19
 70
     1
102
RTVSPropertyOp20
 70
     1
102
RTVSPropertyOp21
 70
     1
102
RTVSPropertyOp22
 70
     1
102
RTVSPropertyOp23
 70
     1
102
RTVSPropertyOp24
 70
     1
102
RTVSPropertyOp25
 70
     1
102
RTVSPropertyOp26
 70
     1
102
RTVSPropertyOp27
 70
     1
102
RTVSPropertyOp28
 70
     1
102
RTVSPropertyOp29
 70
     1
102
RTVSPropertyOp30
 70
     1
102
RTVSPropertyOp31
 70
     1
102
RTVSPropertyOp32
 70
     1
102
RTVSPropertyOp33
 70
     1
102
RTVSPropertyOp34
 70
     1
102
RTVSPropertyOp35
 70
     1
102
RTVSPropertyOp36
 70
     1
102
RTVSPropertyOp37
 70
     1
102
RTVSPropertyOp38
 70
     1
102
RTVSPropertyOp39
 70
     1
102
RTVSPropertyOp40
 70
     1
102
RTVSPropertyOp41
 70
     1
102
RTVSPropertyOp42
 70
     1
102
RTVSPropertyOp43
 70
     1
102
RTVSPropertyOp44
 70
     1
102
RTVSPropertyOp45
 70
     1
102
RTVSPropertyOp46
 70
     1
102
RTVSPropertyOp47
 70
     1
102
RTVSPropertyOp48
 70
     1
102
RTVSPropertyOp49
 70
     1
102
RTVSPropertyOp50
 70
     1
102
RTVSPropertyOp51
 70
     0
102
RTVSPropertyOp52
 70
     0
102
RTVSPropertyOp53
 70
     1
102
RTVSPropertyOp54
 70
     1
102
RTVSPropertyOp55
 70
     1
102
RTVSPropertyOp56
 70
     1
102
RTVSPropertyOp57
 70
     1
102
RTVSPropertyOp58
 70
     1
102
RTVSPropertyOp59
 70
     1
102
RTVSPropertyOp60
 70
     1
102
RTVSPropertyOp61
 70
     1
102
RTVSPropertyOp62
 70
     1
  0
XRECORD
  5
56D
102
{ACAD_REACTORS
330
56C
102
}
330
56C
100
AcDbXrecord
280
     1
102
RTVSPost2010Prop28
280
     0
102
RTVSPost2010PropOp28
 70
     1
102
RTVSPost2010Prop29
280
     1
102
RTVSPost2010PropOp29
 70
     1
102
RTVSPost2010Prop30
280
     1
102
RTVSPost2010PropOp30
 70
     1
102
RTVSPost2010Prop31
280
     0
102
RTVSPost2010PropOp31
 70
     1
102
RTVSPost2010Prop32
280
     0
102
RTVSPost2010PropOp32
 70
     1
102
RTVSPost2010Prop33
280
     0
102
RTVSPost2010PropOp33
 70
     1
102
RTVSPost2010Prop34
280
     0
102
RTVSPost2010PropOp34
 70
     1
102
RTVSPost2010Prop35
280
     0
102
RTVSPost2010PropOp35
 70
     1
102
RTVSPost2010Prop36
280
     0
102
RTVSPost2010PropOp36
 70
     1
102
RTVSPost2010Prop37
 90
       50
102
RTVSPost2010PropOp37
 70
     1
102
RTVSPost2010Prop38
140
0.0
102
RTVSPost2010PropOp38
 70
     1
102
RTVSPost2010Prop39
140
1.0
102
RTVSPost2010PropOp39
 70
     1
102
RTVSPost2010Prop40
 90
        0
102
RTVSPost2010PropOp40
 70
     1
102
RTVSPost2010Prop41ColorIndex
 90
       18
102
RTVSPost2010Prop41ColorRGB
 90
        0
102
RTVSPost2010PropOp41
 70
     1
102
RTVSPost2010Prop42
 90
       50
102
RTVSPost2010PropOp42
 70
     1
102
RTVSPost2010Prop43
 90
        3
102
RTVSPost2010PropOp43
 70
     1
102
RTVSPost2010Prop44ColorIndex
 90
        5
102
RTVSPost2010Prop44ColorRGB
 90
      255
102
RTVSPost2010PropOp44
 70
     1
102
RTVSPost2010Prop45
280
     0
102
RTVSPost2010PropOp45
 70
     1
102
RTVSPost2010Prop46
 90
       50
102
RTVSPost2010PropOp46
 70
     1
102
RTVSPost2010Prop47
 90
       50
102
RTVSPost2010PropOp47
 70
     1
102
RTVSPost2010Prop48
 90
       50
102
RTVSPost2010PropOp48
 70
     1
102
RTVSPost2010Prop49
280
     0
102
RTVSPost2010PropOp49
 70
     1
102
RTVSPost2010Prop50
 90
       50
102
RTVSPost2010PropOp50
 70
     1
102
RTVSPost2010Prop51ColorIndex
 90
      256
102
RTVSPost2010Prop51ColorRGB
 90
-16777216
102
RTVSPost2010PropOp51
 70
     0
102
RTVSPost2010Prop52
140
1.0
102
RTVSPost2010PropOp52
 70
     0
102
RTVSPost2010Prop53
 90
        2
102
RTVSPost2010PropOp53
 70
     1
102
RTVSPost2010Prop54
  1
strokes_ogs.tif
102
RTVSPost2010PropOp54
 70
     1
102
RTVSPost2010Prop55
280
     0
102
RTVSPost2010PropOp55
 70
     1
102
RTVSPost2010Prop56
140
1.0
102
RTVSPost2010PropOp56
 70
     1
102
RTVSPost2010Prop57
140
1.0
102
RTVSPost2010PropOp57
 70
     1
102
RTVSPropertyOp0
 70
     1
102
RTVSPropertyOp1
 70
     1
102
RTVSPropertyOp2
 70
     1
102
RTVSPropertyOp3
 70
     1
102
RTVSPropertyOp4
 70
     1
102
RTVSPropertyOp5
 70
     1
102
RTVSPropertyOp6
 70
     1
102
RTVSPropertyOp7
 70
     1
102
RTVSPropertyOp8
 70
     1
102
RTVSPropertyOp9
 70
     1
102
RTVSPropertyOp10
 70
     1
102
RTVSPropertyOp11
 70
     1
102
RTVSPropertyOp12
 70
     1
102
RTVSPropertyOp13
 70
     1
102
RTVSPropertyOp14
 70
     1
102
RTVSPropertyOp15
 70
     1
102
RTVSPropertyOp16
 70
     1
102
RTVSPropertyOp17
 70
     1
102
RTVSPropertyOp18
 70
     1
102
RTVSPropertyOp19
 70
     1
102
RTVSPropertyOp20
 70
     1
102
RTVSPropertyOp21
 70
     1
102
RTVSPropertyOp22
 70
     1
102
RTVSPropertyOp23
 70
     1
102
RTVSPropertyOp24
 70
     1
102
RTVSPropertyOp25
 70
     1
102
RTVSPropertyOp26
 70
     1
102
RTVSPropertyOp27
 70
     1
102
RTVSPropertyOp28
 70
     1
102
RTVSPropertyOp29
 70
     1
102
RTVSPropertyOp30
 70
     1
102
RTVSPropertyOp31
 70
     1
102
RTVSPropertyOp32
 70
     1
102
RTVSPropertyOp33
 70
     1
102
RTVSPropertyOp34
 70
     1
102
RTVSPropertyOp35
 70
     1
102
RTVSPropertyOp36
 70
     1
102
RTVSPropertyOp37
 70
     1
102
RTVSPropertyOp38
 70
     1
102
RTVSPropertyOp39
 70
     1
102
RTVSPropertyOp40
 70
     1
102
RTVSPropertyOp41
 70
     1
102
RTVSPropertyOp42
 70
     1
102
RTVSPropertyOp43
 70
     1
102
RTVSPropertyOp44
 70
     1
102
RTVSPropertyOp45
 70
     1
102
RTVSPropertyOp46
 70
     1
102
RTVSPropertyOp47
 70
     1
102
RTVSPropertyOp48
 70
     1
102
RTVSPropertyOp49
 70
     1
102
RTVSPropertyOp50
 70
     1
102
RTVSPropertyOp51
 70
     0
102
RTVSPropertyOp52
 70
     0
102
RTVSPropertyOp53
 70
     1
102
RTVSPropertyOp54
 70
     1
102
RTVSPropertyOp55
 70
     1
102
RTVSPropertyOp56
 70
     1
102
RTVSPropertyOp57
 70
     1
102
RTVSPropertyOp58
 70
     1
102
RTVSPropertyOp59
 70
     1
102
RTVSPropertyOp60
 70
     1
102
RTVSPropertyOp61
 70
     1
102
RTVSPropertyOp62
 70
     1
  0
XRECORD
  5
56F
102
{ACAD_REACTORS
330
56E
102
}
330
56E
100
AcDbXrecord
280
     1
102
RTVSPost2010Prop28
280
     0
102
RTVSPost2010PropOp28
 70
     1
102
RTVSPost2010Prop29
280
     1
102
RTVSPost2010PropOp29
 70
     1
102
RTVSPost2010Prop30
280
     1
102
RTVSPost2010PropOp30
 70
     1
102
RTVSPost2010Prop31
280
     0
102
RTVSPost2010PropOp31
 70
     1
102
RTVSPost2010Prop32
280
     0
102
RTVSPost2010PropOp32
 70
     1
102
RTVSPost2010Prop33
280
     0
102
RTVSPost2010PropOp33
 70
     1
102
RTVSPost2010Prop34
280
     0
102
RTVSPost2010PropOp34
 70
     1
102
RTVSPost2010Prop35
280
     0
102
RTVSPost2010PropOp35
 70
     1
102
RTVSPost2010Prop36
280
     0
102
RTVSPost2010PropOp36
 70
     1
102
RTVSPost2010Prop37
 90
       50
102
RTVSPost2010PropOp37
 70
     1
102
RTVSPost2010Prop38
140
0.0
102
RTVSPost2010PropOp38
 70
     1
102
RTVSPost2010Prop39
140
1.0
102
RTVSPost2010PropOp39
 70
     1
102
RTVSPost2010Prop40
 90
        0
102
RTVSPost2010PropOp40
 70
     1
102
RTVSPost2010Prop41ColorIndex
 90
       18
102
RTVSPost2010Prop41ColorRGB
 90
        0
102
RTVSPost2010PropOp41
 70
     1
102
RTVSPost2010Prop42
 90
       50
102
RTVSPost2010PropOp42
 70
     1
102
RTVSPost2010Prop43
 90
        3
102
RTVSPost2010PropOp43
 70
     1
102
RTVSPost2010Prop44ColorIndex
 90
        5
102
RTVSPost2010Prop44ColorRGB
 90
      255
102
RTVSPost2010PropOp44
 70
     1
102
RTVSPost2010Prop45
280
     0
102
RTVSPost2010PropOp45
 70
     1
102
RTVSPost2010Prop46
 90
       50
102
RTVSPost2010PropOp46
 70
     1
102
RTVSPost2010Prop47
 90
       50
102
RTVSPost2010PropOp47
 70
     1
102
RTVSPost2010Prop48
 90
       50
102
RTVSPost2010PropOp48
 70
     1
102
RTVSPost2010Prop49
280
     0
102
RTVSPost2010PropOp49
 70
     1
102
RTVSPost2010Prop50
 90
       50
102
RTVSPost2010PropOp50
 70
     1
102
RTVSPost2010Prop51ColorIndex
 90
      256
102
RTVSPost2010Prop51ColorRGB
 90
-16777216
102
RTVSPost2010PropOp51
 70
     0
102
RTVSPost2010Prop52
140
1.0
102
RTVSPost2010PropOp52
 70
     0
102
RTVSPost2010Prop53
 90
        2
102
RTVSPost2010PropOp53
 70
     1
102
RTVSPost2010Prop54
  1
strokes_ogs.tif
102
RTVSPost2010PropOp54
 70
     1
102
RTVSPost2010Prop55
280
     0
102
RTVSPost2010PropOp55
 70
     1
102
RTVSPost2010Prop56
140
1.0
102
RTVSPost2010PropOp56
 70
     1
102
RTVSPost2010Prop57
140
1.0
102
RTVSPost2010PropOp57
 70
     1
102
RTVSPropertyOp0
 70
     1
102
RTVSPropertyOp1
 70
     1
102
RTVSPropertyOp2
 70
     1
102
RTVSPropertyOp3
 70
     1
102
RTVSPropertyOp4
 70
     1
102
RTVSPropertyOp5
 70
     1
102
RTVSPropertyOp6
 70
     1
102
RTVSPropertyOp7
 70
     1
102
RTVSPropertyOp8
 70
     1
102
RTVSPropertyOp9
 70
     1
102
RTVSPropertyOp10
 70
     1
102
RTVSPropertyOp11
 70
     1
102
RTVSPropertyOp12
 70
     1
102
RTVSPropertyOp13
 70
     1
102
RTVSPropertyOp14
 70
     1
102
RTVSPropertyOp15
 70
     1
102
RTVSPropertyOp16
 70
     1
102
RTVSPropertyOp17
 70
     1
102
RTVSPropertyOp18
 70
     1
102
RTVSPropertyOp19
 70
     1
102
RTVSPropertyOp20
 70
     1
102
RTVSPropertyOp21
 70
     1
102
RTVSPropertyOp22
 70
     1
102
RTVSPropertyOp23
 70
     1
102
RTVSPropertyOp24
 70
     1
102
RTVSPropertyOp25
 70
     1
102
RTVSPropertyOp26
 70
     1
102
RTVSPropertyOp27
 70
     1
102
RTVSPropertyOp28
 70
     1
102
RTVSPropertyOp29
 70
     1
102
RTVSPropertyOp30
 70
     1
102
RTVSPropertyOp31
 70
     1
102
RTVSPropertyOp32
 70
     1
102
RTVSPropertyOp33
 70
     1
102
RTVSPropertyOp34
 70
     1
102
RTVSPropertyOp35
 70
     1
102
RTVSPropertyOp36
 70
     1
102
RTVSPropertyOp37
 70
     1
102
RTVSPropertyOp38
 70
     1
102
RTVSPropertyOp39
 70
     1
102
RTVSPropertyOp40
 70
     1
102
RTVSPropertyOp41
 70
     1
102
RTVSPropertyOp42
 70
     1
102
RTVSPropertyOp43
 70
     1
102
RTVSPropertyOp44
 70
     1
102
RTVSPropertyOp45
 70
     1
102
RTVSPropertyOp46
 70
     1
102
RTVSPropertyOp47
 70
     1
102
RTVSPropertyOp48
 70
     1
102
RTVSPropertyOp49
 70
     1
102
RTVSPropertyOp50
 70
     1
102
RTVSPropertyOp51
 70
     0
102
RTVSPropertyOp52
 70
     0
102
RTVSPropertyOp53
 70
     1
102
RTVSPropertyOp54
 70
     1
102
RTVSPropertyOp55
 70
     1
102
RTVSPropertyOp56
 70
     1
102
RTVSPropertyOp57
 70
     1
102
RTVSPropertyOp58
 70
     1
102
RTVSPropertyOp59
 70
     1
102
RTVSPropertyOp60
 70
     1
102
RTVSPropertyOp61
 70
     1
102
RTVSPropertyOp62
 70
     1
  0
XRECORD
  5
577
102
{ACAD_REACTORS
330
576
102
}
330
576
100
AcDbXrecord
280
     1
102
RTVSPost2010Prop28
280
     0
102
RTVSPost2010PropOp28
 70
     1
102
RTVSPost2010Prop29
280
     1
102
RTVSPost2010PropOp29
 70
     1
102
RTVSPost2010Prop30
280
     1
102
RTVSPost2010PropOp30
 70
     1
102
RTVSPost2010Prop31
280
     0
102
RTVSPost2010PropOp31
 70
     1
102
RTVSPost2010Prop32
280
     0
102
RTVSPost2010PropOp32
 70
     1
102
RTVSPost2010Prop33
280
     0
102
RTVSPost2010PropOp33
 70
     1
102
RTVSPost2010Prop34
280
     0
102
RTVSPost2010PropOp34
 70
     1
102
RTVSPost2010Prop35
280
     0
102
RTVSPost2010PropOp35
 70
     1
102
RTVSPost2010Prop36
280
     0
102
RTVSPost2010PropOp36
 70
     1
102
RTVSPost2010Prop37
 90
       50
102
RTVSPost2010PropOp37
 70
     1
102
RTVSPost2010Prop38
140
0.0
102
RTVSPost2010PropOp38
 70
     1
102
RTVSPost2010Prop39
140
1.0
102
RTVSPost2010PropOp39
 70
     1
102
RTVSPost2010Prop40
 90
        0
102
RTVSPost2010PropOp40
 70
     1
102
RTVSPost2010Prop41ColorIndex
 90
       18
102
RTVSPost2010Prop41ColorRGB
 90
        0
102
RTVSPost2010PropOp41
 70
     1
102
RTVSPost2010Prop42
 90
       50
102
RTVSPost2010PropOp42
 70
     1
102
RTVSPost2010Prop43
 90
        3
102
RTVSPost2010PropOp43
 70
     1
102
RTVSPost2010Prop44ColorIndex
 90
        5
102
RTVSPost2010Prop44ColorRGB
 90
      255
102
RTVSPost2010PropOp44
 70
     1
102
RTVSPost2010Prop45
280
     0
102
RTVSPost2010PropOp45
 70
     1
102
RTVSPost2010Prop46
 90
       50
102
RTVSPost2010PropOp46
 70
     1
102
RTVSPost2010Prop47
 90
       50
102
RTVSPost2010PropOp47
 70
     1
102
RTVSPost2010Prop48
 90
       50
102
RTVSPost2010PropOp48
 70
     1
102
RTVSPost2010Prop49
280
     0
102
RTVSPost2010PropOp49
 70
     1
102
RTVSPost2010Prop50
 90
       50
102
RTVSPost2010PropOp50
 70
     1
102
RTVSPost2010Prop51ColorIndex
 90
      256
102
RTVSPost2010Prop51ColorRGB
 90
-16777216
102
RTVSPost2010PropOp51
 70
     0
102
RTVSPost2010Prop52
140
1.0
102
RTVSPost2010PropOp52
 70
     0
102
RTVSPost2010Prop53
 90
        2
102
RTVSPost2010PropOp53
 70
     1
102
RTVSPost2010Prop54
  1
strokes_ogs.tif
102
RTVSPost2010PropOp54
 70
     1
102
RTVSPost2010Prop55
280
     0
102
RTVSPost2010PropOp55
 70
     1
102
RTVSPost2010Prop56
140
1.0
102
RTVSPost2010PropOp56
 70
     1
102
RTVSPost2010Prop57
140
1.0
102
RTVSPost2010PropOp57
 70
     1
102
RTVSPropertyOp0
 70
     1
102
RTVSPropertyOp1
 70
     1
102
RTVSPropertyOp2
 70
     1
102
RTVSPropertyOp3
 70
     1
102
RTVSPropertyOp4
 70
     1
102
RTVSPropertyOp5
 70
     1
102
RTVSPropertyOp6
 70
     1
102
RTVSPropertyOp7
 70
     1
102
RTVSPropertyOp8
 70
     1
102
RTVSPropertyOp9
 70
     1
102
RTVSPropertyOp10
 70
     1
102
RTVSPropertyOp11
 70
     1
102
RTVSPropertyOp12
 70
     1
102
RTVSPropertyOp13
 70
     1
102
RTVSPropertyOp14
 70
     1
102
RTVSPropertyOp15
 70
     1
102
RTVSPropertyOp16
 70
     1
102
RTVSPropertyOp17
 70
     1
102
RTVSPropertyOp18
 70
     1
102
RTVSPropertyOp19
 70
     1
102
RTVSPropertyOp20
 70
     1
102
RTVSPropertyOp21
 70
     1
102
RTVSPropertyOp22
 70
     1
102
RTVSPropertyOp23
 70
     1
102
RTVSPropertyOp24
 70
     1
102
RTVSPropertyOp25
 70
     1
102
RTVSPropertyOp26
 70
     1
102
RTVSPropertyOp27
 70
     1
102
RTVSPropertyOp28
 70
     1
102
RTVSPropertyOp29
 70
     1
102
RTVSPropertyOp30
 70
     1
102
RTVSPropertyOp31
 70
     1
102
RTVSPropertyOp32
 70
     1
102
RTVSPropertyOp33
 70
     1
102
RTVSPropertyOp34
 70
     1
102
RTVSPropertyOp35
 70
     1
102
RTVSPropertyOp36
 70
     1
102
RTVSPropertyOp37
 70
     1
102
RTVSPropertyOp38
 70
     1
102
RTVSPropertyOp39
 70
     1
102
RTVSPropertyOp40
 70
     1
102
RTVSPropertyOp41
 70
     1
102
RTVSPropertyOp42
 70
     1
102
RTVSPropertyOp43
 70
     1
102
RTVSPropertyOp44
 70
     1
102
RTVSPropertyOp45
 70
     1
102
RTVSPropertyOp46
 70
     1
102
RTVSPropertyOp47
 70
     1
102
RTVSPropertyOp48
 70
     1
102
RTVSPropertyOp49
 70
     1
102
RTVSPropertyOp50
 70
     1
102
RTVSPropertyOp51
 70
     0
102
RTVSPropertyOp52
 70
     0
102
RTVSPropertyOp53
 70
     1
102
RTVSPropertyOp54
 70
     1
102
RTVSPropertyOp55
 70
     1
102
RTVSPropertyOp56
 70
     1
102
RTVSPropertyOp57
 70
     1
102
RTVSPropertyOp58
 70
     1
102
RTVSPropertyOp59
 70
     1
102
RTVSPropertyOp60
 70
     1
102
RTVSPropertyOp61
 70
     1
102
RTVSPropertyOp62
 70
     1
  0
XRECORD
  5
593
102
{ACAD_REACTORS
330
592
102
}
330
592
100
AcDbXrecord
280
     1
102
RTVSPost2010Prop28
280
     0
102
RTVSPost2010PropOp28
 70
     0
102
RTVSPost2010Prop29
280
     1
102
RTVSPost2010PropOp29
 70
     0
102
RTVSPost2010Prop30
280
     1
102
RTVSPost2010PropOp30
 70
     0
102
RTVSPost2010Prop31
280
     0
102
RTVSPost2010PropOp31
 70
     0
102
RTVSPost2010Prop32
280
     0
102
RTVSPost2010PropOp32
 70
     0
102
RTVSPost2010Prop33
280
     0
102
RTVSPost2010PropOp33
 70
     0
102
RTVSPost2010Prop34
280
     0
102
RTVSPost2010PropOp34
 70
     0
102
RTVSPost2010Prop35
280
     0
102
RTVSPost2010PropOp35
 70
     0
102
RTVSPost2010Prop36
280
     0
102
RTVSPost2010PropOp36
 70
     0
102
RTVSPost2010Prop37
 90
       50
102
RTVSPost2010PropOp37
 70
     0
102
RTVSPost2010Prop38
140
0.0
102
RTVSPost2010PropOp38
 70
     0
102
RTVSPost2010Prop39
140
1.0
102
RTVSPost2010PropOp39
 70
     0
102
RTVSPost2010Prop40
 90
        0
102
RTVSPost2010PropOp40
 70
     0
102
RTVSPost2010Prop41ColorIndex
 90
       18
102
RTVSPost2010Prop41ColorRGB
 90
        0
102
RTVSPost2010PropOp41
 70
     0
102
RTVSPost2010Prop42
 90
       50
102
RTVSPost2010PropOp42
 70
     0
102
RTVSPost2010Prop43
 90
        3
102
RTVSPost2010PropOp43
 70
     0
102
RTVSPost2010Prop44ColorIndex
 90
        5
102
RTVSPost2010Prop44ColorRGB
 90
      255
102
RTVSPost2010PropOp44
 70
     0
102
RTVSPost2010Prop45
280
     0
102
RTVSPost2010PropOp45
 70
     0
102
RTVSPost2010Prop46
 90
       50
102
RTVSPost2010PropOp46
 70
     0
102
RTVSPost2010Prop47
 90
       50
102
RTVSPost2010PropOp47
 70
     0
102
RTVSPost2010Prop48
 90
       50
102
RTVSPost2010PropOp48
 70
     0
102
RTVSPost2010Prop49
280
     0
102
RTVSPost2010PropOp49
 70
     0
102
RTVSPost2010Prop50
 90
       50
102
RTVSPost2010PropOp50
 70
     0
102
RTVSPost2010Prop51ColorIndex
 90
      256
102
RTVSPost2010Prop51ColorRGB
 90
-16777216
102
RTVSPost2010PropOp51
 70
     0
102
RTVSPost2010Prop52
140
1.0
102
RTVSPost2010PropOp52
 70
     0
102
RTVSPost2010Prop53
 90
        2
102
RTVSPost2010PropOp53
 70
     0
102
RTVSPost2010Prop54
  1
strokes_ogs.tif
102
RTVSPost2010PropOp54
 70
     0
102
RTVSPost2010Prop55
280
     0
102
RTVSPost2010PropOp55
 70
     0
102
RTVSPost2010Prop56
140
1.0
102
RTVSPost2010PropOp56
 70
     0
102
RTVSPost2010Prop57
140
1.0
102
RTVSPost2010PropOp57
 70
     0
102
RTVSPropertyOp0
 70
     0
102
RTVSPropertyOp1
 70
     0
102
RTVSPropertyOp2
 70
     0
102
RTVSPropertyOp3
 70
     0
102
RTVSPropertyOp4
 70
     0
102
RTVSPropertyOp5
 70
     0
102
RTVSPropertyOp6
 70
     0
102
RTVSPropertyOp7
 70
     0
102
RTVSPropertyOp8
 70
     0
102
RTVSPropertyOp9
 70
     0
102
RTVSPropertyOp10
 70
     0
102
RTVSPropertyOp11
 70
     0
102
RTVSPropertyOp12
 70
     0
102
RTVSPropertyOp13
 70
     0
102
RTVSPropertyOp14
 70
     2
102
RTVSPropertyOp15
 70
     0
102
RTVSPropertyOp16
 70
     0
102
RTVSPropertyOp17
 70
     0
102
RTVSPropertyOp18
 70
     0
102
RTVSPropertyOp19
 70
     0
102
RTVSPropertyOp20
 70
     0
102
RTVSPropertyOp21
 70
     0
102
RTVSPropertyOp22
 70
     0
102
RTVSPropertyOp23
 70
     0
102
RTVSPropertyOp24
 70
     0
102
RTVSPropertyOp25
 70
     0
102
RTVSPropertyOp26
 70
     0
102
RTVSPropertyOp27
 70
     0
102
RTVSPropertyOp28
 70
     0
102
RTVSPropertyOp29
 70
     0
102
RTVSPropertyOp30
 70
     0
102
RTVSPropertyOp31
 70
     0
102
RTVSPropertyOp32
 70
     0
102
RTVSPropertyOp33
 70
     0
102
RTVSPropertyOp34
 70
     0
102
RTVSPropertyOp35
 70
     0
102
RTVSPropertyOp36
 70
     0
102
RTVSPropertyOp37
 70
     0
102
RTVSPropertyOp38
 70
     0
102
RTVSPropertyOp39
 70
     0
102
RTVSPropertyOp40
 70
     0
102
RTVSPropertyOp41
 70
     0
102
RTVSPropertyOp42
 70
     0
102
RTVSPropertyOp43
 70
     0
102
RTVSPropertyOp44
 70
     0
102
RTVSPropertyOp45
 70
     0
102
RTVSPropertyOp46
 70
     0
102
RTVSPropertyOp47
 70
     0
102
RTVSPropertyOp48
 70
     0
102
RTVSPropertyOp49
 70
     0
102
RTVSPropertyOp50
 70
     0
102
RTVSPropertyOp51
 70
     0
102
RTVSPropertyOp52
 70
     0
102
RTVSPropertyOp53
 70
     0
102
RTVSPropertyOp54
 70
     0
102
RTVSPropertyOp55
 70
     0
102
RTVSPropertyOp56
 70
     0
102
RTVSPropertyOp57
 70
     0
102
RTVSPropertyOp58
 70
     0
102
RTVSPropertyOp59
 70
     0
102
RTVSPropertyOp60
 70
     0
102
RTVSPropertyOp61
 70
     0
102
RTVSPropertyOp62
 70
     0
  0
XRECORD
  5
583
102
{ACAD_REACTORS
330
582
102
}
330
582
100
AcDbXrecord
280
     1
102
RTVSPost2010Prop28
280
     0
102
RTVSPost2010PropOp28
 70
     1
102
RTVSPost2010Prop29
280
     1
102
RTVSPost2010PropOp29
 70
     1
102
RTVSPost2010Prop30
280
     1
102
RTVSPost2010PropOp30
 70
     1
102
RTVSPost2010Prop31
280
     0
102
RTVSPost2010PropOp31
 70
     1
102
RTVSPost2010Prop32
280
     0
102
RTVSPost2010PropOp32
 70
     1
102
RTVSPost2010Prop33
280
     0
102
RTVSPost2010PropOp33
 70
     1
102
RTVSPost2010Prop34
280
     0
102
RTVSPost2010PropOp34
 70
     1
102
RTVSPost2010Prop35
280
     0
102
RTVSPost2010PropOp35
 70
     1
102
RTVSPost2010Prop36
280
     0
102
RTVSPost2010PropOp36
 70
     1
102
RTVSPost2010Prop37
 90
       50
102
RTVSPost2010PropOp37
 70
     1
102
RTVSPost2010Prop38
140
0.0
102
RTVSPost2010PropOp38
 70
     1
102
RTVSPost2010Prop39
140
1.0
102
RTVSPost2010PropOp39
 70
     1
102
RTVSPost2010Prop40
 90
        0
102
RTVSPost2010PropOp40
 70
     1
102
RTVSPost2010Prop41ColorIndex
 90
       18
102
RTVSPost2010Prop41ColorRGB
 90
        0
102
RTVSPost2010PropOp41
 70
     1
102
RTVSPost2010Prop42
 90
       50
102
RTVSPost2010PropOp42
 70
     1
102
RTVSPost2010Prop43
 90
        3
102
RTVSPost2010PropOp43
 70
     1
102
RTVSPost2010Prop44ColorIndex
 90
        5
102
RTVSPost2010Prop44ColorRGB
 90
      255
102
RTVSPost2010PropOp44
 70
     1
102
RTVSPost2010Prop45
280
     0
102
RTVSPost2010PropOp45
 70
     1
102
RTVSPost2010Prop46
 90
       50
102
RTVSPost2010PropOp46
 70
     1
102
RTVSPost2010Prop47
 90
       50
102
RTVSPost2010PropOp47
 70
     1
102
RTVSPost2010Prop48
 90
       50
102
RTVSPost2010PropOp48
 70
     1
102
RTVSPost2010Prop49
280
     0
102
RTVSPost2010PropOp49
 70
     1
102
RTVSPost2010Prop50
 90
       50
102
RTVSPost2010PropOp50
 70
     1
102
RTVSPost2010Prop51ColorIndex
 90
      256
102
RTVSPost2010Prop51ColorRGB
 90
-16777216
102
RTVSPost2010PropOp51
 70
     0
102
RTVSPost2010Prop52
140
1.0
102
RTVSPost2010PropOp52
 70
     0
102
RTVSPost2010Prop53
 90
        2
102
RTVSPost2010PropOp53
 70
     1
102
RTVSPost2010Prop54
  1
strokes_ogs.tif
102
RTVSPost2010PropOp54
 70
     1
102
RTVSPost2010Prop55
280
     0
102
RTVSPost2010PropOp55
 70
     1
102
RTVSPost2010Prop56
140
1.0
102
RTVSPost2010PropOp56
 70
     1
102
RTVSPost2010Prop57
140
1.0
102
RTVSPost2010PropOp57
 70
     1
102
RTVSPropertyOp0
 70
     1
102
RTVSPropertyOp1
 70
     1
102
RTVSPropertyOp2
 70
     1
102
RTVSPropertyOp3
 70
     1
102
RTVSPropertyOp4
 70
     1
102
RTVSPropertyOp5
 70
     1
102
RTVSPropertyOp6
 70
     1
102
RTVSPropertyOp7
 70
     1
102
RTVSPropertyOp8
 70
     1
102
RTVSPropertyOp9
 70
     1
102
RTVSPropertyOp10
 70
     1
102
RTVSPropertyOp11
 70
     1
102
RTVSPropertyOp12
 70
     1
102
RTVSPropertyOp13
 70
     1
102
RTVSPropertyOp14
 70
     1
102
RTVSPropertyOp15
 70
     1
102
RTVSPropertyOp16
 70
     1
102
RTVSPropertyOp17
 70
     1
102
RTVSPropertyOp18
 70
     1
102
RTVSPropertyOp19
 70
     1
102
RTVSPropertyOp20
 70
     1
102
RTVSPropertyOp21
 70
     1
102
RTVSPropertyOp22
 70
     1
102
RTVSPropertyOp23
 70
     1
102
RTVSPropertyOp24
 70
     1
102
RTVSPropertyOp25
 70
     1
102
RTVSPropertyOp26
 70
     1
102
RTVSPropertyOp27
 70
     1
102
RTVSPropertyOp28
 70
     1
102
RTVSPropertyOp29
 70
     1
102
RTVSPropertyOp30
 70
     1
102
RTVSPropertyOp31
 70
     1
102
RTVSPropertyOp32
 70
     1
102
RTVSPropertyOp33
 70
     1
102
RTVSPropertyOp34
 70
     1
102
RTVSPropertyOp35
 70
     1
102
RTVSPropertyOp36
 70
     1
102
RTVSPropertyOp37
 70
     1
102
RTVSPropertyOp38
 70
     1
102
RTVSPropertyOp39
 70
     1
102
RTVSPropertyOp40
 70
     1
102
RTVSPropertyOp41
 70
     1
102
RTVSPropertyOp42
 70
     1
102
RTVSPropertyOp43
 70
     1
102
RTVSPropertyOp44
 70
     1
102
RTVSPropertyOp45
 70
     1
102
RTVSPropertyOp46
 70
     1
102
RTVSPropertyOp47
 70
     1
102
RTVSPropertyOp48
 70
     1
102
RTVSPropertyOp49
 70
     1
102
RTVSPropertyOp50
 70
     1
102
RTVSPropertyOp51
 70
     0
102
RTVSPropertyOp52
 70
     0
102
RTVSPropertyOp53
 70
     1
102
RTVSPropertyOp54
 70
     1
102
RTVSPropertyOp55
 70
     1
102
RTVSPropertyOp56
 70
     1
102
RTVSPropertyOp57
 70
     1
102
RTVSPropertyOp58
 70
     1
102
RTVSPropertyOp59
 70
     1
102
RTVSPropertyOp60
 70
     1
102
RTVSPropertyOp61
 70
     1
102
RTVSPropertyOp62
 70
     1
  0
XRECORD
  5
595
102
{ACAD_REACTORS
330
594
102
}
330
594
100
AcDbXrecord
280
     1
102
RTVSPost2010Prop28
280
     0
102
RTVSPost2010PropOp28
 70
     0
102
RTVSPost2010Prop29
280
     1
102
RTVSPost2010PropOp29
 70
     0
102
RTVSPost2010Prop30
280
     1
102
RTVSPost2010PropOp30
 70
     0
102
RTVSPost2010Prop31
280
     0
102
RTVSPost2010PropOp31
 70
     0
102
RTVSPost2010Prop32
280
     0
102
RTVSPost2010PropOp32
 70
     0
102
RTVSPost2010Prop33
280
     0
102
RTVSPost2010PropOp33
 70
     0
102
RTVSPost2010Prop34
280
     0
102
RTVSPost2010PropOp34
 70
     0
102
RTVSPost2010Prop35
280
     0
102
RTVSPost2010PropOp35
 70
     0
102
RTVSPost2010Prop36
280
     0
102
RTVSPost2010PropOp36
 70
     0
102
RTVSPost2010Prop37
 90
       50
102
RTVSPost2010PropOp37
 70
     0
102
RTVSPost2010Prop38
140
0.0
102
RTVSPost2010PropOp38
 70
     0
102
RTVSPost2010Prop39
140
1.0
102
RTVSPost2010PropOp39
 70
     0
102
RTVSPost2010Prop40
 90
        0
102
RTVSPost2010PropOp40
 70
     0
102
RTVSPost2010Prop41ColorIndex
 90
       18
102
RTVSPost2010Prop41ColorRGB
 90
        0
102
RTVSPost2010PropOp41
 70
     0
102
RTVSPost2010Prop42
 90
       50
102
RTVSPost2010PropOp42
 70
     0
102
RTVSPost2010Prop43
 90
        3
102
RTVSPost2010PropOp43
 70
     0
102
RTVSPost2010Prop44ColorIndex
 90
        5
102
RTVSPost2010Prop44ColorRGB
 90
      255
102
RTVSPost2010PropOp44
 70
     0
102
RTVSPost2010Prop45
280
     0
102
RTVSPost2010PropOp45
 70
     0
102
RTVSPost2010Prop46
 90
       50
102
RTVSPost2010PropOp46
 70
     0
102
RTVSPost2010Prop47
 90
       50
102
RTVSPost2010PropOp47
 70
     0
102
RTVSPost2010Prop48
 90
       50
102
RTVSPost2010PropOp48
 70
     0
102
RTVSPost2010Prop49
280
     0
102
RTVSPost2010PropOp49
 70
     0
102
RTVSPost2010Prop50
 90
       50
102
RTVSPost2010PropOp50
 70
     0
102
RTVSPost2010Prop51ColorIndex
 90
      256
102
RTVSPost2010Prop51ColorRGB
 90
-16777216
102
RTVSPost2010PropOp51
 70
     0
102
RTVSPost2010Prop52
140
1.0
102
RTVSPost2010PropOp52
 70
     0
102
RTVSPost2010Prop53
 90
        2
102
RTVSPost2010PropOp53
 70
     0
102
RTVSPost2010Prop54
  1
strokes_ogs.tif
102
RTVSPost2010PropOp54
 70
     0
102
RTVSPost2010Prop55
280
     0
102
RTVSPost2010PropOp55
 70
     0
102
RTVSPost2010Prop56
140
1.0
102
RTVSPost2010PropOp56
 70
     0
102
RTVSPost2010Prop57
140
1.0
102
RTVSPost2010PropOp57
 70
     0
102
RTVSPropertyOp0
 70
     0
102
RTVSPropertyOp1
 70
     0
102
RTVSPropertyOp2
 70
     0
102
RTVSPropertyOp3
 70
     0
102
RTVSPropertyOp4
 70
     0
102
RTVSPropertyOp5
 70
     0
102
RTVSPropertyOp6
 70
     0
102
RTVSPropertyOp7
 70
     0
102
RTVSPropertyOp8
 70
     0
102
RTVSPropertyOp9
 70
     0
102
RTVSPropertyOp10
 70
     0
102
RTVSPropertyOp11
 70
     0
102
RTVSPropertyOp12
 70
     0
102
RTVSPropertyOp13
 70
     0
102
RTVSPropertyOp14
 70
     2
102
RTVSPropertyOp15
 70
     0
102
RTVSPropertyOp16
 70
     0
102
RTVSPropertyOp17
 70
     0
102
RTVSPropertyOp18
 70
     0
102
RTVSPropertyOp19
 70
     0
102
RTVSPropertyOp20
 70
     0
102
RTVSPropertyOp21
 70
     0
102
RTVSPropertyOp22
 70
     0
102
RTVSPropertyOp23
 70
     0
102
RTVSPropertyOp24
 70
     0
102
RTVSPropertyOp25
 70
     0
102
RTVSPropertyOp26
 70
     0
102
RTVSPropertyOp27
 70
     0
102
RTVSPropertyOp28
 70
     0
102
RTVSPropertyOp29
 70
     0
102
RTVSPropertyOp30
 70
     0
102
RTVSPropertyOp31
 70
     0
102
RTVSPropertyOp32
 70
     0
102
RTVSPropertyOp33
 70
     0
102
RTVSPropertyOp34
 70
     0
102
RTVSPropertyOp35
 70
     0
102
RTVSPropertyOp36
 70
     0
102
RTVSPropertyOp37
 70
     0
102
RTVSPropertyOp38
 70
     0
102
RTVSPropertyOp39
 70
     0
102
RTVSPropertyOp40
 70
     0
102
RTVSPropertyOp41
 70
     0
102
RTVSPropertyOp42
 70
     0
102
RTVSPropertyOp43
 70
     0
102
RTVSPropertyOp44
 70
     0
102
RTVSPropertyOp45
 70
     0
102
RTVSPropertyOp46
 70
     0
102
RTVSPropertyOp47
 70
     0
102
RTVSPropertyOp48
 70
     0
102
RTVSPropertyOp49
 70
     0
102
RTVSPropertyOp50
 70
     0
102
RTVSPropertyOp51
 70
     0
102
RTVSPropertyOp52
 70
     0
102
RTVSPropertyOp53
 70
     0
102
RTVSPropertyOp54
 70
     0
102
RTVSPropertyOp55
 70
     0
102
RTVSPropertyOp56
 70
     0
102
RTVSPropertyOp57
 70
     0
102
RTVSPropertyOp58
 70
     0
102
RTVSPropertyOp59
 70
     0
102
RTVSPropertyOp60
 70
     0
102
RTVSPropertyOp61
 70
     0
102
RTVSPropertyOp62
 70
     0
  0
XRECORD
  5
57B
102
{ACAD_REACTORS
330
57A
102
}
330
57A
100
AcDbXrecord
280
     1
102
RTVSPost2010Prop28
280
     0
102
RTVSPost2010PropOp28
 70
     1
102
RTVSPost2010Prop29
280
     1
102
RTVSPost2010PropOp29
 70
     1
102
RTVSPost2010Prop30
280
     1
102
RTVSPost2010PropOp30
 70
     1
102
RTVSPost2010Prop31
280
     0
102
RTVSPost2010PropOp31
 70
     1
102
RTVSPost2010Prop32
280
     0
102
RTVSPost2010PropOp32
 70
     1
102
RTVSPost2010Prop33
280
     0
102
RTVSPost2010PropOp33
 70
     1
102
RTVSPost2010Prop34
280
     0
102
RTVSPost2010PropOp34
 70
     1
102
RTVSPost2010Prop35
280
     0
102
RTVSPost2010PropOp35
 70
     1
102
RTVSPost2010Prop36
280
     0
102
RTVSPost2010PropOp36
 70
     1
102
RTVSPost2010Prop37
 90
       50
102
RTVSPost2010PropOp37
 70
     1
102
RTVSPost2010Prop38
140
0.0
102
RTVSPost2010PropOp38
 70
     1
102
RTVSPost2010Prop39
140
1.0
102
RTVSPost2010PropOp39
 70
     1
102
RTVSPost2010Prop40
 90
        0
102
RTVSPost2010PropOp40
 70
     1
102
RTVSPost2010Prop41ColorIndex
 90
       18
102
RTVSPost2010Prop41ColorRGB
 90
        0
102
RTVSPost2010PropOp41
 70
     1
102
RTVSPost2010Prop42
 90
       50
102
RTVSPost2010PropOp42
 70
     1
102
RTVSPost2010Prop43
 90
        3
102
RTVSPost2010PropOp43
 70
     1
102
RTVSPost2010Prop44ColorIndex
 90
        5
102
RTVSPost2010Prop44ColorRGB
 90
      255
102
RTVSPost2010PropOp44
 70
     1
102
RTVSPost2010Prop45
280
     0
102
RTVSPost2010PropOp45
 70
     1
102
RTVSPost2010Prop46
 90
       50
102
RTVSPost2010PropOp46
 70
     1
102
RTVSPost2010Prop47
 90
       50
102
RTVSPost2010PropOp47
 70
     1
102
RTVSPost2010Prop48
 90
       50
102
RTVSPost2010PropOp48
 70
     1
102
RTVSPost2010Prop49
280
     0
102
RTVSPost2010PropOp49
 70
     1
102
RTVSPost2010Prop50
 90
       50
102
RTVSPost2010PropOp50
 70
     1
102
RTVSPost2010Prop51ColorIndex
 90
      256
102
RTVSPost2010Prop51ColorRGB
 90
-16777216
102
RTVSPost2010PropOp51
 70
     0
102
RTVSPost2010Prop52
140
1.0
102
RTVSPost2010PropOp52
 70
     0
102
RTVSPost2010Prop53
 90
        2
102
RTVSPost2010PropOp53
 70
     1
102
RTVSPost2010Prop54
  1
strokes_ogs.tif
102
RTVSPost2010PropOp54
 70
     1
102
RTVSPost2010Prop55
280
     0
102
RTVSPost2010PropOp55
 70
     1
102
RTVSPost2010Prop56
140
1.0
102
RTVSPost2010PropOp56
 70
     1
102
RTVSPost2010Prop57
140
1.0
102
RTVSPost2010PropOp57
 70
     1
102
RTVSPropertyOp0
 70
     1
102
RTVSPropertyOp1
 70
     1
102
RTVSPropertyOp2
 70
     1
102
RTVSPropertyOp3
 70
     1
102
RTVSPropertyOp4
 70
     1
102
RTVSPropertyOp5
 70
     1
102
RTVSPropertyOp6
 70
     1
102
RTVSPropertyOp7
 70
     1
102
RTVSPropertyOp8
 70
     1
102
RTVSPropertyOp9
 70
     1
102
RTVSPropertyOp10
 70
     1
102
RTVSPropertyOp11
 70
     1
102
RTVSPropertyOp12
 70
     1
102
RTVSPropertyOp13
 70
     1
102
RTVSPropertyOp14
 70
     1
102
RTVSPropertyOp15
 70
     1
102
RTVSPropertyOp16
 70
     1
102
RTVSPropertyOp17
 70
     1
102
RTVSPropertyOp18
 70
     1
102
RTVSPropertyOp19
 70
     1
102
RTVSPropertyOp20
 70
     1
102
RTVSPropertyOp21
 70
     1
102
RTVSPropertyOp22
 70
     1
102
RTVSPropertyOp23
 70
     1
102
RTVSPropertyOp24
 70
     1
102
RTVSPropertyOp25
 70
     1
102
RTVSPropertyOp26
 70
     1
102
RTVSPropertyOp27
 70
     1
102
RTVSPropertyOp28
 70
     1
102
RTVSPropertyOp29
 70
     1
102
RTVSPropertyOp30
 70
     1
102
RTVSPropertyOp31
 70
     1
102
RTVSPropertyOp32
 70
     1
102
RTVSPropertyOp33
 70
     1
102
RTVSPropertyOp34
 70
     1
102
RTVSPropertyOp35
 70
     1
102
RTVSPropertyOp36
 70
     1
102
RTVSPropertyOp37
 70
     1
102
RTVSPropertyOp38
 70
     1
102
RTVSPropertyOp39
 70
     1
102
RTVSPropertyOp40
 70
     1
102
RTVSPropertyOp41
 70
     1
102
RTVSPropertyOp42
 70
     1
102
RTVSPropertyOp43
 70
     1
102
RTVSPropertyOp44
 70
     1
102
RTVSPropertyOp45
 70
     1
102
RTVSPropertyOp46
 70
     1
102
RTVSPropertyOp47
 70
     1
102
RTVSPropertyOp48
 70
     1
102
RTVSPropertyOp49
 70
     1
102
RTVSPropertyOp50
 70
     1
102
RTVSPropertyOp51
 70
     0
102
RTVSPropertyOp52
 70
     0
102
RTVSPropertyOp53
 70
     1
102
RTVSPropertyOp54
 70
     1
102
RTVSPropertyOp55
 70
     1
102
RTVSPropertyOp56
 70
     1
102
RTVSPropertyOp57
 70
     1
102
RTVSPropertyOp58
 70
     1
102
RTVSPropertyOp59
 70
     1
102
RTVSPropertyOp60
 70
     1
102
RTVSPropertyOp61
 70
     1
102
RTVSPropertyOp62
 70
     1
  0
XRECORD
  5
591
102
{ACAD_REACTORS
330
590
102
}
330
590
100
AcDbXrecord
280
     1
102
RTVSPost2010Prop28
280
     0
102
RTVSPost2010PropOp28
 70
     1
102
RTVSPost2010Prop29
280
     1
102
RTVSPost2010PropOp29
 70
     1
102
RTVSPost2010Prop30
280
     1
102
RTVSPost2010PropOp30
 70
     1
102
RTVSPost2010Prop31
280
     0
102
RTVSPost2010PropOp31
 70
     1
102
RTVSPost2010Prop32
280
     0
102
RTVSPost2010PropOp32
 70
     1
102
RTVSPost2010Prop33
280
     0
102
RTVSPost2010PropOp33
 70
     1
102
RTVSPost2010Prop34
280
     0
102
RTVSPost2010PropOp34
 70
     1
102
RTVSPost2010Prop35
280
     0
102
RTVSPost2010PropOp35
 70
     1
102
RTVSPost2010Prop36
280
     0
102
RTVSPost2010PropOp36
 70
     1
102
RTVSPost2010Prop37
 90
       50
102
RTVSPost2010PropOp37
 70
     1
102
RTVSPost2010Prop38
140
0.0
102
RTVSPost2010PropOp38
 70
     1
102
RTVSPost2010Prop39
140
1.0
102
RTVSPost2010PropOp39
 70
     1
102
RTVSPost2010Prop40
 90
        0
102
RTVSPost2010PropOp40
 70
     1
102
RTVSPost2010Prop41ColorIndex
 90
       18
102
RTVSPost2010Prop41ColorRGB
 90
        0
102
RTVSPost2010PropOp41
 70
     1
102
RTVSPost2010Prop42
 90
       50
102
RTVSPost2010PropOp42
 70
     1
102
RTVSPost2010Prop43
 90
        3
102
RTVSPost2010PropOp43
 70
     1
102
RTVSPost2010Prop44ColorIndex
 90
        5
102
RTVSPost2010Prop44ColorRGB
 90
      255
102
RTVSPost2010PropOp44
 70
     1
102
RTVSPost2010Prop45
280
     0
102
RTVSPost2010PropOp45
 70
     1
102
RTVSPost2010Prop46
 90
       50
102
RTVSPost2010PropOp46
 70
     1
102
RTVSPost2010Prop47
 90
       50
102
RTVSPost2010PropOp47
 70
     1
102
RTVSPost2010Prop48
 90
       50
102
RTVSPost2010PropOp48
 70
     1
102
RTVSPost2010Prop49
280
     0
102
RTVSPost2010PropOp49
 70
     1
102
RTVSPost2010Prop50
 90
       50
102
RTVSPost2010PropOp50
 70
     1
102
RTVSPost2010Prop51ColorIndex
 90
      256
102
RTVSPost2010Prop51ColorRGB
 90
-16777216
102
RTVSPost2010PropOp51
 70
     0
102
RTVSPost2010Prop52
140
1.0
102
RTVSPost2010PropOp52
 70
     0
102
RTVSPost2010Prop53
 90
        2
102
RTVSPost2010PropOp53
 70
     1
102
RTVSPost2010Prop54
  1
strokes_ogs.tif
102
RTVSPost2010PropOp54
 70
     1
102
RTVSPost2010Prop55
280
     0
102
RTVSPost2010PropOp55
 70
     1
102
RTVSPost2010Prop56
140
1.0
102
RTVSPost2010PropOp56
 70
     1
102
RTVSPost2010Prop57
140
1.0
102
RTVSPost2010PropOp57
 70
     1
102
RTVSPropertyOp0
 70
     1
102
RTVSPropertyOp1
 70
     1
102
RTVSPropertyOp2
 70
     1
102
RTVSPropertyOp3
 70
     1
102
RTVSPropertyOp4
 70
     1
102
RTVSPropertyOp5
 70
     1
102
RTVSPropertyOp6
 70
     1
102
RTVSPropertyOp7
 70
     1
102
RTVSPropertyOp8
 70
     1
102
RTVSPropertyOp9
 70
     1
102
RTVSPropertyOp10
 70
     1
102
RTVSPropertyOp11
 70
     1
102
RTVSPropertyOp12
 70
     1
102
RTVSPropertyOp13
 70
     1
102
RTVSPropertyOp14
 70
     1
102
RTVSPropertyOp15
 70
     1
102
RTVSPropertyOp16
 70
     1
102
RTVSPropertyOp17
 70
     1
102
RTVSPropertyOp18
 70
     1
102
RTVSPropertyOp19
 70
     1
102
RTVSPropertyOp20
 70
     1
102
RTVSPropertyOp21
 70
     1
102
RTVSPropertyOp22
 70
     1
102
RTVSPropertyOp23
 70
     1
102
RTVSPropertyOp24
 70
     1
102
RTVSPropertyOp25
 70
     1
102
RTVSPropertyOp26
 70
     1
102
RTVSPropertyOp27
 70
     1
102
RTVSPropertyOp28
 70
     1
102
RTVSPropertyOp29
 70
     1
102
RTVSPropertyOp30
 70
     1
102
RTVSPropertyOp31
 70
     1
102
RTVSPropertyOp32
 70
     1
102
RTVSPropertyOp33
 70
     1
102
RTVSPropertyOp34
 70
     1
102
RTVSPropertyOp35
 70
     1
102
RTVSPropertyOp36
 70
     1
102
RTVSPropertyOp37
 70
     1
102
RTVSPropertyOp38
 70
     1
102
RTVSPropertyOp39
 70
     1
102
RTVSPropertyOp40
 70
     1
102
RTVSPropertyOp41
 70
     1
102
RTVSPropertyOp42
 70
     1
102
RTVSPropertyOp43
 70
     1
102
RTVSPropertyOp44
 70
     1
102
RTVSPropertyOp45
 70
     1
102
RTVSPropertyOp46
 70
     1
102
RTVSPropertyOp47
 70
     1
102
RTVSPropertyOp48
 70
     1
102
RTVSPropertyOp49
 70
     1
102
RTVSPropertyOp50
 70
     1
102
RTVSPropertyOp51
 70
     0
102
RTVSPropertyOp52
 70
     0
102
RTVSPropertyOp53
 70
     1
102
RTVSPropertyOp54
 70
     1
102
RTVSPropertyOp55
 70
     1
102
RTVSPropertyOp56
 70
     1
102
RTVSPropertyOp57
 70
     1
102
RTVSPropertyOp58
 70
     1
102
RTVSPropertyOp59
 70
     1
102
RTVSPropertyOp60
 70
     1
102
RTVSPropertyOp61
 70
     1
102
RTVSPropertyOp62
 70
     1
  0
XRECORD
  5
58F
102
{ACAD_REACTORS
330
58E
102
}
330
58E
100
AcDbXrecord
280
     1
102
RTVSPost2010Prop28
280
     0
102
RTVSPost2010PropOp28
 70
     1
102
RTVSPost2010Prop29
280
     1
102
RTVSPost2010PropOp29
 70
     1
102
RTVSPost2010Prop30
280
     1
102
RTVSPost2010PropOp30
 70
     1
102
RTVSPost2010Prop31
280
     0
102
RTVSPost2010PropOp31
 70
     1
102
RTVSPost2010Prop32
280
     0
102
RTVSPost2010PropOp32
 70
     1
102
RTVSPost2010Prop33
280
     0
102
RTVSPost2010PropOp33
 70
     1
102
RTVSPost2010Prop34
280
     0
102
RTVSPost2010PropOp34
 70
     1
102
RTVSPost2010Prop35
280
     0
102
RTVSPost2010PropOp35
 70
     1
102
RTVSPost2010Prop36
280
     0
102
RTVSPost2010PropOp36
 70
     1
102
RTVSPost2010Prop37
 90
       50
102
RTVSPost2010PropOp37
 70
     1
102
RTVSPost2010Prop38
140
0.0
102
RTVSPost2010PropOp38
 70
     1
102
RTVSPost2010Prop39
140
1.0
102
RTVSPost2010PropOp39
 70
     1
102
RTVSPost2010Prop40
 90
        0
102
RTVSPost2010PropOp40
 70
     1
102
RTVSPost2010Prop41ColorIndex
 90
       18
102
RTVSPost2010Prop41ColorRGB
 90
        0
102
RTVSPost2010PropOp41
 70
     1
102
RTVSPost2010Prop42
 90
       50
102
RTVSPost2010PropOp42
 70
     1
102
RTVSPost2010Prop43
 90
        3
102
RTVSPost2010PropOp43
 70
     1
102
RTVSPost2010Prop44ColorIndex
 90
        5
102
RTVSPost2010Prop44ColorRGB
 90
      255
102
RTVSPost2010PropOp44
 70
     1
102
RTVSPost2010Prop45
280
     0
102
RTVSPost2010PropOp45
 70
     1
102
RTVSPost2010Prop46
 90
       50
102
RTVSPost2010PropOp46
 70
     1
102
RTVSPost2010Prop47
 90
       50
102
RTVSPost2010PropOp47
 70
     1
102
RTVSPost2010Prop48
 90
       50
102
RTVSPost2010PropOp48
 70
     1
102
RTVSPost2010Prop49
280
     0
102
RTVSPost2010PropOp49
 70
     1
102
RTVSPost2010Prop50
 90
       50
102
RTVSPost2010PropOp50
 70
     1
102
RTVSPost2010Prop51ColorIndex
 90
      256
102
RTVSPost2010Prop51ColorRGB
 90
-16777216
102
RTVSPost2010PropOp51
 70
     0
102
RTVSPost2010Prop52
140
1.0
102
RTVSPost2010PropOp52
 70
     0
102
RTVSPost2010Prop53
 90
        2
102
RTVSPost2010PropOp53
 70
     1
102
RTVSPost2010Prop54
  1
strokes_ogs.tif
102
RTVSPost2010PropOp54
 70
     1
102
RTVSPost2010Prop55
280
     0
102
RTVSPost2010PropOp55
 70
     1
102
RTVSPost2010Prop56
140
1.0
102
RTVSPost2010PropOp56
 70
     1
102
RTVSPost2010Prop57
140
1.0
102
RTVSPost2010PropOp57
 70
     1
102
RTVSPropertyOp0
 70
     1
102
RTVSPropertyOp1
 70
     1
102
RTVSPropertyOp2
 70
     1
102
RTVSPropertyOp3
 70
     1
102
RTVSPropertyOp4
 70
     1
102
RTVSPropertyOp5
 70
     1
102
RTVSPropertyOp6
 70
     1
102
RTVSPropertyOp7
 70
     1
102
RTVSPropertyOp8
 70
     1
102
RTVSPropertyOp9
 70
     1
102
RTVSPropertyOp10
 70
     1
102
RTVSPropertyOp11
 70
     1
102
RTVSPropertyOp12
 70
     1
102
RTVSPropertyOp13
 70
     1
102
RTVSPropertyOp14
 70
     1
102
RTVSPropertyOp15
 70
     1
102
RTVSPropertyOp16
 70
     1
102
RTVSPropertyOp17
 70
     1
102
RTVSPropertyOp18
 70
     1
102
RTVSPropertyOp19
 70
     1
102
RTVSPropertyOp20
 70
     1
102
RTVSPropertyOp21
 70
     1
102
RTVSPropertyOp22
 70
     1
102
RTVSPropertyOp23
 70
     1
102
RTVSPropertyOp24
 70
     1
102
RTVSPropertyOp25
 70
     1
102
RTVSPropertyOp26
 70
     1
102
RTVSPropertyOp27
 70
     1
102
RTVSPropertyOp28
 70
     1
102
RTVSPropertyOp29
 70
     1
102
RTVSPropertyOp30
 70
     1
102
RTVSPropertyOp31
 70
     1
102
RTVSPropertyOp32
 70
     1
102
RTVSPropertyOp33
 70
     1
102
RTVSPropertyOp34
 70
     1
102
RTVSPropertyOp35
 70
     1
102
RTVSPropertyOp36
 70
     1
102
RTVSPropertyOp37
 70
     1
102
RTVSPropertyOp38
 70
     1
102
RTVSPropertyOp39
 70
     1
102
RTVSPropertyOp40
 70
     1
102
RTVSPropertyOp41
 70
     1
102
RTVSPropertyOp42
 70
     1
102
RTVSPropertyOp43
 70
     1
102
RTVSPropertyOp44
 70
     1
102
RTVSPropertyOp45
 70
     1
102
RTVSPropertyOp46
 70
     1
102
RTVSPropertyOp47
 70
     1
102
RTVSPropertyOp48
 70
     1
102
RTVSPropertyOp49
 70
     1
102
RTVSPropertyOp50
 70
     1
102
RTVSPropertyOp51
 70
     0
102
RTVSPropertyOp52
 70
     0
102
RTVSPropertyOp53
 70
     1
102
RTVSPropertyOp54
 70
     1
102
RTVSPropertyOp55
 70
     1
102
RTVSPropertyOp56
 70
     1
102
RTVSPropertyOp57
 70
     1
102
RTVSPropertyOp58
 70
     1
102
RTVSPropertyOp59
 70
     1
102
RTVSPropertyOp60
 70
     1
102
RTVSPropertyOp61
 70
     1
102
RTVSPropertyOp62
 70
     1
  0
XRECORD
  5
589
102
{ACAD_REACTORS
330
588
102
}
330
588
100
AcDbXrecord
280
     1
102
RTVSPost2010Prop28
280
     0
102
RTVSPost2010PropOp28
 70
     1
102
RTVSPost2010Prop29
280
     1
102
RTVSPost2010PropOp29
 70
     1
102
RTVSPost2010Prop30
280
     1
102
RTVSPost2010PropOp30
 70
     1
102
RTVSPost2010Prop31
280
     0
102
RTVSPost2010PropOp31
 70
     1
102
RTVSPost2010Prop32
280
     0
102
RTVSPost2010PropOp32
 70
     1
102
RTVSPost2010Prop33
280
     0
102
RTVSPost2010PropOp33
 70
     1
102
RTVSPost2010Prop34
280
     0
102
RTVSPost2010PropOp34
 70
     1
102
RTVSPost2010Prop35
280
     0
102
RTVSPost2010PropOp35
 70
     1
102
RTVSPost2010Prop36
280
     0
102
RTVSPost2010PropOp36
 70
     1
102
RTVSPost2010Prop37
 90
       50
102
RTVSPost2010PropOp37
 70
     1
102
RTVSPost2010Prop38
140
0.0
102
RTVSPost2010PropOp38
 70
     1
102
RTVSPost2010Prop39
140
1.0
102
RTVSPost2010PropOp39
 70
     1
102
RTVSPost2010Prop40
 90
        0
102
RTVSPost2010PropOp40
 70
     1
102
RTVSPost2010Prop41ColorIndex
 90
       18
102
RTVSPost2010Prop41ColorRGB
 90
        0
102
RTVSPost2010PropOp41
 70
     1
102
RTVSPost2010Prop42
 90
       50
102
RTVSPost2010PropOp42
 70
     1
102
RTVSPost2010Prop43
 90
        3
102
RTVSPost2010PropOp43
 70
     1
102
RTVSPost2010Prop44ColorIndex
 90
        5
102
RTVSPost2010Prop44ColorRGB
 90
      255
102
RTVSPost2010PropOp44
 70
     1
102
RTVSPost2010Prop45
280
     0
102
RTVSPost2010PropOp45
 70
     1
102
RTVSPost2010Prop46
 90
       50
102
RTVSPost2010PropOp46
 70
     1
102
RTVSPost2010Prop47
 90
       50
102
RTVSPost2010PropOp47
 70
     1
102
RTVSPost2010Prop48
 90
       50
102
RTVSPost2010PropOp48
 70
     1
102
RTVSPost2010Prop49
280
     0
102
RTVSPost2010PropOp49
 70
     1
102
RTVSPost2010Prop50
 90
       50
102
RTVSPost2010PropOp50
 70
     1
102
RTVSPost2010Prop51ColorIndex
 90
      256
102
RTVSPost2010Prop51ColorRGB
 90
-16777216
102
RTVSPost2010PropOp51
 70
     0
102
RTVSPost2010Prop52
140
1.0
102
RTVSPost2010PropOp52
 70
     0
102
RTVSPost2010Prop53
 90
        2
102
RTVSPost2010PropOp53
 70
     1
102
RTVSPost2010Prop54
  1
strokes_ogs.tif
102
RTVSPost2010PropOp54
 70
     1
102
RTVSPost2010Prop55
280
     0
102
RTVSPost2010PropOp55
 70
     1
102
RTVSPost2010Prop56
140
1.0
102
RTVSPost2010PropOp56
 70
     1
102
RTVSPost2010Prop57
140
1.0
102
RTVSPost2010PropOp57
 70
     1
102
RTVSPropertyOp0
 70
     1
102
RTVSPropertyOp1
 70
     1
102
RTVSPropertyOp2
 70
     1
102
RTVSPropertyOp3
 70
     1
102
RTVSPropertyOp4
 70
     1
102
RTVSPropertyOp5
 70
     1
102
RTVSPropertyOp6
 70
     1
102
RTVSPropertyOp7
 70
     1
102
RTVSPropertyOp8
 70
     1
102
RTVSPropertyOp9
 70
     1
102
RTVSPropertyOp10
 70
     1
102
RTVSPropertyOp11
 70
     1
102
RTVSPropertyOp12
 70
     1
102
RTVSPropertyOp13
 70
     1
102
RTVSPropertyOp14
 70
     1
102
RTVSPropertyOp15
 70
     1
102
RTVSPropertyOp16
 70
     1
102
RTVSPropertyOp17
 70
     1
102
RTVSPropertyOp18
 70
     1
102
RTVSPropertyOp19
 70
     1
102
RTVSPropertyOp20
 70
     1
102
RTVSPropertyOp21
 70
     1
102
RTVSPropertyOp22
 70
     1
102
RTVSPropertyOp23
 70
     1
102
RTVSPropertyOp24
 70
     1
102
RTVSPropertyOp25
 70
     1
102
RTVSPropertyOp26
 70
     1
102
RTVSPropertyOp27
 70
     1
102
RTVSPropertyOp28
 70
     1
102
RTVSPropertyOp29
 70
     1
102
RTVSPropertyOp30
 70
     1
102
RTVSPropertyOp31
 70
     1
102
RTVSPropertyOp32
 70
     1
102
RTVSPropertyOp33
 70
     1
102
RTVSPropertyOp34
 70
     1
102
RTVSPropertyOp35
 70
     1
102
RTVSPropertyOp36
 70
     1
102
RTVSPropertyOp37
 70
     1
102
RTVSPropertyOp38
 70
     1
102
RTVSPropertyOp39
 70
     1
102
RTVSPropertyOp40
 70
     1
102
RTVSPropertyOp41
 70
     1
102
RTVSPropertyOp42
 70
     1
102
RTVSPropertyOp43
 70
     1
102
RTVSPropertyOp44
 70
     1
102
RTVSPropertyOp45
 70
     1
102
RTVSPropertyOp46
 70
     1
102
RTVSPropertyOp47
 70
     1
102
RTVSPropertyOp48
 70
     1
102
RTVSPropertyOp49
 70
     1
102
RTVSPropertyOp50
 70
     1
102
RTVSPropertyOp51
 70
     0
102
RTVSPropertyOp52
 70
     0
102
RTVSPropertyOp53
 70
     1
102
RTVSPropertyOp54
 70
     1
102
RTVSPropertyOp55
 70
     1
102
RTVSPropertyOp56
 70
     1
102
RTVSPropertyOp57
 70
     1
102
RTVSPropertyOp58
 70
     1
102
RTVSPropertyOp59
 70
     1
102
RTVSPropertyOp60
 70
     1
102
RTVSPropertyOp61
 70
     1
102
RTVSPropertyOp62
 70
     1
  0
XRECORD
  5
58B
102
{ACAD_REACTORS
330
58A
102
}
330
58A
100
AcDbXrecord
280
     1
102
RTVSPost2010Prop28
280
     0
102
RTVSPost2010PropOp28
 70
     1
102
RTVSPost2010Prop29
280
     1
102
RTVSPost2010PropOp29
 70
     1
102
RTVSPost2010Prop30
280
     1
102
RTVSPost2010PropOp30
 70
     1
102
RTVSPost2010Prop31
280
     0
102
RTVSPost2010PropOp31
 70
     1
102
RTVSPost2010Prop32
280
     0
102
RTVSPost2010PropOp32
 70
     1
102
RTVSPost2010Prop33
280
     0
102
RTVSPost2010PropOp33
 70
     1
102
RTVSPost2010Prop34
280
     0
102
RTVSPost2010PropOp34
 70
     1
102
RTVSPost2010Prop35
280
     0
102
RTVSPost2010PropOp35
 70
     1
102
RTVSPost2010Prop36
280
     0
102
RTVSPost2010PropOp36
 70
     1
102
RTVSPost2010Prop37
 90
       50
102
RTVSPost2010PropOp37
 70
     1
102
RTVSPost2010Prop38
140
0.0
102
RTVSPost2010PropOp38
 70
     1
102
RTVSPost2010Prop39
140
1.0
102
RTVSPost2010PropOp39
 70
     1
102
RTVSPost2010Prop40
 90
        0
102
RTVSPost2010PropOp40
 70
     1
102
RTVSPost2010Prop41ColorIndex
 90
       18
102
RTVSPost2010Prop41ColorRGB
 90
        0
102
RTVSPost2010PropOp41
 70
     1
102
RTVSPost2010Prop42
 90
       50
102
RTVSPost2010PropOp42
 70
     1
102
RTVSPost2010Prop43
 90
        3
102
RTVSPost2010PropOp43
 70
     1
102
RTVSPost2010Prop44ColorIndex
 90
        5
102
RTVSPost2010Prop44ColorRGB
 90
      255
102
RTVSPost2010PropOp44
 70
     1
102
RTVSPost2010Prop45
280
     0
102
RTVSPost2010PropOp45
 70
     1
102
RTVSPost2010Prop46
 90
       50
102
RTVSPost2010PropOp46
 70
     1
102
RTVSPost2010Prop47
 90
       50
102
RTVSPost2010PropOp47
 70
     1
102
RTVSPost2010Prop48
 90
       50
102
RTVSPost2010PropOp48
 70
     1
102
RTVSPost2010Prop49
280
     0
102
RTVSPost2010PropOp49
 70
     1
102
RTVSPost2010Prop50
 90
       50
102
RTVSPost2010PropOp50
 70
     1
102
RTVSPost2010Prop51ColorIndex
 90
      256
102
RTVSPost2010Prop51ColorRGB
 90
-16777216
102
RTVSPost2010PropOp51
 70
     0
102
RTVSPost2010Prop52
140
1.0
102
RTVSPost2010PropOp52
 70
     0
102
RTVSPost2010Prop53
 90
        2
102
RTVSPost2010PropOp53
 70
     1
102
RTVSPost2010Prop54
  1
strokes_ogs.tif
102
RTVSPost2010PropOp54
 70
     1
102
RTVSPost2010Prop55
280
     0
102
RTVSPost2010PropOp55
 70
     1
102
RTVSPost2010Prop56
140
1.0
102
RTVSPost2010PropOp56
 70
     1
102
RTVSPost2010Prop57
140
1.0
102
RTVSPost2010PropOp57
 70
     1
102
RTVSPropertyOp0
 70
     1
102
RTVSPropertyOp1
 70
     1
102
RTVSPropertyOp2
 70
     1
102
RTVSPropertyOp3
 70
     1
102
RTVSPropertyOp4
 70
     1
102
RTVSPropertyOp5
 70
     1
102
RTVSPropertyOp6
 70
     1
102
RTVSPropertyOp7
 70
     1
102
RTVSPropertyOp8
 70
     1
102
RTVSPropertyOp9
 70
     1
102
RTVSPropertyOp10
 70
     1
102
RTVSPropertyOp11
 70
     1
102
RTVSPropertyOp12
 70
     1
102
RTVSPropertyOp13
 70
     1
102
RTVSPropertyOp14
 70
     1
102
RTVSPropertyOp15
 70
     1
102
RTVSPropertyOp16
 70
     1
102
RTVSPropertyOp17
 70
     1
102
RTVSPropertyOp18
 70
     1
102
RTVSPropertyOp19
 70
     1
102
RTVSPropertyOp20
 70
     1
102
RTVSPropertyOp21
 70
     1
102
RTVSPropertyOp22
 70
     1
102
RTVSPropertyOp23
 70
     1
102
RTVSPropertyOp24
 70
     1
102
RTVSPropertyOp25
 70
     1
102
RTVSPropertyOp26
 70
     1
102
RTVSPropertyOp27
 70
     1
102
RTVSPropertyOp28
 70
     1
102
RTVSPropertyOp29
 70
     1
102
RTVSPropertyOp30
 70
     1
102
RTVSPropertyOp31
 70
     1
102
RTVSPropertyOp32
 70
     1
102
RTVSPropertyOp33
 70
     1
102
RTVSPropertyOp34
 70
     1
102
RTVSPropertyOp35
 70
     1
102
RTVSPropertyOp36
 70
     1
102
RTVSPropertyOp37
 70
     1
102
RTVSPropertyOp38
 70
     1
102
RTVSPropertyOp39
 70
     1
102
RTVSPropertyOp40
 70
     1
102
RTVSPropertyOp41
 70
     1
102
RTVSPropertyOp42
 70
     1
102
RTVSPropertyOp43
 70
     1
102
RTVSPropertyOp44
 70
     1
102
RTVSPropertyOp45
 70
     1
102
RTVSPropertyOp46
 70
     1
102
RTVSPropertyOp47
 70
     1
102
RTVSPropertyOp48
 70
     1
102
RTVSPropertyOp49
 70
     1
102
RTVSPropertyOp50
 70
     1
102
RTVSPropertyOp51
 70
     0
102
RTVSPropertyOp52
 70
     0
102
RTVSPropertyOp53
 70
     1
102
RTVSPropertyOp54
 70
     1
102
RTVSPropertyOp55
 70
     1
102
RTVSPropertyOp56
 70
     1
102
RTVSPropertyOp57
 70
     1
102
RTVSPropertyOp58
 70
     1
102
RTVSPropertyOp59
 70
     1
102
RTVSPropertyOp60
 70
     1
102
RTVSPropertyOp61
 70
     1
102
RTVSPropertyOp62
 70
     1
  0
XRECORD
  5
581
102
{ACAD_REACTORS
330
580
102
}
330
580
100
AcDbXrecord
280
     1
102
RTVSPost2010Prop28
280
     0
102
RTVSPost2010PropOp28
 70
     1
102
RTVSPost2010Prop29
280
     1
102
RTVSPost2010PropOp29
 70
     1
102
RTVSPost2010Prop30
280
     1
102
RTVSPost2010PropOp30
 70
     1
102
RTVSPost2010Prop31
280
     0
102
RTVSPost2010PropOp31
 70
     1
102
RTVSPost2010Prop32
280
     0
102
RTVSPost2010PropOp32
 70
     1
102
RTVSPost2010Prop33
280
     0
102
RTVSPost2010PropOp33
 70
     1
102
RTVSPost2010Prop34
280
     0
102
RTVSPost2010PropOp34
 70
     1
102
RTVSPost2010Prop35
280
     0
102
RTVSPost2010PropOp35
 70
     1
102
RTVSPost2010Prop36
280
     0
102
RTVSPost2010PropOp36
 70
     1
102
RTVSPost2010Prop37
 90
       50
102
RTVSPost2010PropOp37
 70
     1
102
RTVSPost2010Prop38
140
0.0
102
RTVSPost2010PropOp38
 70
     1
102
RTVSPost2010Prop39
140
1.0
102
RTVSPost2010PropOp39
 70
     1
102
RTVSPost2010Prop40
 90
        0
102
RTVSPost2010PropOp40
 70
     1
102
RTVSPost2010Prop41ColorIndex
 90
       18
102
RTVSPost2010Prop41ColorRGB
 90
        0
102
RTVSPost2010PropOp41
 70
     1
102
RTVSPost2010Prop42
 90
       50
102
RTVSPost2010PropOp42
 70
     1
102
RTVSPost2010Prop43
 90
        3
102
RTVSPost2010PropOp43
 70
     1
102
RTVSPost2010Prop44ColorIndex
 90
        5
102
RTVSPost2010Prop44ColorRGB
 90
      255
102
RTVSPost2010PropOp44
 70
     1
102
RTVSPost2010Prop45
280
     0
102
RTVSPost2010PropOp45
 70
     1
102
RTVSPost2010Prop46
 90
       50
102
RTVSPost2010PropOp46
 70
     1
102
RTVSPost2010Prop47
 90
       50
102
RTVSPost2010PropOp47
 70
     1
102
RTVSPost2010Prop48
 90
       50
102
RTVSPost2010PropOp48
 70
     1
102
RTVSPost2010Prop49
280
     0
102
RTVSPost2010PropOp49
 70
     1
102
RTVSPost2010Prop50
 90
       50
102
RTVSPost2010PropOp50
 70
     1
102
RTVSPost2010Prop51ColorIndex
 90
      256
102
RTVSPost2010Prop51ColorRGB
 90
-16777216
102
RTVSPost2010PropOp51
 70
     0
102
RTVSPost2010Prop52
140
1.0
102
RTVSPost2010PropOp52
 70
     0
102
RTVSPost2010Prop53
 90
        2
102
RTVSPost2010PropOp53
 70
     1
102
RTVSPost2010Prop54
  1
strokes_ogs.tif
102
RTVSPost2010PropOp54
 70
     1
102
RTVSPost2010Prop55
280
     0
102
RTVSPost2010PropOp55
 70
     1
102
RTVSPost2010Prop56
140
1.0
102
RTVSPost2010PropOp56
 70
     1
102
RTVSPost2010Prop57
140
1.0
102
RTVSPost2010PropOp57
 70
     1
102
RTVSPropertyOp0
 70
     1
102
RTVSPropertyOp1
 70
     1
102
RTVSPropertyOp2
 70
     1
102
RTVSPropertyOp3
 70
     1
102
RTVSPropertyOp4
 70
     1
102
RTVSPropertyOp5
 70
     1
102
RTVSPropertyOp6
 70
     1
102
RTVSPropertyOp7
 70
     1
102
RTVSPropertyOp8
 70
     1
102
RTVSPropertyOp9
 70
     1
102
RTVSPropertyOp10
 70
     1
102
RTVSPropertyOp11
 70
     1
102
RTVSPropertyOp12
 70
     1
102
RTVSPropertyOp13
 70
     1
102
RTVSPropertyOp14
 70
     1
102
RTVSPropertyOp15
 70
     1
102
RTVSPropertyOp16
 70
     1
102
RTVSPropertyOp17
 70
     1
102
RTVSPropertyOp18
 70
     1
102
RTVSPropertyOp19
 70
     1
102
RTVSPropertyOp20
 70
     1
102
RTVSPropertyOp21
 70
     1
102
RTVSPropertyOp22
 70
     1
102
RTVSPropertyOp23
 70
     1
102
RTVSPropertyOp24
 70
     1
102
RTVSPropertyOp25
 70
     1
102
RTVSPropertyOp26
 70
     1
102
RTVSPropertyOp27
 70
     1
102
RTVSPropertyOp28
 70
     1
102
RTVSPropertyOp29
 70
     1
102
RTVSPropertyOp30
 70
     1
102
RTVSPropertyOp31
 70
     1
102
RTVSPropertyOp32
 70
     1
102
RTVSPropertyOp33
 70
     1
102
RTVSPropertyOp34
 70
     1
102
RTVSPropertyOp35
 70
     1
102
RTVSPropertyOp36
 70
     1
102
RTVSPropertyOp37
 70
     1
102
RTVSPropertyOp38
 70
     1
102
RTVSPropertyOp39
 70
     1
102
RTVSPropertyOp40
 70
     1
102
RTVSPropertyOp41
 70
     1
102
RTVSPropertyOp42
 70
     1
102
RTVSPropertyOp43
 70
     1
102
RTVSPropertyOp44
 70
     1
102
RTVSPropertyOp45
 70
     1
102
RTVSPropertyOp46
 70
     1
102
RTVSPropertyOp47
 70
     1
102
RTVSPropertyOp48
 70
     1
102
RTVSPropertyOp49
 70
     1
102
RTVSPropertyOp50
 70
     1
102
RTVSPropertyOp51
 70
     0
102
RTVSPropertyOp52
 70
     0
102
RTVSPropertyOp53
 70
     1
102
RTVSPropertyOp54
 70
     1
102
RTVSPropertyOp55
 70
     1
102
RTVSPropertyOp56
 70
     1
102
RTVSPropertyOp57
 70
     1
102
RTVSPropertyOp58
 70
     1
102
RTVSPropertyOp59
 70
     1
102
RTVSPropertyOp60
 70
     1
102
RTVSPropertyOp61
 70
     1
102
RTVSPropertyOp62
 70
     1
  0
XRECORD
  5
575
102
{ACAD_REACTORS
330
574
102
}
330
574
100
AcDbXrecord
280
     1
102
RTVSPost2010Prop28
280
     0
102
RTVSPost2010PropOp28
 70
     1
102
RTVSPost2010Prop29
280
     1
102
RTVSPost2010PropOp29
 70
     1
102
RTVSPost2010Prop30
280
     1
102
RTVSPost2010PropOp30
 70
     1
102
RTVSPost2010Prop31
280
     0
102
RTVSPost2010PropOp31
 70
     1
102
RTVSPost2010Prop32
280
     0
102
RTVSPost2010PropOp32
 70
     1
102
RTVSPost2010Prop33
280
     0
102
RTVSPost2010PropOp33
 70
     1
102
RTVSPost2010Prop34
280
     0
102
RTVSPost2010PropOp34
 70
     1
102
RTVSPost2010Prop35
280
     0
102
RTVSPost2010PropOp35
 70
     1
102
RTVSPost2010Prop36
280
     0
102
RTVSPost2010PropOp36
 70
     1
102
RTVSPost2010Prop37
 90
       50
102
RTVSPost2010PropOp37
 70
     1
102
RTVSPost2010Prop38
140
0.0
102
RTVSPost2010PropOp38
 70
     1
102
RTVSPost2010Prop39
140
1.0
102
RTVSPost2010PropOp39
 70
     1
102
RTVSPost2010Prop40
 90
        0
102
RTVSPost2010PropOp40
 70
     1
102
RTVSPost2010Prop41ColorIndex
 90
       18
102
RTVSPost2010Prop41ColorRGB
 90
        0
102
RTVSPost2010PropOp41
 70
     1
102
RTVSPost2010Prop42
 90
       50
102
RTVSPost2010PropOp42
 70
     1
102
RTVSPost2010Prop43
 90
        3
102
RTVSPost2010PropOp43
 70
     1
102
RTVSPost2010Prop44ColorIndex
 90
        5
102
RTVSPost2010Prop44ColorRGB
 90
      255
102
RTVSPost2010PropOp44
 70
     1
102
RTVSPost2010Prop45
280
     0
102
RTVSPost2010PropOp45
 70
     1
102
RTVSPost2010Prop46
 90
       50
102
RTVSPost2010PropOp46
 70
     1
102
RTVSPost2010Prop47
 90
       50
102
RTVSPost2010PropOp47
 70
     1
102
RTVSPost2010Prop48
 90
       50
102
RTVSPost2010PropOp48
 70
     1
102
RTVSPost2010Prop49
280
     0
102
RTVSPost2010PropOp49
 70
     1
102
RTVSPost2010Prop50
 90
       50
102
RTVSPost2010PropOp50
 70
     1
102
RTVSPost2010Prop51ColorIndex
 90
      256
102
RTVSPost2010Prop51ColorRGB
 90
-16777216
102
RTVSPost2010PropOp51
 70
     0
102
RTVSPost2010Prop52
140
1.0
102
RTVSPost2010PropOp52
 70
     0
102
RTVSPost2010Prop53
 90
        2
102
RTVSPost2010PropOp53
 70
     1
102
RTVSPost2010Prop54
  1
strokes_ogs.tif
102
RTVSPost2010PropOp54
 70
     1
102
RTVSPost2010Prop55
280
     0
102
RTVSPost2010PropOp55
 70
     1
102
RTVSPost2010Prop56
140
1.0
102
RTVSPost2010PropOp56
 70
     1
102
RTVSPost2010Prop57
140
1.0
102
RTVSPost2010PropOp57
 70
     1
102
RTVSPropertyOp0
 70
     1
102
RTVSPropertyOp1
 70
     1
102
RTVSPropertyOp2
 70
     1
102
RTVSPropertyOp3
 70
     1
102
RTVSPropertyOp4
 70
     1
102
RTVSPropertyOp5
 70
     1
102
RTVSPropertyOp6
 70
     1
102
RTVSPropertyOp7
 70
     1
102
RTVSPropertyOp8
 70
     1
102
RTVSPropertyOp9
 70
     1
102
RTVSPropertyOp10
 70
     1
102
RTVSPropertyOp11
 70
     1
102
RTVSPropertyOp12
 70
     1
102
RTVSPropertyOp13
 70
     1
102
RTVSPropertyOp14
 70
     1
102
RTVSPropertyOp15
 70
     1
102
RTVSPropertyOp16
 70
     1
102
RTVSPropertyOp17
 70
     1
102
RTVSPropertyOp18
 70
     1
102
RTVSPropertyOp19
 70
     1
102
RTVSPropertyOp20
 70
     1
102
RTVSPropertyOp21
 70
     1
102
RTVSPropertyOp22
 70
     1
102
RTVSPropertyOp23
 70
     1
102
RTVSPropertyOp24
 70
     1
102
RTVSPropertyOp25
 70
     1
102
RTVSPropertyOp26
 70
     1
102
RTVSPropertyOp27
 70
     1
102
RTVSPropertyOp28
 70
     1
102
RTVSPropertyOp29
 70
     1
102
RTVSPropertyOp30
 70
     1
102
RTVSPropertyOp31
 70
     1
102
RTVSPropertyOp32
 70
     1
102
RTVSPropertyOp33
 70
     1
102
RTVSPropertyOp34
 70
     1
102
RTVSPropertyOp35
 70
     1
102
RTVSPropertyOp36
 70
     1
102
RTVSPropertyOp37
 70
     1
102
RTVSPropertyOp38
 70
     1
102
RTVSPropertyOp39
 70
     1
102
RTVSPropertyOp40
 70
     1
102
RTVSPropertyOp41
 70
     1
102
RTVSPropertyOp42
 70
     1
102
RTVSPropertyOp43
 70
     1
102
RTVSPropertyOp44
 70
     1
102
RTVSPropertyOp45
 70
     1
102
RTVSPropertyOp46
 70
     1
102
RTVSPropertyOp47
 70
     1
102
RTVSPropertyOp48
 70
     1
102
RTVSPropertyOp49
 70
     1
102
RTVSPropertyOp50
 70
     1
102
RTVSPropertyOp51
 70
     0
102
RTVSPropertyOp52
 70
     0
102
RTVSPropertyOp53
 70
     1
102
RTVSPropertyOp54
 70
     1
102
RTVSPropertyOp55
 70
     1
102
RTVSPropertyOp56
 70
     1
102
RTVSPropertyOp57
 70
     1
102
RTVSPropertyOp58
 70
     1
102
RTVSPropertyOp59
 70
     1
102
RTVSPropertyOp60
 70
     1
102
RTVSPropertyOp61
 70
     1
102
RTVSPropertyOp62
 70
     1
  0
XRECORD
  5
58D
102
{ACAD_REACTORS
330
58C
102
}
330
58C
100
AcDbXrecord
280
     1
102
RTVSPost2010Prop28
280
     0
102
RTVSPost2010PropOp28
 70
     1
102
RTVSPost2010Prop29
280
     1
102
RTVSPost2010PropOp29
 70
     1
102
RTVSPost2010Prop30
280
     1
102
RTVSPost2010PropOp30
 70
     1
102
RTVSPost2010Prop31
280
     0
102
RTVSPost2010PropOp31
 70
     1
102
RTVSPost2010Prop32
280
     0
102
RTVSPost2010PropOp32
 70
     1
102
RTVSPost2010Prop33
280
     0
102
RTVSPost2010PropOp33
 70
     1
102
RTVSPost2010Prop34
280
     0
102
RTVSPost2010PropOp34
 70
     1
102
RTVSPost2010Prop35
280
     0
102
RTVSPost2010PropOp35
 70
     1
102
RTVSPost2010Prop36
280
     0
102
RTVSPost2010PropOp36
 70
     1
102
RTVSPost2010Prop37
 90
       50
102
RTVSPost2010PropOp37
 70
     1
102
RTVSPost2010Prop38
140
0.0
102
RTVSPost2010PropOp38
 70
     1
102
RTVSPost2010Prop39
140
1.0
102
RTVSPost2010PropOp39
 70
     1
102
RTVSPost2010Prop40
 90
        0
102
RTVSPost2010PropOp40
 70
     1
102
RTVSPost2010Prop41ColorIndex
 90
       18
102
RTVSPost2010Prop41ColorRGB
 90
        0
102
RTVSPost2010PropOp41
 70
     1
102
RTVSPost2010Prop42
 90
       50
102
RTVSPost2010PropOp42
 70
     1
102
RTVSPost2010Prop43
 90
        3
102
RTVSPost2010PropOp43
 70
     1
102
RTVSPost2010Prop44ColorIndex
 90
        5
102
RTVSPost2010Prop44ColorRGB
 90
      255
102
RTVSPost2010PropOp44
 70
     1
102
RTVSPost2010Prop45
280
     0
102
RTVSPost2010PropOp45
 70
     1
102
RTVSPost2010Prop46
 90
       50
102
RTVSPost2010PropOp46
 70
     1
102
RTVSPost2010Prop47
 90
       50
102
RTVSPost2010PropOp47
 70
     1
102
RTVSPost2010Prop48
 90
       50
102
RTVSPost2010PropOp48
 70
     1
102
RTVSPost2010Prop49
280
     0
102
RTVSPost2010PropOp49
 70
     1
102
RTVSPost2010Prop50
 90
       50
102
RTVSPost2010PropOp50
 70
     1
102
RTVSPost2010Prop51ColorIndex
 90
      256
102
RTVSPost2010Prop51ColorRGB
 90
-16777216
102
RTVSPost2010PropOp51
 70
     0
102
RTVSPost2010Prop52
140
1.0
102
RTVSPost2010PropOp52
 70
     0
102
RTVSPost2010Prop53
 90
        2
102
RTVSPost2010PropOp53
 70
     1
102
RTVSPost2010Prop54
  1
strokes_ogs.tif
102
RTVSPost2010PropOp54
 70
     1
102
RTVSPost2010Prop55
280
     0
102
RTVSPost2010PropOp55
 70
     1
102
RTVSPost2010Prop56
140
1.0
102
RTVSPost2010PropOp56
 70
     1
102
RTVSPost2010Prop57
140
1.0
102
RTVSPost2010PropOp57
 70
     1
102
RTVSPropertyOp0
 70
     1
102
RTVSPropertyOp1
 70
     1
102
RTVSPropertyOp2
 70
     1
102
RTVSPropertyOp3
 70
     1
102
RTVSPropertyOp4
 70
     1
102
RTVSPropertyOp5
 70
     1
102
RTVSPropertyOp6
 70
     1
102
RTVSPropertyOp7
 70
     1
102
RTVSPropertyOp8
 70
     1
102
RTVSPropertyOp9
 70
     1
102
RTVSPropertyOp10
 70
     1
102
RTVSPropertyOp11
 70
     1
102
RTVSPropertyOp12
 70
     1
102
RTVSPropertyOp13
 70
     1
102
RTVSPropertyOp14
 70
     1
102
RTVSPropertyOp15
 70
     1
102
RTVSPropertyOp16
 70
     1
102
RTVSPropertyOp17
 70
     1
102
RTVSPropertyOp18
 70
     1
102
RTVSPropertyOp19
 70
     1
102
RTVSPropertyOp20
 70
     1
102
RTVSPropertyOp21
 70
     1
102
RTVSPropertyOp22
 70
     1
102
RTVSPropertyOp23
 70
     1
102
RTVSPropertyOp24
 70
     1
102
RTVSPropertyOp25
 70
     1
102
RTVSPropertyOp26
 70
     1
102
RTVSPropertyOp27
 70
     1
102
RTVSPropertyOp28
 70
     1
102
RTVSPropertyOp29
 70
     1
102
RTVSPropertyOp30
 70
     1
102
RTVSPropertyOp31
 70
     1
102
RTVSPropertyOp32
 70
     1
102
RTVSPropertyOp33
 70
     1
102
RTVSPropertyOp34
 70
     1
102
RTVSPropertyOp35
 70
     1
102
RTVSPropertyOp36
 70
     1
102
RTVSPropertyOp37
 70
     1
102
RTVSPropertyOp38
 70
     1
102
RTVSPropertyOp39
 70
     1
102
RTVSPropertyOp40
 70
     1
102
RTVSPropertyOp41
 70
     1
102
RTVSPropertyOp42
 70
     1
102
RTVSPropertyOp43
 70
     1
102
RTVSPropertyOp44
 70
     1
102
RTVSPropertyOp45
 70
     1
102
RTVSPropertyOp46
 70
     1
102
RTVSPropertyOp47
 70
     1
102
RTVSPropertyOp48
 70
     1
102
RTVSPropertyOp49
 70
     1
102
RTVSPropertyOp50
 70
     1
102
RTVSPropertyOp51
 70
     0
102
RTVSPropertyOp52
 70
     0
102
RTVSPropertyOp53
 70
     1
102
RTVSPropertyOp54
 70
     1
102
RTVSPropertyOp55
 70
     1
102
RTVSPropertyOp56
 70
     1
102
RTVSPropertyOp57
 70
     1
102
RTVSPropertyOp58
 70
     1
102
RTVSPropertyOp59
 70
     1
102
RTVSPropertyOp60
 70
     1
102
RTVSPropertyOp61
 70
     1
102
RTVSPropertyOp62
 70
     1
  0
ENDSEC
  0
EOF
