  0
SECTION
  2
HEADER
  9
$ACADVER
  1
AC1009
  9
$INSBASE
 10
6.4535234327000017
 20
12.7512100822
 30
0.0
  9
$EXTMIN
 10
-2.404976567299999
 20
1.814024915799999
 30
0.0
  9
$EXTMAX
 10
15.3120234327
 20
12.76169526898831
 30
0.0
  9
$LIMMIN
 10
0.0
 20
0.0
  9
$LIMMAX
 10
11.692913385800001
 20
8.2677165353999982
  9
$ORTHOMODE
 70
     0
  9
$REGENMODE
 70
     1
  9
$FILLMODE
 70
     1
  9
$QTEXTMODE
 70
     0
  9
$MIRRTEXT
 70
     0
  9
$DRAGMODE
 70
     2
  9
$LTSCALE
 40
0.6431102362
  9
$OSMODE
 70
  3071
  9
$ATTMODE
 70
     1
  9
$TEXTSIZE
 40
0.2
  9
$TRACEWID
 40
0.05
  9
$TEXTSTYLE
  7
STANDARD
  9
$CLAYER
  8
0
  9
$CELTYPE
  6
BYLAYER
  9
$CECOLOR
 62
   256
  9
$DIMSCALE
 40
1.0
  9
$DIMASZ
 40
0.1875
  9
$DIMEXO
 40
0.0625
  9
$DIMDLI
 40
0.4443307087
  9
$DIMRND
 40
0.0
  9
$DIMDLE
 40
0.0
  9
$DIMEXE
 40
0.125
  9
$DIMTP
 40
0.01
  9
$DIMTM
 40
0.01
  9
$DIMTXT
 40
0.15625
  9
$DIMCEN
 40
0.1052362205
  9
$DIMTSZ
 40
0.0
  9
$DIMTOL
 70
     1
  9
$DIMLIM
 70
     0
  9
$DIMTIH
 70
     1
  9
$DIMTOH
 70
     1
  9
$DIMSE1
 70
     0
  9
$DIMSE2
 70
     0
  9
$DIMTAD
 70
     0
  9
$DIMZIN
 70
     0
  9
$DIMBLK
  1

  9
$DIMASO
 70
     1
  9
$DIMSHO
 70
     1
  9
$DIMPOST
  1

  9
$DIMAPOST
  1

  9
$DIMALT
 70
     0
  9
$DIMALTD
 70
     2
  9
$DIMALTF
 40
25.399999999999999
  9
$DIMLFAC
 40
1.0
  9
$DIMTOFL
 70
     0
  9
$DIMTVP
 40
0.0
  9
$DIMTIX
 70
     0
  9
$DIMSOXD
 70
     0
  9
$DIMSAH
 70
     0
  9
$DIMBLK1
  1

  9
$DIMBLK2
  1

  9
$DIMSTYLE
  2
STANDARD
  9
$DIMCLRD
 70
     0
  9
$DIMCLRE
 70
     0
  9
$DIMCLRT
 70
     0
  9
$DIMTFAC
 40
1.0
  9
$DIMGAP
 40
0.09
  9
$LUNITS
 70
     2
  9
$LUPREC
 70
     4
  9
$SKETCHINC
 40
0.1
  9
$FILLETRAD
 40
0.0
  9
$AUNITS
 70
     0
  9
$AUPREC
 70
     0
  9
$MENU
  1
.
  9
$ELEVATION
 40
0.0
  9
$PELEVATION
 40
0.0
  9
$THICKNESS
 40
0.0
  9
$LIMCHECK
 70
     0
  9
$BLIPMODE
 70
     0
  9
$CHAMFERA
 40
0.0
  9
$CHAMFERB
 40
0.0
  9
$SKPOLY
 70
     0
  9
$TDCREATE
 40
2457644.4662282178
  9
$TDUPDATE
 40
2457646.7655462851
  9
$TDINDWG
 40
0.039176875
  9
$TDUSRTIMER
 40
0.039176875
  9
$USRTIMER
 70
     1
  9
$ANGBASE
 50
0.0
  9
$ANGDIR
 70
     0
  9
$PDMODE
 70
     0
  9
$PDSIZE
 40
0.3125
  9
$PLINEWID
 40
0.0
  9
$COORDS
 70
     1
  9
$SPLFRAME
 70
     0
  9
$SPLINETYPE
 70
     6
  9
$SPLINESEGS
 70
     8
  9
$ATTDIA
 70
     1
  9
$ATTREQ
 70
     1
  9
$HANDLING
 70
     1
  9
$HANDSEED
  5
8A9
  9
$SURFTAB1
 70
     6
  9
$SURFTAB2
 70
     6
  9
$SURFTYPE
 70
     6
  9
$SURFU
 70
     6
  9
$SURFV
 70
     6
  9
$UCSNAME
  2

  9
$UCSORG
 10
0.0
 20
0.0
 30
0.0
  9
$UCSXDIR
 10
1.0
 20
0.0
 30
0.0
  9
$UCSYDIR
 10
0.0
 20
1.0
 30
0.0
  9
$PUCSNAME
  2

  9
$PUCSORG
 10
0.0
 20
0.0
 30
0.0
  9
$PUCSXDIR
 10
1.0
 20
0.0
 30
0.0
  9
$PUCSYDIR
 10
0.0
 20
1.0
 30
0.0
  9
$USERI1
 70
     0
  9
$USERI2
 70
     0
  9
$USERI3
 70
     0
  9
$USERI4
 70
     0
  9
$USERI5
 70
     0
  9
$USERR1
 40
0.0
  9
$USERR2
 40
0.0
  9
$USERR3
 40
0.0
  9
$USERR4
 40
0.0
  9
$USERR5
 40
0.0
  9
$WORLDVIEW
 70
     1
  9
$SHADEDGE
 70
     3
  9
$SHADEDIF
 70
    70
  9
$TILEMODE
 70
     1
  9
$MAXACTVP
 70
    64
  9
$PLIMCHECK
 70
     0
  9
$PEXTMIN
 10
1.0000000000000000E+020
 20
1.0000000000000000E+020
 30
1.0000000000000000E+020
  9
$PEXTMAX
 10
-1.0000000000000000E+020
 20
-1.0000000000000000E+020
 30
-1.0000000000000000E+020
  9
$PLIMMIN
 10
0.0
 20
0.0
  9
$PLIMMAX
 10
12.0
 20
9.0
  9
$UNITMODE
 70
     0
  9
$VISRETAIN
 70
     1
  9
$PLINEGEN
 70
     0
  9
$PSLTSCALE
 70
     1
  0
ENDSEC
  0
SECTION
  2
TABLES
  0
TABLE
  2
VPORT
 70
     1
  0
VPORT
  2
*ACTIVE
 70
     0
 10
0.0
 20
0.0
 11
1.0
 21
1.0
 12
24.318254308911548
 22
-17.591571566680958
 13
0.0
 23
0.0
 14
1.0
 24
1.0
 15
0.0
 25
0.0
 16
-0.0000000000000604
 26
0.0
 36
274.30120954600909
 17
-17.864730834960941
 27
24.879364967346191
 37
0.0
 40
11.02165445035036
 41
2.132516703786191
 42
50.0
 43
0.0
 44
0.0
 50
0.0
 51
0.0
 71
     0
 72
   100
 73
     1
 74
     1
 75
     0
 76
     0
 77
     0
 78
     0
  0
ENDTAB
  0
TABLE
  2
LTYPE
 70
     1
  0
LTYPE
  2
CONTINUOUS
 70
     0
  3
Solid line
 72
    65
 73
     0
 40
0.0
  0
ENDTAB
  0
TABLE
  2
LAYER
 70
     2
  0
LAYER
  2
0
 70
     0
 62
     7
  6
CONTINUOUS
  0
LAYER
  2
DEFPOINTS
 70
     0
 62
     7
  6
CONTINUOUS
  0
ENDTAB
  0
TABLE
  2
STYLE
 70
     1
  0
STYLE
  2
STANDARD
 70
     0
 40
0.0
 41
0.8
 50
0.0
 71
     0
 42
0.2
  3
txt
  4

  0
ENDTAB
  0
TABLE
  2
VIEW
 70
     0
  0
ENDTAB
  0
TABLE
  2
UCS
 70
     0
  0
ENDTAB
  0
TABLE
  2
APPID
 70
     5
  0
APPID
  2
ACAD
 70
     0
  0
APPID
  2
ACAD_MLEADERVER
 70
     0
  0
APPID
  2
ACAD_EXEMPT_FROM_CAD_STANDARDS
 70
     0
  0
APPID
  2
ACAD_NAV_VCDISPLAY
 70
     0
  0
APPID
  2
ACDBATTR
 70
     0
  0
ENDTAB
  0
TABLE
  2
DIMSTYLE
 70
     1
  0
DIMSTYLE
  2
STANDARD
 70
     0
  3

  4

  5

  6

  7

 40
1.0
 41
0.1875
 42
0.0625
 43
0.38
 44
0.125
 45
0.0
 46
0.0
 47
0.01
 48
0.01
140
0.15625
141
0.09
142
0.0
143
25.399999999999999
144
1.0
145
0.0
146
1.0
147
0.09
 71
     1
 72
     0
 73
     1
 74
     1
 75
     0
 76
     0
 77
     0
 78
     4
170
     0
171
     2
172
     0
173
     0
174
     0
175
     0
176
     0
177
     0
178
     0
  0
ENDTAB
  0
ENDSEC
  0
SECTION
  2
BLOCKS
  0
BLOCK
  8
0
  2
$MODEL_SPACE
 70
     0
 10
0.0
 20
0.0
 30
0.0
  3
$MODEL_SPACE
  1

  0
ENDBLK
  5
21
  8
0
  0
BLOCK
 67
     1
  8
0
  2
$PAPER_SPACE
 70
     0
 10
0.0
 20
0.0
 30
0.0
  3
$PAPER_SPACE
  1

  0
ENDBLK
  5
1D
 67
     1
  8
0
  0
ENDSEC
  0
SECTION
  2
ENTITIES
  0
LINE
  5
4BA
  8
0
 10
6.4535234327000017
 20
12.7512100822
 30
0.0
 11
-2.4049765672999981
 21
12.7512100822
 31
0.0
  0
LINE
  5
4BB
  8
0
 10
-2.4049765672999981
 20
12.7512100822
 30
0.0
 11
-2.404976567299999
 21
12.7032100822
 31
0.0
  0
LINE
  5
4BC
  8
0
 10
-2.404976567299999
 20
12.7032100822
 30
0.0
 11
6.4535234326999991
 21
12.7032100822
 31
0.0
  0
ARC
  5
4BD
  8
0
 10
-1.8482532625999979
 20
12.6262100822
 30
0.0
 40
0.0769999999999964
 50
44.999999999699277
 51
90.000000000001364
  0
LINE
  5
4BE
  8
0
 10
-1.79380604044835
 20
12.68065730435108
 30
0.0
 11
-1.128884519552124
 21
12.01573578344787
 31
0.0
  0
ARC
  5
4BF
  8
0
 10
-1.183331741788451
 20
11.96128856121212
 30
0.0
 40
0.0770000001197512
 50
347.52459846042461
 51
44.999999999698787
  0
LINE
  5
4C0
  8
0
 10
-1.108149800999999
 20
11.9446549868
 30
0.0
 11
-1.813730083666083
 21
8.7555091232234226
 31
0.0
  0
ARC
  5
4C1
  8
0
 10
-1.522766197614456
 20
8.6911350275413604
 30
0.0
 40
0.2980000120489045
 50
167.5245984604245
 51
224.99999663593439
  0
LINE
  5
4C9
  8
0
 10
-1.7334840392999999
 20
8.4804172105999989
 30
0.0
 11
-1.1288845550493249
 21
7.8758176553523871
 31
0.0
  0
ARC
  5
4CA
  8
0
 10
-1.183331827625695
 20
7.821370389169652
 30
0.0
 40
0.0770000667907441
 50
347.52466989260029
 51
44.999996635934593
  0
LINE
  5
4CB
  8
0
 10
-1.10814980100295
 20
7.8047368940866599
 30
0.0
 11
-1.8137261076543441
 21
4.6155901509416291
 31
0.0
  0
ARC
  5
4CC
  8
0
 10
-1.5227568556808491
 20
4.5512152485957689
 30
0.0
 40
0.2980054255312385
 50
167.5246698926002
 51
224.99849734025551
  0
LINE
  5
4CD
  8
0
 10
-1.7334840392939579
 20
4.3404991179067762
 30
0.0
 11
-1.1170455127198959
 21
3.7240282566071552
 31
0.0
  0
ARC
  5
4CE
  8
0
 10
-1.171536697300017
 20
3.669539930162931
 30
0.0
 40
0.0770601512822105
 50
0.0425824745754078
 51
44.998497340255618
  0
LINE
  5
4CF
  8
0
 10
-1.0944765673000001
 20
3.6695972015999998
 30
0.0
 11
-1.0941924728970469
 21
3.287341181070107
 31
0.0
  0
ARC
  5
4D0
  8
0
 10
-0.7960592893013448
 20
3.2875627550002609
 30
0.0
 40
0.2981332659330651
 50
180.0425824745752
 51
263.24957654580572
  0
ARC
  5
4D2
  8
0
 10
-0.805883622522225
 20
3.2716945696134441
 30
0.0
 40
0.2887331114619999
 50
176.89358747723631
 51
267.17504128215319
  0
ARC
  5
4D3
  8
0
 10
-318.05718153951352
 20
-3968.24322487274
 30
0.0
 40
3983.8774538122921
 50
85.382540670737768
 51
85.432688478953906
  0
LINE
  5
4D5
  8
0
 10
2.65555790640235
 20
2.7041313321999989
 30
0.0
 11
2.6789094523126309
 21
2.6993532373006941
 31
0.0
  0
LINE
  5
4D6
  8
0
 10
2.6789094523126309
 20
2.6993532373006941
 30
0.0
 11
4.2926942859999997
 21
2.0534092361999998
 31
0.0
  0
LINE
  5
4D7
  8
0
 10
4.2926942859999997
 20
2.0534092361999998
 30
0.0
 11
4.3038911488
 21
2.0458577775999989
 31
0.0
  0
LINE
  5
4D8
  8
0
 10
4.3038911488
 20
2.0458577775999989
 30
0.0
 11
4.383891148722368
 21
1.9624958714251051
 31
0.0
  0
ARC
  5
4D9
  8
0
 10
4.4401686101999989
 20
2.016503716499999
 30
0.0
 40
0.0780000000000002
 50
223.8210479546257
 51
252.00000006888311
  0
LINE
  5
4DA
  8
0
 10
4.4160652847279378
 20
1.9423213081999999
 30
0.0
 11
4.8109209797443491
 21
1.814024916244261
 31
0.0
  0
LINE
  5
4DB
  8
0
 10
4.8109209797443491
 20
1.814024916244261
 30
0.0
 11
6.4535234327000017
 21
1.814024915799999
 31
0.0
  0
LINE
  5
4F9
  8
0
 10
6.4535234327000017
 20
12.7512100822
 30
0.0
 11
15.3120234327
 21
12.7512100822
 31
0.0
  0
LINE
  5
4FA
  8
0
 10
15.3120234327
 20
12.7512100822
 30
0.0
 11
15.3120234327
 21
12.7032100822
 31
0.0
  0
LINE
  5
4FB
  8
0
 10
15.3120234327
 20
12.7032100822
 30
0.0
 11
6.4535234327000053
 21
12.7032100822
 31
0.0
  0
ARC
  5
4FC
  8
0
 10
14.755300128
 20
12.6262100822
 30
0.0
 40
0.0769999999999964
 50
89.999999999998678
 51
135.0000000003007
  0
LINE
  5
4FD
  8
0
 10
14.70085290584835
 20
12.68065730435108
 30
0.0
 11
14.03593138495213
 21
12.01573578344787
 31
0.0
  0
ARC
  5
4FE
  8
0
 10
14.090378607188461
 20
11.96128856121212
 30
0.0
 40
0.0770000001197512
 50
135.00000000030121
 51
192.47540153957539
  0
LINE
  5
4FF
  8
0
 10
14.0151966664
 20
11.9446549868
 30
0.0
 11
14.72077694906609
 21
8.7555091232234226
 31
0.0
  0
ARC
  5
500
  8
0
 10
14.429813063014461
 20
8.6911350275413604
 30
0.0
 40
0.2980000120489045
 50
315.00000336406549
 51
12.475401539575479
  0
LINE
  5
501
  8
0
 10
14.6405309047
 20
8.4804172105999989
 30
0.0
 11
14.03593142044933
 21
7.8758176553523871
 31
0.0
  0
ARC
  5
502
  8
0
 10
14.0903786930257
 20
7.821370389169652
 30
0.0
 40
0.0770000667907441
 50
135.00000336406541
 51
192.47533010739971
  0
LINE
  5
503
  8
0
 10
14.01519666640295
 20
7.8047368940866599
 30
0.0
 11
14.72077297305435
 21
4.6155901509416291
 31
0.0
  0
ARC
  5
504
  8
0
 10
14.42980372108085
 20
4.5512152485957689
 30
0.0
 40
0.2980054255312385
 50
315.0015026597444
 51
12.475330107399779
  0
LINE
  5
505
  8
0
 10
14.640530904693961
 20
4.3404991179067762
 30
0.0
 11
14.024092378119899
 21
3.7240282566071552
 31
0.0
  0
ARC
  5
506
  8
0
 10
14.07858356270002
 20
3.669539930162931
 30
0.0
 40
0.0770601512822105
 50
135.00150265974429
 51
179.9574175254246
  0
LINE
  5
507
  8
0
 10
14.001523432700001
 20
3.6695972015999998
 30
0.0
 11
14.001239338297051
 21
3.287341181070107
 31
0.0
  0
ARC
  5
508
  8
0
 10
13.70310615470135
 20
3.2875627550002609
 30
0.0
 40
0.2981332659330651
 50
276.75042345419428
 51
359.95741752542477
  0
ARC
  5
50A
  8
0
 10
13.7027061016917
 20
3.279147114320506
 30
0.0
 40
0.2986456697961038
 50
275.2948247599507
 51
1.5722456910230049
  0
LINE
  5
513
  8
0
 10
8.5461258859000004
 20
1.8140249157999999
 30
0.0
 11
6.4535234327000017
 21
1.814024915799999
 31
0.0
  0
LINE
  5
515
  8
0
 10
8.5461258859000004
 20
1.8140249157999999
 30
0.0
 11
8.9409815808622817
 21
1.942321308229314
 31
0.0
  0
ARC
  5
516
  8
0
 10
8.9168782553155008
 20
2.016503716475281
 30
0.0
 40
0.0779999999717018
 50
287.99999999558179
 51
316.17895201501688
  0
LINE
  5
517
  8
0
 10
8.9731557167440972
 20
1.962495871390163
 30
0.0
 11
9.0531557167441683
 21
2.0458577775576119
 31
0.0
  0
LINE
  5
518
  8
0
 10
9.0531557167441683
 20
2.0458577775576119
 30
0.0
 11
9.0643525795000013
 21
2.0534092361999998
 31
0.0
  0
LINE
  5
519
  8
0
 10
9.0643525795000013
 20
2.0534092361999998
 30
0.0
 11
10.67860917374931
 21
2.6995420672001922
 31
0.0
  0
LINE
  5
51A
  8
0
 10
10.67860917374931
 20
2.6995420672001922
 30
0.0
 11
10.7013670239
 21
2.7041917260999999
 31
0.0
  0
LINE
  5
51B
  8
0
 10
10.7013670239
 20
2.7041917260999999
 30
0.0
 11
13.730265317700001
 21
2.9817757544000001
 31
0.0
  0
ATTDEF
  5
755
  8
DEFPOINTS
 10
6.450024735009193
 20
12.760695268988311
 30
0.0
 40
0.001
  1
K-5540
  3

  2
MODELNUMBER
 70
     0
1001
ACDBATTR
1070
     0
1070
     1
  0
ATTDEF
  5
756
  8
DEFPOINTS
 10
6.450024735009193
 20
12.75902860232164
 30
0.0
 40
0.001
  1
PROLIFIC
  3

  2
TRADENAME
 70
     0
1001
ACDBATTR
1070
     0
1070
     1
  0
ATTDEF
  5
757
  8
DEFPOINTS
 10
6.450024735009193
 20
12.757361935654981
 30
0.0
 40
0.001
  1
KITCHEN SINK
  3

  2
PRODUCT
 70
     0
1001
ACDBATTR
1070
     0
1070
     1
  0
ATTDEF
  5
758
  8
DEFPOINTS
 10
6.450024735009193
 20
12.75569526898831
 30
0.0
 40
0.001
  1
STAINLESS STEEL
  3

  2
MATERIAL
 70
     0
1001
ACDBATTR
1070
     0
1070
     1
  0
ENDSEC
  0
EOF
