  0
SECTION
  2
HEADER
  9
$ACADVER
  1
AC1009
  9
$INSBASE
 10
1109.639315007831101
 20
305.8731611350303865
 30
0.0
  9
$EXTMIN
 10
1069.639315007831101
 20
305.8689994225413216
 30
0.0
  9
$EXTMAX
 10
1109.6539131905510658
 20
341.8731611350303865
 30
0.0
  9
$LIMMIN
 10
0.0
 20
0.0
  9
$LIMMAX
 10
11.6929133858000007
 20
8.2677165353999982
  9
$ORTHOMODE
 70
     0
  9
$REGENMODE
 70
     1
  9
$FILLMODE
 70
     1
  9
$QTEXTMODE
 70
     0
  9
$MIRRTEXT
 70
     0
  9
$DRAGMODE
 70
     2
  9
$LTSCALE
 40
0.6431102362
  9
$OSMODE
 70
  4095
  9
$ATTMODE
 70
     1
  9
$TEXTSIZE
 40
0.2
  9
$TRACEWID
 40
0.05
  9
$TEXTSTYLE
  7
STANDARD
  9
$CLAYER
  8
0
  9
$CELTYPE
  6
BYLAYER
  9
$CECOLOR
 62
   256
  9
$DIMSCALE
 40
1.0
  9
$DIMASZ
 40
0.1875
  9
$DIMEXO
 40
0.0625
  9
$DIMDLI
 40
0.4443307087
  9
$DIMRND
 40
0.0
  9
$DIMDLE
 40
0.0
  9
$DIMEXE
 40
0.125
  9
$DIMTP
 40
0.01
  9
$DIMTM
 40
0.01
  9
$DIMTXT
 40
1.0
  9
$DIMCEN
 40
0.1052362205
  9
$DIMTSZ
 40
0.0
  9
$DIMTOL
 70
     1
  9
$DIMLIM
 70
     0
  9
$DIMTIH
 70
     0
  9
$DIMTOH
 70
     1
  9
$DIMSE1
 70
     0
  9
$DIMSE2
 70
     0
  9
$DIMTAD
 70
     0
  9
$DIMZIN
 70
     0
  9
$DIMBLK
  1

  9
$DIMASO
 70
     1
  9
$DIMSHO
 70
     1
  9
$DIMPOST
  1
\X
  9
$DIMAPOST
  1

  9
$DIMALT
 70
     1
  9
$DIMALTD
 70
     2
  9
$DIMALTF
 40
25.3999999999999986
  9
$DIMLFAC
 40
1.0
  9
$DIMTOFL
 70
     0
  9
$DIMTVP
 40
0.0
  9
$DIMTIX
 70
     0
  9
$DIMSOXD
 70
     0
  9
$DIMSAH
 70
     0
  9
$DIMBLK1
  1

  9
$DIMBLK2
  1

  9
$DIMSTYLE
  2
STANDARD
  9
$DIMCLRD
 70
     0
  9
$DIMCLRE
 70
     0
  9
$DIMCLRT
 70
     0
  9
$DIMTFAC
 40
1.0
  9
$DIMGAP
 40
0.09
  9
$LUNITS
 70
     2
  9
$LUPREC
 70
     4
  9
$SKETCHINC
 40
0.1
  9
$FILLETRAD
 40
0.0
  9
$AUNITS
 70
     0
  9
$AUPREC
 70
     0
  9
$MENU
  1
.
  9
$ELEVATION
 40
0.0
  9
$PELEVATION
 40
0.0
  9
$THICKNESS
 40
0.0
  9
$LIMCHECK
 70
     0
  9
$BLIPMODE
 70
     0
  9
$CHAMFERA
 40
0.0
  9
$CHAMFERB
 40
0.0
  9
$SKPOLY
 70
     0
  9
$TDCREATE
 40
2458172.5207638889551163
  9
$TDUPDATE
 40
2458677.9407870369032025
  9
$TDINDWG
 40
0.4632307755
  9
$TDUSRTIMER
 40
0.4632307755
  9
$USRTIMER
 70
     1
  9
$ANGBASE
 50
0.0
  9
$ANGDIR
 70
     0
  9
$PDMODE
 70
     0
  9
$PDSIZE
 40
0.3125
  9
$PLINEWID
 40
0.0
  9
$COORDS
 70
     1
  9
$SPLFRAME
 70
     0
  9
$SPLINETYPE
 70
     6
  9
$SPLINESEGS
 70
     8
  9
$ATTDIA
 70
     1
  9
$ATTREQ
 70
     1
  9
$HANDLING
 70
     1
  9
$HANDSEED
  5
CC6C
  9
$SURFTAB1
 70
     6
  9
$SURFTAB2
 70
     6
  9
$SURFTYPE
 70
     6
  9
$SURFU
 70
     6
  9
$SURFV
 70
     6
  9
$UCSNAME
  2

  9
$UCSORG
 10
0.0
 20
0.0
 30
0.0
  9
$UCSXDIR
 10
1.0
 20
0.0
 30
0.0
  9
$UCSYDIR
 10
0.0
 20
1.0
 30
0.0
  9
$PUCSNAME
  2

  9
$PUCSORG
 10
0.0
 20
0.0
 30
0.0
  9
$PUCSXDIR
 10
1.0
 20
0.0
 30
0.0
  9
$PUCSYDIR
 10
0.0
 20
1.0
 30
0.0
  9
$USERI1
 70
     0
  9
$USERI2
 70
     0
  9
$USERI3
 70
     0
  9
$USERI4
 70
     0
  9
$USERI5
 70
     0
  9
$USERR1
 40
0.0
  9
$USERR2
 40
0.0
  9
$USERR3
 40
0.0
  9
$USERR4
 40
0.0
  9
$USERR5
 40
0.0
  9
$WORLDVIEW
 70
     1
  9
$SHADEDGE
 70
     3
  9
$SHADEDIF
 70
    70
  9
$TILEMODE
 70
     1
  9
$MAXACTVP
 70
    64
  9
$PLIMCHECK
 70
     0
  9
$PEXTMIN
 10
1.0000000000000000E+20
 20
1.0000000000000000E+20
 30
1.0000000000000000E+20
  9
$PEXTMAX
 10
-1.0000000000000000E+20
 20
-1.0000000000000000E+20
 30
-1.0000000000000000E+20
  9
$PLIMMIN
 10
0.0
 20
0.0
  9
$PLIMMAX
 10
12.0
 20
9.0
  9
$UNITMODE
 70
     0
  9
$VISRETAIN
 70
     1
  9
$PLINEGEN
 70
     0
  9
$PSLTSCALE
 70
     1
  0
ENDSEC
  0
SECTION
  2
TABLES
  0
TABLE
  2
VPORT
 70
     1
  0
VPORT
  2
*ACTIVE
 70
     0
 10
0.0
 20
0.0
 11
1.0
 21
1.0
 12
0.0
 22
0.0
 13
0.0
 23
0.0
 14
1.0
 24
1.0
 15
0.0
 25
0.0
 16
0.0
 26
0.0
 36
154.264712273069307
 17
1089.646597708715035
 27
323.8710841839268824
 37
0.0
 40
53.8281609776336296
 41
2.1491525423728808
 42
50.0
 43
0.0
 44
0.0
 50
0.0
 51
0.0
 71
     0
 72
   100
 73
     1
 74
     1
 75
     0
 76
     0
 77
     0
 78
     0
  0
ENDTAB
  0
TABLE
  2
LTYPE
 70
     2
  0
LTYPE
  2
CONTINUOUS
 70
     0
  3
Solid line
 72
    65
 73
     0
 40
0.0
  0
LTYPE
  2
PHANTOM2
 70
     0
  3
___ _ _ ___ _ _ ___ _ _ ___ _ _
 72
    65
 73
     6
 40
1.25
 49
0.625
 49
-0.125
 49
0.125
 49
-0.125
 49
0.125
 49
-0.125
  0
ENDTAB
  0
TABLE
  2
LAYER
 70
     2
  0
LAYER
  2
0
 70
     0
 62
   255
  6
CONTINUOUS
  0
LAYER
  2
DEFPOINTS
 70
     0
 62
     7
  6
CONTINUOUS
  0
ENDTAB
  0
TABLE
  2
STYLE
 70
     1
  0
STYLE
  2
STANDARD
 70
     0
 40
0.0
 41
0.8
 50
0.0
 71
     0
 42
0.2
  3
txt
  4

  0
ENDTAB
  0
TABLE
  2
VIEW
 70
     0
  0
ENDTAB
  0
TABLE
  2
UCS
 70
     0
  0
ENDTAB
  0
TABLE
  2
APPID
 70
    10
  0
APPID
  2
ACAD
 70
     0
  0
APPID
  2
ACAD_MLEADERVER
 70
     0
  0
APPID
  2
ACAD_EXEMPT_FROM_CAD_STANDARDS
 70
     0
  0
APPID
  2
ACAD_DSTYLE_DIMJAG
 70
     0
  0
APPID
  2
ACAD_DSTYLE_DIMTALN
 70
     0
  0
APPID
  2
ACAD_NAV_VCDISPLAY
 70
     0
  0
APPID
  2
ACAECLAYERSTANDARD
 70
     0
  0
APPID
  2
ACCMTRANSPARENCY
 70
     0
  0
APPID
  2
DCO15
 70
     0
  0
APPID
  2
ACDBATTR
 70
     0
  0
ENDTAB
  0
TABLE
  2
DIMSTYLE
 70
     1
  0
DIMSTYLE
  2
STANDARD
 70
     0
  3

  4

  5

  6

  7

 40
1.0
 41
0.1875
 42
0.0625
 43
0.38
 44
0.125
 45
0.0
 46
0.0
 47
0.01
 48
0.01
140
0.15625
141
0.09
142
0.0
143
25.3999999999999986
144
1.0
145
0.0
146
1.0
147
0.09
 71
     1
 72
     0
 73
     1
 74
     1
 75
     0
 76
     0
 77
     0
 78
     4
170
     0
171
     2
172
     0
173
     0
174
     0
175
     0
176
     0
177
     0
178
     0
  0
ENDTAB
  0
ENDSEC
  0
SECTION
  2
BLOCKS
  0
BLOCK
  8
0
  2
$MODEL_SPACE
 70
     0
 10
0.0
 20
0.0
 30
0.0
  3
$MODEL_SPACE
  1

  0
ENDBLK
  5
21
  8
0
  0
BLOCK
 67
     1
  8
0
  2
$PAPER_SPACE
 70
     0
 10
0.0
 20
0.0
 30
0.0
  3
$PAPER_SPACE
  1

  0
ENDBLK
  5
1D
 67
     1
  8
0
  0
BLOCK
  8
0
  2
A$C4A1166C9
 70
     0
 10
0.0
 20
0.0
 30
0.0
  3
A$C4A1166C9
  1

  0
LINE
  5
C78F
  8
0
 10
318.1453520862468736
 20
61.5796150536564397
 30
0.0
 11
296.4917947165469059
 21
61.5796150536564397
 31
0.0
  0
LINE
  5
C790
  8
0
 10
296.4917947165469059
 20
61.5796150536564397
 30
0.0
 11
296.491788936346893
 21
62.1107016678564392
 31
0.0
  0
LINE
  5
C791
  8
0
 10
318.1453520862468736
 20
61.5796150536564397
 30
0.0
 11
318.1452959800469102
 21
62.1107016678564392
 31
0.0
  0
LINE
  5
C792
  8
0
 10
318.3261930263583963
 20
62.1107016678564392
 30
0.0
 11
296.294909177900081
 21
62.1107016678564392
 31
0.0
  0
ARC
  5
C793
  8
0
 10
181.1854469489609869
 20
56.6223121909149896
 30
0.0
 40
115.2402304479044943
 50
2.729780656044984
 51
6.655312661057148
  0
ARC
  5
C794
  8
0
 10
257.266376300702575
 20
66.1226652510522399
 30
0.0
 40
38.5758948429868198
 50
5.7361091814991152
 51
12.3066947012056094
  0
ARC
  5
C795
  8
0
 10
284.0298804240491108
 20
72.1463937153014854
 30
0.0
 40
11.1449398868450391
 50
11.3771037310086705
 51
28.6906399920914801
  0
ARC
  5
C796
  8
0
 10
293.9425940827342743
 20
77.5810161420070727
 30
0.0
 40
0.1600162491429537
 50
90.024470150017379
 51
211.7309283259490087
  0
LINE
  5
C797
  8
0
 10
293.9425257422469144
 20
77.741032376556447
 30
0.0
 11
318.7295873431468749
 21
77.741028676256434
 31
0.0
  0
LINE
  5
C798
  8
0
 10
318.7295873434929945
 20
77.741028676256434
 30
0.0
 11
318.7295873434929945
 21
76.1410323765564385
 31
0.0
  0
ARC
  5
C799
  8
0
 10
-86.3638198176551839
 20
80.7671474924284354
 30
0.0
 40
405.1198211227056731
 50
357.8954407386249841
 51
359.345717936735582
  0
LINE
  5
C79A
  8
0
 10
318.4794904428371751
 20
77.7410287135917883
 30
0.0
 11
318.4794865150564078
 21
76.1410296436401381
 31
0.0
  0
LINE
  5
C79B
  8
0
 10
318.4794865150564078
 20
76.1410296436401381
 30
0.0
 11
318.1615610776610197
 21
62.1107016678564392
 31
0.0
  0
LINE
  5
C79C
  8
0
 10
318.3991328032328738
 20
77.6229210847504731
 30
0.0
 11
318.4128880561166852
 21
76.1410323765564385
 31
0.0
  0
LINE
  5
C79D
  8
0
 10
318.4128880561166852
 20
76.1410323765564385
 30
0.0
 11
318.1079728260468755
 21
62.2731472447564371
 31
0.0
  0
ARC
  5
C79E
  8
0
 10
317.8503184660161196
 20
62.2788123290660209
 30
0.0
 40
0.2577166320264852
 50
330.1147480982692741
 51
358.7404322155688874
  0
LINE
  5
C79F
  8
0
 10
318.0737652372469029
 20
62.1504012592564408
 30
0.0
 11
310.045180976346785
 21
62.1504023005564434
 31
0.0
  0
ARC
  5
C7A0
  8
0
 10
310.0451820740051971
 20
62.2291424605464769
 30
0.0
 40
0.0787401599976905
 50
237.1143919427098012
 51
269.9992012819396905
  0
LINE
  5
C7A1
  8
0
 10
310.002419616844918
 20
62.1107016678564392
 30
0.0
 11
310.0084700888319276
 21
77.7410299781755896
 31
0.0
  0
ARC
  5
C7A2
  8
0
 10
171.9474994882396004
 20
76.9703763482669103
 30
0.0
 40
146.7841109253924969
 50
0.3008181774329667
 51
2.3198252359236129
  0
ARC
  5
C7A3
  8
0
 10
318.4737698070342162
 20
82.906262173977197
 30
0.0
 40
0.137656368617386
 50
2.31982523592524
 51
108.9237488038147035
  0
ARC
  5
C7A4
  8
0
 10
300.7354963871172799
 20
135.8097993674952022
 30
0.0
 40
55.6604703392299811
 50
282.2888868216074911
 51
288.5350684323194059
  0
ARC
  5
C7A5
  8
0
 10
312.5902780643563119
 20
81.3869188103613652
 30
0.0
 40
0.038594963609372
 50
101.9002064501132025
 51
165.6817329863224018
  0
LINE
  5
C7A6
  8
0
 10
312.5528819786468944
 20
81.3964636513564557
 30
0.0
 11
312.3760588893467798
 21
80.7365508983564553
 31
0.0
  0
ARC
  5
C7A7
  8
0
 10
335.6014253425747143
 20
74.4106104757686211
 30
0.0
 40
24.0714596382697685
 50
164.7638273049996087
 51
165.6760472696902013
  0
ARC
  5
C7A8
  8
0
 10
311.9223391932654863
 20
80.4793945343731139
 30
0.0
 40
0.3735798863843155
 50
323.1068329005963164
 51
342.3280413433428748
  0
LINE
  5
C7A9
  8
0
 10
312.2211120448469046
 20
80.2551252438564546
 30
0.0
 11
310.9335885452343859
 21
78.6071703142551428
 31
0.0
  0
ARC
  5
C7AA
  8
0
 10
308.9265225976967031
 20
80.1785512915041068
 30
0.0
 40
2.549029598381594
 50
295.0668543841866267
 51
321.941740012798391
  0
ARC
  5
C7AB
  8
0
 10
310.0231274219256079
 20
77.8339253849070474
 30
0.0
 40
0.0393700787085399
 50
115.0079825730390013
 51
179.9977677693489966
  0
LINE
  5
C7AC
  8
0
 10
309.9837573432469071
 20
77.8339269187564469
 30
0.0
 11
309.9837573432469071
 21
77.7410299818647985
 31
0.0
  0
LINE
  5
C7AD
  8
0
 10
314.9040688076468086
 20
79.7797938216564404
 30
0.0
 11
312.8940528028310837
 21
79.7692147626062535
 31
0.0
  0
ARC
  5
C7AE
  8
0
 10
312.894674401234397
 20
79.6511113723753681
 30
0.0
 40
0.1181050260090767
 50
90.3015547321958536
 51
180.0035095052816132
  0
LINE
  5
C7AF
  8
0
 10
312.7765693754469112
 20
79.6511041381564411
 30
0.0
 11
312.776659845144593
 21
78.1741062633270047
 31
0.0
  0
ARC
  5
C7B0
  8
0
 10
312.8947702780008058
 20
78.1741134978771299
 30
0.0
 40
0.1181104330779147
 50
180.0035095052832048
 51
269.9538841422029805
  0
LINE
  5
C7B1
  8
0
 10
312.894675214046913
 20
78.0560031030564403
 30
0.0
 11
314.9319492738467829
 21
78.0560155887564235
 31
0.0
  0
ARC
  5
C7B2
  8
0
 10
314.9319254253650229
 20
78.1740738610170496
 30
0.0
 40
0.1180582746693732
 50
270.0115740923390035
 51
1.062797362583024
  0
LINE
  5
C7B3
  8
0
 10
315.0499633900467984
 20
78.1762636353564346
 30
0.0
 11
315.022792550483473
 21
79.6638355069240163
 31
0.0
  0
ARC
  5
C7B4
  8
0
 10
314.904647792864921
 20
79.6616298963368905
 30
0.0
 40
0.1181653437806747
 50
1.0695142331721521
 51
90.2807383372574748
  0
CIRCLE
  5
C7B5
  8
0
 10
317.111810581646921
 20
78.1394184374314449
 30
0.0
 40
0.1855616130751729
  0
CIRCLE
  5
C7B6
  8
0
 10
312.399001814046926
 20
78.1393199072064419
 30
0.0
 40
0.17852161780329
  0
LINE
  5
C7B7
  8
0
 10
318.3991328032328738
 20
77.6229210847504731
 30
0.0
 11
310.0465707823468051
 21
77.6229226808564334
 31
0.0
  0
ARC
  5
C7B8
  8
0
 10
310.0465707674824216
 20
77.5451355666119184
 30
0.0
 40
0.0777871142445236
 50
89.9999890512430909
 51
119.369806145655005
  0
ARC
  5
C7B9
  8
0
 10
293.5933907415030149
 20
77.8416570953569931
 30
0.0
 40
0.0219219570482149
 50
218.2589473614337976
 51
267.0171398005527976
  0
LINE
  5
C7BA
  8
0
 10
293.5761771770621067
 20
77.8280826561399124
 30
0.0
 11
292.6292150638905127
 21
79.0979297900374974
 31
0.0
  0
ARC
  5
C7BB
  8
0
 10
292.7385483687236274
 20
79.1825894022309029
 30
0.0
 40
0.1382787817506823
 50
91.3842718393063933
 51
217.7515472550996947
  0
ARC
  5
C7BC
  8
0
 10
312.4667213439925035
 20
81.3788087482990647
 30
0.0
 40
0.0196895094883289
 50
338.7632564206099914
 51
104.399330489042498
  0
LINE
  5
C7BD
  8
0
 10
312.485073772382691
 20
81.371676767082505
 30
0.0
 11
312.2362503124181217
 21
80.4430549721803345
 31
0.0
  0
ARC
  5
C7BE
  8
0
 10
311.9320256859236906
 20
80.5245876761896824
 30
0.0
 40
0.3149606406976839
 50
321.9999531906141783
 51
344.9971954006045962
  0
LINE
  5
C7BF
  8
0
 10
312.1802178993366965
 20
80.3306783407006009
 30
0.0
 11
310.7514679854020869
 21
78.5019266113891945
 31
0.0
  0
ARC
  5
C7C0
  8
0
 10
309.1857235042184016
 20
79.7800638023025925
 30
0.0
 40
2.0211854093955011
 50
285.7218207650299746
 51
320.7747995586772731
  0
ARC
  5
C7C1
  8
0
 10
309.6267182364666724
 20
78.2134656048752532
 30
0.0
 40
0.3937007655191555
 50
270.0000748596617086
 51
285.7218207650299746
  0
LINE
  5
C7C2
  8
0
 10
309.6267187508555025
 20
77.8197648393564236
 30
0.0
 11
293.5922499838467843
 21
77.8197648393564236
 31
0.0
  0
ARC
  5
C7C3
  8
0
 10
5821.6154356291826844
 20
26844.5051920162186434
 30
0.0
 40
27331.2424710598315869
 50
258.3342604919839118
 51
258.3350767896690741
  0
LINE
  5
C7C4
  8
0
 10
308.7319696637468951
 20
77.8197648393564236
 30
0.0
 11
308.6115240888375979
 21
77.741030186716614
 31
0.0
  0
LINE
  5
C7C5
  8
0
 10
308.9364487870469134
 20
77.8197648393564236
 30
0.0
 11
308.9073486620396807
 21
77.7410301425548766
 31
0.0
  0
ARC
  5
C7C6
  8
0
 10
299.9828617069741767
 20
36.494429204942449
 30
0.0
 40
41.3029743249582921
 50
87.0061533673827086
 51
92.8808019373084761
  0
LINE
  5
C7C7
  8
0
 10
297.993096109541284
 20
77.8197648393564236
 30
0.0
 11
297.9374271481668188
 21
77.7640958779364979
 31
0.0
  0
ARC
  5
C7C8
  8
0
 10
297.8817494488469038
 20
77.8197735772564698
 30
0.0
 40
0.0787401575000342
 50
270.0
 51
314.999999999980389
  0
LINE
  5
C7C9
  8
0
 10
296.4931806625542094
 20
77.8197648393564236
 30
0.0
 11
296.5488497822033196
 21
77.7640957196600908
 31
0.0
  0
ARC
  5
C7CA
  8
0
 10
296.6057769127596089
 20
77.8210236943286731
 30
0.0
 40
0.0805077169794159
 50
225.0004247861486988
 51
263.5095139970125047
  0
ARC
  5
C7CB
  8
0
 10
312.4724599713181874
 20
81.1808600335833006
 30
0.0
 40
0.021990736568486
 50
285.6673117569291094
 51
339.2313272523402929
  0
LINE
  5
C7CC
  8
0
 10
312.4783985954468903
 20
81.1596863414564353
 30
0.0
 11
312.425126850546917
 21
81.1479518089564351
 31
0.0
  0
LINE
  5
C7CD
  8
0
 10
309.8599331656234881
 20
77.8746421189707263
 30
0.0
 11
310.0184480177235855
 21
77.8752382926859639
 31
0.0
  0
ARC
  5
C7CE
  8
0
 10
291.1581500648729275
 20
212.5361462703166069
 30
0.0
 40
133.2246530445565043
 50
270.6782593486262272
 51
273.8550077293882055
  0
ARC
  5
C7CF
  8
0
 10
294.6132434647648211
 20
161.2644180234808005
 30
0.0
 40
81.8366409428586081
 50
273.854878919781072
 51
282.5974685907801813
  0
LINE
  5
C7D0
  8
0
 10
292.6292150638905127
 20
79.0979297900375116
 30
0.0
 11
299.8731209318469269
 21
79.1459959251564413
 31
0.0
  0
ARC
  5
C7D1
  8
0
 10
300.8149264717272899
 20
136.656582306408211
 30
0.0
 40
57.5182974677655992
 50
269.0617960461549956
 51
278.0517960453111073
  0
ARC
  5
C7D2
  8
0
 10
303.9243255548333877
 20
107.1847581828365037
 30
0.0
 40
27.921207388616601
 50
280.2055646558536068
 51
287.3381843108517728
  0
ARC
  5
C7D3
  8
0
 10
312.254431741879614
 20
80.5619046434927384
 30
0.0
 40
0.0310971557112665
 50
252.6441644682531944
 51
280.1103084174538935
  0
ARC
  5
C7D4
  8
0
 10
280.2995392029562822
 20
175.3758330031940886
 30
0.0
 40
100.0868778634648066
 50
288.6623791413819049
 51
292.5063105469973266
  0
LINE
  5
C7D5
  8
0
 62
     1
 10
320.9795873434929945
 20
61.5796150536564397
 30
0.0
 11
331.373719739194712
 21
50.5768898894866368
 31
0.0
  0
LINE
  5
C7D6
  8
0
 10
318.1822395449465262
 20
77.7410285819564422
 30
0.0
 11
318.1815267675216887
 21
77.6229211263331962
 31
0.0
  0
LINE
  5
C7D7
  8
0
 10
311.0620694797469241
 20
77.7410323750564345
 30
0.0
 11
311.0491285966468809
 21
77.6229226408564443
 31
0.0
  0
LINE
  5
C7D8
  8
0
 10
285.5023921039141896
 20
97.5796150536564397
 30
0.0
 11
282.0728740250721103
 21
97.5796150536564397
 31
0.0
  0
ARC
  5
C7D9
  8
0
 10
282.082045819089501
 20
93.3182122531429741
 30
0.0
 40
4.2614126707031668
 50
90.1233172034931727
 51
94.0230453172667637
  0
ARC
  5
C7DA
  8
0
 10
281.8083711093024135
 20
96.8702539947100831
 30
0.0
 40
0.6993280943595034
 50
92.0729655886781018
 51
140.6928650281383
  0
ARC
  5
C7DB
  8
0
 10
282.3150437479858965
 20
96.510802976251
 30
0.0
 40
1.319771184969893
 50
142.5528612197308007
 51
167.0466169093946007
  0
ARC
  5
C7DC
  8
0
 10
282.8869924107959832
 20
96.3688696647670042
 30
0.0
 40
1.9090076494229411
 50
166.7430448053960959
 51
177.6521284732903041
  0
LINE
  5
C7DD
  8
0
 10
280.9795873434929945
 20
96.4470752578010462
 30
0.0
 11
280.9795873434929945
 21
95.7882529680598935
 31
0.0
  0
ARC
  5
C7DE
  8
0
 10
284.2489438455293111
 20
95.9103123439494141
 30
0.0
 40
3.2716342137606982
 50
182.1381089812456082
 51
193.5662130994217875
  0
ARC
  5
C7DF
  8
0
 10
282.0302335936179929
 20
95.4377815209759603
 30
0.0
 40
1.0058431403390411
 50
197.0484205186791939
 51
225.2768970911594124
  0
ARC
  5
C7E0
  8
0
 10
281.7769164757561953
 20
95.2240478285248741
 30
0.0
 40
0.6763748291176565
 50
227.7838808114591984
 51
261.911660040688389
  0
ARC
  5
C7E1
  8
0
 10
282.0665428419644059
 20
98.6804547167953103
 30
0.0
 40
4.1439571965345534
 50
264.6720560816365264
 51
269.7121165546586781
  0
LINE
  5
C7E2
  8
0
 10
282.0457215586928896
 20
94.536549828785283
 30
0.0
 11
285.4402383605929003
 21
94.536549828785283
 31
0.0
  0
LINE
  5
C7E3
  8
0
 10
285.436987643779787
 20
95.0278120356156535
 30
0.0
 11
282.0618880029929869
 21
95.0295586570598942
 31
0.0
  0
ARC
  5
C7E4
  8
0
 10
282.0634762302510126
 20
98.0985838691421463
 30
0.0
 40
3.0690256230377559
 50
263.5681277028068052
 51
269.9703493114641901
  0
ARC
  5
C7E5
  8
0
 10
281.7847084486543849
 20
95.6917370281583999
 30
0.0
 40
0.6461423186305196
 50
223.9619578010884879
 51
264.2237961436272826
  0
ARC
  5
C7E6
  8
0
 10
282.0817002234293227
 20
95.941060868813409
 30
0.0
 40
1.0333380952471301
 50
198.8791275305057979
 51
222.4812170222593011
  0
ARC
  5
C7E7
  8
0
 10
282.7759715370107756
 20
96.1778827347209528
 30
0.0
 40
1.766889092734365
 50
184.5268437473731069
 51
198.8607851214775053
  0
ARC
  5
C7E8
  8
0
 10
283.9939698073293926
 20
96.320469304611521
 30
0.0
 40
2.9926952845937711
 50
174.3819917995039077
 51
185.4077466191818928
  0
ARC
  5
C7E9
  8
0
 10
282.6727349045376059
 20
96.4493902856390264
 30
0.0
 40
1.6651862118178871
 50
158.4699516892360123
 51
174.3461565292321893
  0
ARC
  5
C7EA
  8
0
 10
281.9637718204763814
 20
96.7492783077765068
 30
0.0
 40
0.8958321257319463
 50
142.0255137672172054
 51
159.6712803577777038
  0
LINE
  5
C7EB
  8
0
 10
285.4382282492928766
 20
97.5462443772598959
 30
0.0
 11
282.0878353174929885
 21
97.5479799347598941
 31
0.0
  0
ARC
  5
C7EC
  8
0
 10
282.0306985328427913
 20
94.723914608665325
 30
0.0
 40
2.8246432656549469
 50
88.8409439356912429
 51
94.6628900152647645
  0
ARC
  5
C7ED
  8
0
 10
281.851247087390675
 20
96.7267003108766659
 30
0.0
 40
0.8140562839014375
 50
93.5335140848936817
 51
119.9694266668950036
  0
ARC
  5
C7EE
  8
0
 10
281.9716679734901845
 20
96.7273685477415057
 30
0.0
 40
0.8798781379429721
 50
126.8004077081357934
 51
159.5484388538409917
  0
ARC
  5
C7EF
  8
0
 10
282.9961673352083267
 20
96.3692941122546927
 30
0.0
 40
1.9650463865560901
 50
160.203667237891608
 51
181.9020972867697878
  0
ARC
  5
C7F0
  8
0
 10
283.0326870218672752
 20
96.2690171282793301
 30
0.0
 40
2.0007904273426358
 50
178.9961328218450092
 51
198.0822248999674002
  0
ARC
  5
C7F1
  8
0
 10
282.1192741815846148
 20
95.9965918029518832
 30
0.0
 40
1.0482205604545709
 50
199.4234684166484044
 51
218.7800708175817874
  0
ARC
  5
C7F2
  8
0
 10
281.8207439170494126
 20
95.7859344538263571
 30
0.0
 40
0.6839367659032792
 50
220.6871156301843087
 51
267.7359424027283126
  0
ARC
  5
C7F3
  8
0
 10
282.0329424899040873
 20
97.8999225661879962
 30
0.0
 40
2.8076006291848219
 50
265.1122713750747835
 51
271.0977110427214143
  0
LINE
  5
C7F4
  8
0
 10
282.0867290986928992
 20
95.0928371927598874
 30
0.0
 11
285.4371220304930148
 21
95.091101635259875
 31
0.0
  0
ARC
  5
C7F5
  8
0
 10
281.7677209126480875
 20
94.8607059958380603
 30
0.0
 40
0.230302859901496
 50
120.3286961076296961
 51
271.981903076071319
  0
LINE
  5
C7F6
  8
0
 10
281.7756856690929794
 20
94.6305409030598952
 30
0.0
 11
285.7040917891731056
 21
94.6305409030598952
 31
0.0
  0
ARC
  5
C7F7
  8
0
 10
285.472395402442487
 20
95.2192236781794037
 30
0.0
 40
2.3605819722105532
 50
84.547415183636204
 51
89.2719038475644737
  0
ARC
  5
C7F8
  8
0
 10
285.6714063489637283
 20
96.8702539947100831
 30
0.0
 40
0.6993280943595034
 50
39.3071349718617213
 51
87.9270344113219124
  0
ARC
  5
C7F9
  8
0
 10
285.1647337102801885
 20
96.510802976251
 30
0.0
 40
1.319771184969893
 50
12.9533830906053495
 51
37.4471387802691922
  0
ARC
  5
C7FA
  8
0
 10
283.2593549273008193
 20
96.2414801638894346
 30
0.0
 40
3.2412183221822422
 50
0.8809748593550686
 51
10.0418028783942397
  0
LINE
  5
C7FB
  8
0
 10
286.5001901147730905
 20
96.2913148876372986
 30
0.0
 11
286.5001901147730905
 21
95.7882529680598935
 31
0.0
  0
ARC
  5
C7FC
  8
0
 10
283.4671354422567902
 20
95.8777238307600328
 30
0.0
 40
3.034374018104133
 50
345.9853331473260027
 51
358.310344772006772
  0
ARC
  5
C7FD
  8
0
 10
285.4495438646479784
 20
95.4377815209759603
 30
0.0
 40
1.0058431403390411
 50
314.7231029088393939
 51
342.9515794813207208
  0
ARC
  5
C7FE
  8
0
 10
285.702860982509776
 20
95.2240478285248741
 30
0.0
 40
0.6763748291176565
 50
278.0883399593100194
 51
312.2161191885401763
  0
ARC
  5
C7FF
  8
0
 10
285.3340831528431067
 20
100.2585618098675013
 30
0.0
 40
5.7229965961707157
 50
271.0628337980962215
 51
274.6498738005703899
  0
ARC
  5
C800
  8
0
 10
285.3408736661338025
 20
98.9909768593655031
 30
0.0
 40
3.9643301220896219
 50
271.3892548663765183
 51
276.0703382083185033
  0
ARC
  5
C801
  8
0
 10
285.6950690096117
 20
95.6917370281583999
 30
0.0
 40
0.6461423186305196
 50
275.7762038563710121
 51
316.0380421989115121
  0
ARC
  5
C802
  8
0
 10
285.3980772348367054
 20
95.941060868813409
 30
0.0
 40
1.0333380952471301
 50
317.5187829777407273
 51
341.1208724694942021
  0
ARC
  5
C803
  8
0
 10
284.7038059212551957
 20
96.1778827347209528
 30
0.0
 40
1.766889092734365
 50
341.1392148785224094
 51
355.4731562526259836
  0
ARC
  5
C804
  8
0
 10
283.4858076509366924
 20
96.320469304611521
 30
0.0
 40
2.9926952845937711
 50
354.5922533808180788
 51
5.6180082004969512
  0
ARC
  5
C805
  8
0
 10
284.8070425537284791
 20
96.4493902856390264
 30
0.0
 40
1.6651862118178871
 50
5.6538434707677894
 51
21.5300483107639984
  0
ARC
  5
C806
  8
0
 10
285.5160056377897035
 20
96.7492783077765068
 30
0.0
 40
0.8958321257319463
 50
20.32871964222225
 51
37.974486232782823
  0
ARC
  5
C807
  8
0
 10
285.5054031060304851
 20
95.7290161301500007
 30
0.0
 40
1.818469401302049
 50
84.5314337389567925
 51
92.1170065668494829
  0
ARC
  5
C808
  8
0
 10
285.62853037087541
 20
96.7267003108766659
 30
0.0
 40
0.8140562839014375
 50
60.0305733331050106
 51
86.4664859151063467
  0
ARC
  5
C809
  8
0
 10
285.5081094847759005
 20
96.7273685477415057
 30
0.0
 40
0.8798781379429721
 50
20.4515611461590296
 51
53.1995922918641782
  0
ARC
  5
C80A
  8
0
 10
284.4836101230578151
 20
96.3692941122546927
 30
0.0
 40
1.9650463865560901
 50
358.0979027132300985
 51
19.7963327621084204
  0
ARC
  5
C80B
  8
0
 10
284.4470904363986961
 20
96.2690171282793301
 30
0.0
 40
2.0007904273426358
 50
341.9177751000325998
 51
1.003867178155804
  0
ARC
  5
C80C
  8
0
 10
285.360503276681527
 20
95.9965918029518832
 30
0.0
 40
1.0482205604545709
 50
321.2199291824176157
 51
340.5765315833514819
  0
ARC
  5
C80D
  8
0
 10
285.6590335412166723
 20
95.7859344538263571
 30
0.0
 40
0.6839367659032792
 50
272.2640575972718011
 51
319.3128843698157198
  0
ARC
  5
C80E
  8
0
 10
285.3848557941847162
 20
98.9458120768100287
 30
0.0
 40
3.855064765688569
 50
270.7768291024544851
 51
274.4810927466140242
  0
ARC
  5
C80F
  8
0
 10
285.7120565456179975
 20
94.8607059958380603
 30
0.0
 40
0.230302859901496
 50
268.0180969239286242
 51
59.6713038923702328
  0
LINE
  5
C810
  8
0
 10
318.3261930263583963
 20
62.1107016678564392
 30
0.0
 11
318.3580733585678217
 21
63.0118217700564429
 31
0.0
  0
ARC
  5
C811
  8
0
 10
318.1581361061099074
 20
63.0188952622733396
 30
0.0
 40
0.2000623383163624
 50
357.9738028643978964
 51
70.1768187962804149
  0
LINE
  5
C812
  8
0
 10
318.2259809585679022
 20
63.2071026351564385
 30
0.0
 11
318.3227074522179123
 21
65.7089550246064249
 31
0.0
  0
ARC
  5
C813
  8
0
 10
318.1989856764034812
 20
65.9796453831814631
 30
0.0
 40
0.2976245084601179
 50
294.5632515395789142
 51
342.4377080674248077
  0
ENDBLK
  5
C816
  8
0
  0
ENDSEC
  0
SECTION
  2
ENTITIES
  0
ATTDEF
  5
829
  8
DEFPOINTS
 10
1109.643246523884045
 20
305.873999422541317
 30
0.0
 40
0.001
  1
K-5401-PA
  3

  2
MODELNUMBER
 70
     0
1001
ACDBATTR
1070
     0
1070
     1
  0
ATTDEF
  5
82A
  8
DEFPOINTS
 10
1109.643246523884045
 20
305.872332755874595
 30
0.0
 40
0.001
  1
VEIL
  3

  2
TRADENAME
 70
     0
1001
ACDBATTR
1070
     0
1070
     1
  0
ATTDEF
  5
82B
  8
DEFPOINTS
 10
1109.643246523884045
 20
305.8706660892079867
 30
0.0
 40
0.001
  1
TOILET
  3

  2
PRODUCT
 70
     0
1001
ACDBATTR
1070
     0
1070
     1
  0
ATTDEF
  5
82C
  8
DEFPOINTS
 10
1109.643246523884045
 20
305.8689994225413216
 30
0.0
 40
0.001
  1
VITREOUS CHINA
  3

  2
MATERIAL
 70
     0
1001
ACDBATTR
1070
     0
1070
     1
  0
LINE
  5
CB59
  8
0
 10
1106.8050797505850369
 20
305.8731611350303865
 30
0.0
 11
1085.1515223808848987
 21
305.8731611350303865
 31
0.0
  0
LINE
  5
CB5A
  8
0
 10
1085.1515223808848987
 20
305.8731611350303865
 30
0.0
 11
1085.1515166006849995
 21
306.4042477492303078
 31
0.0
  0
LINE
  5
CB5B
  8
0
 10
1106.8050797505850369
 20
305.8731611350303865
 30
0.0
 11
1106.8050236443850736
 21
306.4042477492303078
 31
0.0
  0
LINE
  5
CB5C
  8
0
 10
1106.985920690696048
 20
306.4042477492303078
 30
0.0
 11
1084.9546368422379601
 21
306.4042477492303078
 31
0.0
  0
ARC
  5
CB5D
  8
0
 10
969.8451746132991502
 20
300.915858272288915
 30
0.0
 40
115.2402304479044943
 50
2.729780656045139
 51
6.6553126610575237
  0
ARC
  5
CB5E
  8
0
 10
1045.9261039650409657
 20
310.4162113324262009
 30
0.0
 40
38.5758948429868198
 50
5.7361091814981418
 51
12.30669470120516
  0
ARC
  5
CB5F
  8
0
 10
1072.6896080883871036
 20
316.4399397966753895
 30
0.0
 40
11.1449398868450391
 50
11.3771037310083507
 51
28.6906399920906985
  0
ARC
  5
CB60
  8
0
 10
1082.6023217470719828
 20
321.8745622233809058
 30
0.0
 40
0.1600162491429537
 50
90.0244701500206332
 51
211.7309283259490087
  0
LINE
  5
CB61
  8
0
 10
1082.6022534065850778
 20
322.0345784579304222
 30
0.0
 11
1107.3893150074850382
 21
322.0345747576303097
 31
0.0
  0
LINE
  5
CB62
  8
0
 10
1107.389315007831101
 20
322.0345747576303097
 30
0.0
 11
1107.389315007831101
 21
320.4345784579302858
 31
0.0
  0
ARC
  5
CB63
  8
0
 10
702.2959078466830078
 20
325.0606935738023253
 30
0.0
 40
405.1198211227056731
 50
357.8954407386241883
 51
359.3457179367364915
  0
LINE
  5
CB64
  8
0
 10
1107.1392181071751111
 20
322.0345747949656925
 30
0.0
 11
1107.1392141793940027
 21
320.4345757250139854
 31
0.0
  0
LINE
  5
CB65
  8
0
 10
1107.1392141793940027
 20
320.4345757250139854
 30
0.0
 11
1106.8212887419990693
 21
306.4042477492303078
 31
0.0
  0
LINE
  5
CB66
  8
0
 10
1107.058860467571094
 20
321.9164671661243915
 30
0.0
 11
1107.0726157204549054
 21
320.4345784579302858
 31
0.0
  0
LINE
  5
CB67
  8
0
 10
1107.0726157204549054
 20
320.4345784579302858
 30
0.0
 11
1106.7677004903850957
 21
306.5666933261304052
 31
0.0
  0
ARC
  5
CB68
  8
0
 10
1106.5100461303541124
 20
306.5723584104400175
 30
0.0
 40
0.2577166320264852
 50
330.1147480982692741
 51
358.7404322155680916
  0
LINE
  5
CB69
  8
0
 10
1106.7334929015848957
 20
306.4439473406303023
 30
0.0
 11
1098.704908640685062
 21
306.4439483819302836
 31
0.0
  0
ARC
  5
CB6A
  8
0
 10
1098.7049097383430762
 20
306.5226885419203882
 30
0.0
 40
0.0787401599976905
 50
237.1143919427125013
 51
269.9992012819412821
  0
LINE
  5
CB6B
  8
0
 10
1098.6621472811830245
 20
306.4042477492303078
 30
0.0
 11
1098.668197753170034
 21
322.0345760595495221
 31
0.0
  0
ARC
  5
CB6C
  8
0
 10
960.6072271525778206
 20
321.263922429640786
 30
0.0
 40
146.7841109253924969
 50
0.3008181774329839
 51
2.3198252359236791
  0
ARC
  5
CB6D
  8
0
 10
1107.1334974713720385
 20
327.1998082553511153
 30
0.0
 40
0.137656368617386
 50
2.3198252359253062
 51
108.9237488038147035
  0
ARC
  5
CB6E
  8
0
 10
1089.3952240514549885
 20
380.10334544886922
 30
0.0
 40
55.6604703392299811
 50
282.2888868216090827
 51
288.5350684323209975
  0
ARC
  5
CB6F
  8
0
 10
1101.2500057286940773
 20
325.6804648917351983
 30
0.0
 40
0.038594963609372
 50
101.9002064501100051
 51
165.6817329863227997
  0
LINE
  5
CB70
  8
0
 10
1101.212609642984944
 20
325.6900097327302888
 30
0.0
 11
1101.0357865536850568
 21
325.0300969797303878
 31
0.0
  0
ARC
  5
CB71
  8
0
 10
1124.2611530069129913
 20
318.7041565571424826
 30
0.0
 40
24.0714596382697685
 50
164.7638273049996087
 51
165.6760472696898034
  0
ARC
  5
CB72
  8
0
 10
1100.5820668576041044
 20
324.772940615747018
 30
0.0
 40
0.3735798863843155
 50
323.1068329005969986
 51
342.3280413433431022
  0
LINE
  5
CB73
  8
0
 10
1100.8808397091850111
 20
324.5486713252303161
 30
0.0
 11
1099.5933162095720945
 21
322.9007163956289901
 31
0.0
  0
ARC
  5
CB74
  8
0
 10
1097.5862502620350369
 20
324.4720973728780109
 30
0.0
 40
2.549029598381594
 50
295.0668543841833866
 51
321.9417400127987889
  0
ARC
  5
CB75
  8
0
 10
1098.6828550862639986
 20
322.1274714662810084
 30
0.0
 40
0.0393700787085399
 50
115.0079825730419998
 51
179.9977677693489966
  0
LINE
  5
CB76
  8
0
 10
1098.6434850075850136
 20
322.1274730001304079
 30
0.0
 11
1098.6434850075850136
 21
322.0345760632387169
 31
0.0
  0
LINE
  5
CB77
  8
0
 10
1103.5637964719849151
 20
324.0733399030303872
 30
0.0
 11
1101.5537804671689628
 21
324.0627608439801861
 31
0.0
  0
ARC
  5
CB78
  8
0
 10
1101.5544020655720487
 20
323.9446574537493007
 30
0.0
 40
0.1181050260090767
 50
90.3015547321974736
 51
180.003509505280789
  0
LINE
  5
CB79
  8
0
 10
1101.436297039784904
 20
323.9446502195302742
 30
0.0
 11
1101.4363875094829837
 21
322.4676523447009231
 31
0.0
  0
ARC
  5
CB7A
  8
0
 10
1101.5544979423389123
 20
322.4676595792510057
 30
0.0
 40
0.1181104330779147
 50
180.003509505282409
 51
269.9538841422015025
  0
LINE
  5
CB7B
  8
0
 10
1101.5544028783849626
 20
322.349549184430316
 30
0.0
 11
1103.5916769381849463
 21
322.3495616701304129
 31
0.0
  0
ARC
  5
CB7C
  8
0
 10
1103.5916530897029588
 20
322.4676199423909111
 30
0.0
 40
0.1180582746693732
 50
270.0115740923374119
 51
1.0627973625829941
  0
LINE
  5
CB7D
  8
0
 10
1103.7096910543850754
 20
322.4698097167303104
 30
0.0
 11
1103.6825202148208973
 21
323.957381588297892
 31
0.0
  0
ARC
  5
CB7E
  8
0
 10
1103.5643754572029138
 20
323.9551759777107804
 30
0.0
 40
0.1181653437806747
 50
1.0695142331713381
 51
90.2807383372574748
  0
CIRCLE
  5
CB7F
  8
0
 10
1105.7715382459850844
 20
322.4329645188053064
 30
0.0
 40
0.1855616130751729
  0
CIRCLE
  5
CB80
  8
0
 10
1101.0587294783849757
 20
322.4328659885803745
 30
0.0
 40
0.17852161780329
  0
LINE
  5
CB81
  8
0
 10
1107.058860467571094
 20
321.9164671661243915
 30
0.0
 11
1098.7062984466849684
 21
321.9164687622304086
 31
0.0
  0
ARC
  5
CB82
  8
0
 10
1098.7062984318199597
 20
321.8386816479858226
 30
0.0
 40
0.0777871142445236
 50
89.9999890512414709
 51
119.3698061456545929
  0
ARC
  5
CB83
  8
0
 10
1082.2531184058409508
 20
322.1352031767308972
 30
0.0
 40
0.0219219570482149
 50
218.2589473614341955
 51
267.0171398005527976
  0
LINE
  5
CB84
  8
0
 10
1082.2359048414000426
 20
322.1216287375137881
 30
0.0
 11
1081.2889427282279939
 21
323.391475871411501
 31
0.0
  0
ARC
  5
CB85
  8
0
 10
1081.3982760330620749
 20
323.4761354836048213
 30
0.0
 40
0.1382787817506823
 50
91.3842718393096618
 51
217.7515472551000926
  0
ARC
  5
CB86
  8
0
 10
1101.1264490083310648
 20
325.6723548296728836
 30
0.0
 40
0.0196895094883289
 50
338.7632564206087977
 51
104.3993304890409064
  0
LINE
  5
CB87
  8
0
 10
1101.1448014367210817
 20
325.6652228484563807
 30
0.0
 11
1100.8959779767560576
 21
324.7366010535542955
 31
0.0
  0
ARC
  5
CB88
  8
0
 10
1100.5917533502620245
 20
324.8181337575636007
 30
0.0
 40
0.3149606406976839
 50
321.9999531906158268
 51
344.9971954006045962
  0
LINE
  5
CB89
  8
0
 10
1100.8399455636749735
 20
324.6242244220745192
 30
0.0
 11
1099.411195649739966
 21
322.7954726927630986
 31
0.0
  0
ARC
  5
CB8A
  8
0
 10
1097.8454511685561101
 20
324.0736098836765109
 30
0.0
 40
2.0211854093955011
 50
285.7218207650315094
 51
320.7747995586772731
  0
ARC
  5
CB8B
  8
0
 10
1098.2864459008048925
 20
322.5070116862490863
 30
0.0
 40
0.3937007655191555
 50
270.0000748596617086
 51
285.7218207650315094
  0
LINE
  5
CB8C
  8
0
 10
1098.2864464151939501
 20
322.1133109207303278
 30
0.0
 11
1082.2519776481849476
 21
322.1133109207303278
 31
0.0
  0
ARC
  5
CB8D
  8
0
 10
6610.2751632935205635
 20
27088.7987380976010172
 30
0.0
 40
27331.2424710598315869
 50
258.3342604919870951
 51
258.3350767896657203
  0
LINE
  5
CB8E
  8
0
 10
1097.3916973280850016
 20
322.1133109207303278
 30
0.0
 11
1097.2712517531761023
 21
322.0345762680905182
 31
0.0
  0
LINE
  5
CB8F
  8
0
 10
1097.596176451384963
 20
322.1133109207303278
 30
0.0
 11
1097.5670763263779008
 21
322.0345762239288092
 31
0.0
  0
ARC
  5
CB90
  8
0
 10
1088.6425893713119422
 20
280.7879752863162821
 30
0.0
 40
41.3029743249582921
 50
87.0061533673827086
 51
92.8808019373100819
  0
LINE
  5
CB91
  8
0
 10
1086.6528237738789358
 20
322.1133109207303278
 30
0.0
 11
1086.5971548125050958
 21
322.0576419593103878
 31
0.0
  0
ARC
  5
CB92
  8
0
 10
1086.5414771131850102
 20
322.1133196586304166
 30
0.0
 40
0.0787401575000342
 50
270.0
 51
314.9999999999815827
  0
LINE
  5
CB93
  8
0
 10
1085.1529083268919749
 20
322.1133109207303278
 30
0.0
 11
1085.208577446541085
 21
322.0576418010339808
 31
0.0
  0
ARC
  5
CB94
  8
0
 10
1085.2655045770979996
 20
322.1145697757024777
 30
0.0
 40
0.0805077169794159
 50
225.0004247861492104
 51
263.5095139970092077
  0
ARC
  5
CB95
  8
0
 10
1101.1321876356560097
 20
325.474406114957219
 30
0.0
 40
0.021990736568486
 50
285.6673117569289957
 51
339.231327252341373
  0
LINE
  5
CB96
  8
0
 10
1101.13812625978494
 20
325.4532324228302969
 30
0.0
 11
1101.0848545148849098
 21
325.4414978903303108
 31
0.0
  0
LINE
  5
CB97
  8
0
 10
1098.5196608299609125
 20
322.1681882003446162
 30
0.0
 11
1098.6781756820619194
 21
322.1687843740598964
 31
0.0
  0
ARC
  5
CB98
  8
0
 10
1079.8178777292109771
 20
456.8296923516904826
 30
0.0
 40
133.2246530445565043
 50
270.6782593486262272
 51
273.8550077293849085
  0
ARC
  5
CB99
  8
0
 10
1083.2729711291030981
 20
405.5579641048547046
 30
0.0
 40
81.8366409428586081
 50
273.8548789197794804
 51
282.5974685907768844
  0
LINE
  5
CB9A
  8
0
 10
1081.2889427282279939
 20
323.391475871411501
 30
0.0
 11
1088.5328485961849765
 21
323.4395420065304165
 31
0.0
  0
ARC
  5
CB9B
  8
0
 10
1089.4746541360650554
 20
380.9501283877821152
 30
0.0
 40
57.5182974677655992
 50
269.0617960461549956
 51
278.0517960453078103
  0
ARC
  5
CB9C
  8
0
 10
1092.5840532191709826
 20
351.4783042642104078
 30
0.0
 40
27.921207388616601
 50
280.2055646558536068
 51
287.3381843108535918
  0
ARC
  5
CB9D
  8
0
 10
1100.9141594062180047
 20
324.8554507248666141
 30
0.0
 40
0.0310971557112665
 50
252.644164468251887
 51
280.1103084174524156
  0
ARC
  5
CB9E
  8
0
 10
1068.9592668672939908
 20
419.6693790845679928
 30
0.0
 40
100.0868778634648066
 50
288.6623791413803133
 51
292.5063105469973266
  0
LINE
  5
CBA0
  8
0
 10
1106.8419672092838937
 20
322.0345746633303179
 30
0.0
 11
1106.8412544318600794
 21
321.9164672077071145
 31
0.0
  0
LINE
  5
CBA1
  8
0
 10
1099.7217968642330561
 20
322.0345759022645211
 30
0.0
 11
1099.7088562443771025
 21
321.9164685706497835
 31
0.0
  0
LINE
  5
CBA2
  8
0
 10
1074.1621197682520688
 20
341.8731611350303865
 30
0.0
 11
1070.7326016894101031
 21
341.8731611350303865
 31
0.0
  0
ARC
  5
CBA3
  8
0
 10
1070.7417734834280054
 20
337.6117583345168782
 30
0.0
 40
4.2614126707031668
 50
90.1233172034915384
 51
94.0230453172683269
  0
ARC
  5
CBA4
  8
0
 10
1070.4680987736398947
 20
341.1638000760839873
 30
0.0
 40
0.6993280943595034
 50
92.0729655886797076
 51
140.6928650281392947
  0
ARC
  5
CBA5
  8
0
 10
1070.9747714123238893
 20
340.8043490576249042
 30
0.0
 40
1.319771184969893
 50
142.5528612197311134
 51
167.0466169093934923
  0
ARC
  5
CBA6
  8
0
 10
1071.5467200751340897
 20
340.6624157461409936
 30
0.0
 40
1.9090076494229411
 50
166.7430448053964938
 51
177.6521284732895083
  0
LINE
  5
CBA7
  8
0
 10
1069.639315007831101
 20
340.7406213391748793
 30
0.0
 11
1069.639315007831101
 21
340.0817990494338119
 31
0.0
  0
ARC
  5
CBA8
  8
0
 10
1072.9086715098669629
 20
340.2038584253232898
 30
0.0
 40
3.2716342137606982
 50
182.1381089812454945
 51
193.566213099422896
  0
ARC
  5
CBA9
  8
0
 10
1070.6899612579559289
 20
339.7313276023498929
 30
0.0
 40
1.0058431403390411
 50
197.0484205186791939
 51
225.2768970911606061
  0
ARC
  5
CBAA
  8
0
 10
1070.4366441400939038
 20
339.5175939098987783
 30
0.0
 40
0.6763748291176565
 50
227.7838808114591984
 51
261.9116600406915154
  0
ARC
  5
CBAB
  8
0
 10
1070.7262705063019439
 20
342.9740007981691861
 30
0.0
 40
4.1439571965345534
 50
264.6720560816397096
 51
269.7121165546603265
  0
LINE
  5
CBAC
  8
0
 10
1070.7054492230311098
 20
338.8300959101591729
 30
0.0
 11
1074.0999660249310637
 21
338.8300959101591729
 31
0.0
  0
LINE
  5
CBAD
  8
0
 10
1074.0967153081180641
 20
339.3213581169895861
 30
0.0
 11
1070.7216156673309797
 21
339.3231047384338126
 31
0.0
  0
ARC
  5
CBAE
  8
0
 10
1070.7232038945890054
 20
342.3921299505161073
 30
0.0
 40
3.0690256230377559
 50
263.5681277028101022
 51
269.9703493114658954
  0
ARC
  5
CBAF
  8
0
 10
1070.4444361129928893
 20
339.985283109532304
 30
0.0
 40
0.6461423186305196
 50
223.9619578010891132
 51
264.2237961436255773
  0
ARC
  5
CBB0
  8
0
 10
1070.7414278877670313
 20
340.2346069501872989
 30
0.0
 40
1.0333380952471301
 50
198.8791275305046895
 51
222.4812170222598127
  0
ARC
  5
CBB1
  8
0
 10
1071.4356992013490526
 20
340.4714288160948854
 30
0.0
 40
1.766889092734365
 50
184.5268437473739027
 51
198.8607851214763116
  0
ARC
  5
CBB2
  8
0
 10
1072.6536974716671011
 20
340.6140153859855104
 30
0.0
 40
2.9926952845937711
 50
174.3819917995035098
 51
185.4077466191816086
  0
ARC
  5
CBB3
  8
0
 10
1071.3324625688760534
 20
340.7429363670128737
 30
0.0
 40
1.6651862118178871
 50
158.4699516892347901
 51
174.3461565292315072
  0
ARC
  5
CBB4
  8
0
 10
1070.6234994848139195
 20
341.0428243891503826
 30
0.0
 40
0.8958321257319463
 50
142.0255137672164949
 51
159.6712803577769932
  0
LINE
  5
CBB5
  8
0
 10
1074.0979559136310399
 20
341.8397904586337859
 30
0.0
 11
1070.7475629818309244
 21
341.8415260161337983
 31
0.0
  0
ARC
  5
CBB6
  8
0
 10
1070.6904261971810683
 20
339.0174606900391723
 30
0.0
 40
2.8246432656549469
 50
88.8409439356912429
 51
94.6628900152630735
  0
ARC
  5
CBB7
  8
0
 10
1070.5109747517290089
 20
341.0202463922506126
 30
0.0
 40
0.8140562839014375
 50
93.5335140848904132
 51
119.9694266668935967
  0
ARC
  5
CBB8
  8
0
 10
1070.6313956378280636
 20
341.0209146291153957
 30
0.0
 40
0.8798781379429721
 50
126.800407708138394
 51
159.5484388538390021
  0
ARC
  5
CBB9
  8
0
 10
1071.6558949995460353
 20
340.6628401936285968
 30
0.0
 40
1.9650463865560901
 50
160.203667237891807
 51
181.9020972867691057
  0
ARC
  5
CBBA
  8
0
 10
1071.6924146862049838
 20
340.5625632096533195
 30
0.0
 40
2.0007904273426358
 50
178.9961328218450092
 51
198.0822248999666044
  0
ARC
  5
CBBB
  8
0
 10
1070.7790018459229486
 20
340.2901378843258158
 30
0.0
 40
1.0482205604545709
 50
199.4234684166478928
 51
218.7800708175817874
  0
ARC
  5
CBBC
  8
0
 10
1070.4804715813870644
 20
340.0794805352002186
 30
0.0
 40
0.6839367659032792
 50
220.6871156301822055
 51
267.7359424027299042
  0
ARC
  5
CBBD
  8
0
 10
1070.6926701542420233
 20
342.1934686475618719
 30
0.0
 40
2.8076006291848219
 50
265.1122713750763751
 51
271.0977110427247112
  0
LINE
  5
CBBE
  8
0
 10
1070.746456763030892
 20
339.3863832741337774
 30
0.0
 11
1074.0968496948310076
 21
339.3846477166338218
 31
0.0
  0
ARC
  5
CBBF
  8
0
 10
1070.4274485769860803
 20
339.1542520772118792
 30
0.0
 40
0.230302859901496
 50
120.3286961076283035
 51
271.981903076071319
  0
LINE
  5
CBC0
  8
0
 10
1070.4354133334309154
 20
338.9240869844336999
 30
0.0
 11
1074.3638194535110415
 21
338.9240869844336999
 31
0.0
  0
ARC
  5
CBC1
  8
0
 10
1074.1321230667799682
 20
339.5127697595532936
 30
0.0
 40
2.3605819722105532
 50
84.547415183634584
 51
89.2719038475612336
  0
ARC
  5
CBC2
  8
0
 10
1074.3311340133020622
 20
341.1638000760839873
 30
0.0
 40
0.6993280943595034
 50
39.3071349718606911
 51
87.9270344113202924
  0
ARC
  5
CBC3
  8
0
 10
1073.8244613746180676
 20
340.8043490576249042
 30
0.0
 40
1.319771184969893
 50
12.9533830906065006
 51
37.4471387802688369
  0
ARC
  5
CBC4
  8
0
 10
1071.9190825916389258
 20
340.5350262452632819
 30
0.0
 40
3.2412183221822422
 50
0.8809748593550185
 51
10.0418028783947495
  0
LINE
  5
CBC5
  8
0
 10
1075.1599177791110833
 20
340.5848609690111743
 30
0.0
 11
1075.1599177791110833
 21
340.0817990494338119
 31
0.0
  0
ARC
  5
CBC6
  8
0
 10
1072.1268631065950103
 20
340.1712699121338801
 30
0.0
 40
3.034374018104133
 50
345.9853331473252069
 51
358.310344772006772
  0
ARC
  5
CBC7
  8
0
 10
1074.109271528986028
 20
339.7313276023498929
 30
0.0
 40
1.0058431403390411
 50
314.7231029088393939
 51
342.9515794813207208
  0
ARC
  5
CBC8
  8
0
 10
1074.362588646848053
 20
339.5175939098987783
 30
0.0
 40
0.6763748291176565
 50
278.0883399593084846
 51
312.2161191885408016
  0
ARC
  5
CBC9
  8
0
 10
1073.993810817180929
 20
344.5521078912415192
 30
0.0
 40
5.7229965961707157
 50
271.0628337980995184
 51
274.6498738005703899
  0
ARC
  5
CBCA
  8
0
 10
1074.000601330471909
 20
343.2845229407394072
 30
0.0
 40
3.9643301220896219
 50
271.3892548663749267
 51
276.0703382083153201
  0
ARC
  5
CBCB
  8
0
 10
1074.354796673949977
 20
339.985283109532304
 30
0.0
 40
0.6461423186305196
 50
275.7762038563744227
 51
316.0380421989108868
  0
ARC
  5
CBCC
  8
0
 10
1074.0578048991749256
 20
340.2346069501872989
 30
0.0
 40
1.0333380952471301
 50
317.5187829777402158
 51
341.1208724694952821
  0
ARC
  5
CBCD
  8
0
 10
1073.3635335855929043
 20
340.4714288160948854
 30
0.0
 40
1.766889092734365
 50
341.1392148785237168
 51
355.4731562526259836
  0
ARC
  5
CBCE
  8
0
 10
1072.1455353152750831
 20
340.6140153859855104
 30
0.0
 40
2.9926952845937711
 50
354.5922533808184198
 51
5.6180082004964591
  0
ARC
  5
CBCF
  8
0
 10
1073.4667702180670403
 20
340.7429363670128737
 30
0.0
 40
1.6651862118178871
 50
5.6538434707684377
 51
21.5300483107651885
  0
ARC
  5
CBD0
  8
0
 10
1074.1757333021280374
 20
341.0428243891503826
 30
0.0
 40
0.8958321257319463
 50
20.328719642223021
 51
37.9744862327834483
  0
ARC
  5
CBD1
  8
0
 10
1074.1651307703689326
 20
340.0225622115239048
 30
0.0
 40
1.818469401302049
 50
84.5314337389535666
 51
92.1170065668494829
  0
ARC
  5
CBD2
  8
0
 10
1074.288258035212948
 20
341.0202463922506126
 30
0.0
 40
0.8140562839014375
 50
60.0305733331064104
 51
86.4664859151095868
  0
ARC
  5
CBD3
  8
0
 10
1074.1678371491138932
 20
341.0209146291153957
 30
0.0
 40
0.8798781379429721
 50
20.4515611461594098
 51
53.1995922918615705
  0
ARC
  5
CBD4
  8
0
 10
1073.1433377873959216
 20
340.6628401936285968
 30
0.0
 40
1.9650463865560901
 50
358.0979027132293027
 51
19.7963327621082001
  0
ARC
  5
CBD5
  8
0
 10
1073.1068181007369731
 20
340.5625632096533195
 30
0.0
 40
2.0007904273426358
 50
341.9177751000332819
 51
1.0038671781550179
  0
ARC
  5
CBD6
  8
0
 10
1074.0202309410199177
 20
340.2901378843258158
 30
0.0
 40
1.0482205604545709
 50
321.2199291824182978
 51
340.5765315833521072
  0
ARC
  5
CBD7
  8
0
 10
1074.3187612055548925
 20
340.0794805352002186
 30
0.0
 40
0.6839367659032792
 50
272.2640575972700958
 51
319.312884369817823
  0
ARC
  5
CBD8
  8
0
 10
1074.0445834585229932
 20
343.2393581581839044
 30
0.0
 40
3.855064765688569
 50
270.7768291024527798
 51
274.4810927466140811
  0
ARC
  5
CBD9
  8
0
 10
1074.371784209956104
 20
339.1542520772118792
 30
0.0
 40
0.230302859901496
 50
268.018096923928681
 51
59.6713038923716397
  0
LINE
  5
CBDA
  8
0
 10
1106.985920690696048
 20
306.4042477492303078
 30
0.0
 11
1107.0178010229060419
 21
307.305367851430276
 31
0.0
  0
ARC
  5
CBDB
  8
0
 10
1106.817863770447957
 20
307.3124413436473219
 30
0.0
 40
0.2000623383163624
 50
357.9738028643978964
 51
70.1768187962834844
  0
LINE
  5
CBDC
  8
0
 10
1106.885708622905895
 20
307.5006487165304065
 30
0.0
 11
1106.9824351165559619
 21
310.0025011059802864
 31
0.0
  0
ARC
  5
CBDD
  8
0
 10
1106.8587133407409056
 20
310.273191464555282
 30
0.0
 40
0.2976245084601179
 50
294.5632515395801079
 51
342.4377080674242961
  0
LINE
  5
CBDE
  8
0
 10
1098.7693352157409663
 20
322.2759367413864879
 30
0.0
 11
1098.8810830742550024
 21
322.2764289366558046
 31
0.0
  0
LINE
  5
CBDF
  8
0
 10
1099.8478742166009852
 20
323.3544065387156934
 30
0.0
 11
1099.9066739068200604
 21
323.3017959581093237
 31
0.0
  0
LINE
  5
CBE0
  8
0
 10
1099.9217504436780928
 20
323.4489656191429958
 30
0.0
 11
1099.9754956991860126
 21
323.3898838353613883
 31
0.0
  0
LINE
  5
CBE1
  8
0
 10
1100.6645835103220179
 20
324.3997669049147135
 30
0.0
 11
1100.7886754960520648
 21
324.4307065118417768
 31
0.0
  0
LINE
  5
CBE2
  8
0
 10
1100.692725561332054
 20
324.4067835062789982
 30
0.0
 11
1100.7157559896920702
 21
324.3373737998517186
 31
0.0
  0
ARC
  5
CBE3
  8
0
 10
1099.7586252851779136
 20
321.9255369982723209
 30
0.0
 40
0.1100201478797484
 50
49.3554608221555284
 51
82.3420061497996585
  0
ARC
  5
CBE4
  8
0
 10
1099.70386102691009
 20
321.9113215616869184
 30
0.0
 40
0.1597754437108804
 50
1.8460360268185261
 51
37.6945122793486718
  0
ARC
  5
CBE5
  8
0
 10
1101.1504203599379252
 20
321.8760928873263083
 30
0.0
 40
0.1584828084672386
 50
89.9832084391538984
 51
165.2405020922967083
  0
ENDSEC
  0
EOF
