  0
SECTION
  2
HEADER
  9
$ACADVER
  1
AC1009
  9
$INSBASE
 10
0.0
 20
0.0
 30
0.0
  9
$EXTMIN
 10
-7.0651548386553173
 20
-5.5617806579810392
 30
-0.0000000349181948
  9
$EXTMAX
 10
7.0646712893937638
 20
1.125397591156627
 30
0.0000000814935746
  9
$LIMMIN
 10
0.0
 20
0.0
  9
$LIMMAX
 10
12.0
 20
9.0
  9
$ORTHOMODE
 70
     0
  9
$REGENMODE
 70
     1
  9
$FILLMODE
 70
     1
  9
$QTEXTMODE
 70
     0
  9
$MIRRTEXT
 70
     1
  9
$DRAGMODE
 70
     2
  9
$LTSCALE
 40
1.0
  9
$OSMODE
 70
    37
  9
$ATTMODE
 70
     1
  9
$TEXTSIZE
 40
0.001
  9
$TRACEWID
 40
0.05
  9
$TEXTSTYLE
  7
STANDARD
  9
$CLAYER
  8
0
  9
$CELTYPE
  6
BYLAYER
  9
$CECOLOR
 62
   256
  9
$DIMSCALE
 40
1.0
  9
$DIMASZ
 40
0.18
  9
$DIMEXO
 40
0.0625
  9
$DIMDLI
 40
0.38
  9
$DIMRND
 40
0.0
  9
$DIMDLE
 40
0.0
  9
$DIMEXE
 40
0.18
  9
$DIMTP
 40
0.0
  9
$DIMTM
 40
0.0
  9
$DIMTXT
 40
0.18
  9
$DIMCEN
 40
0.09
  9
$DIMTSZ
 40
0.0
  9
$DIMTOL
 70
     0
  9
$DIMLIM
 70
     0
  9
$DIMTIH
 70
     1
  9
$DIMTOH
 70
     1
  9
$DIMSE1
 70
     0
  9
$DIMSE2
 70
     0
  9
$DIMTAD
 70
     0
  9
$DIMZIN
 70
     0
  9
$DIMBLK
  1

  9
$DIMASO
 70
     1
  9
$DIMSHO
 70
     1
  9
$DIMPOST
  1

  9
$DIMAPOST
  1

  9
$DIMALT
 70
     0
  9
$DIMALTD
 70
     2
  9
$DIMALTF
 40
25.399999999999999
  9
$DIMLFAC
 40
1.0
  9
$DIMTOFL
 70
     0
  9
$DIMTVP
 40
0.0
  9
$DIMTIX
 70
     0
  9
$DIMSOXD
 70
     0
  9
$DIMSAH
 70
     0
  9
$DIMBLK1
  1

  9
$DIMBLK2
  1

  9
$DIMSTYLE
  2
STANDARD
  9
$DIMCLRD
 70
     0
  9
$DIMCLRE
 70
     0
  9
$DIMCLRT
 70
     0
  9
$DIMTFAC
 40
1.0
  9
$DIMGAP
 40
0.09
  9
$LUNITS
 70
     2
  9
$LUPREC
 70
     4
  9
$SKETCHINC
 40
0.1
  9
$FILLETRAD
 40
0.0
  9
$AUNITS
 70
     0
  9
$AUPREC
 70
     0
  9
$MENU
  1
.
  9
$ELEVATION
 40
0.0
  9
$PELEVATION
 40
0.0
  9
$THICKNESS
 40
0.0
  9
$LIMCHECK
 70
     0
  9
$BLIPMODE
 70
     0
  9
$CHAMFERA
 40
0.5
  9
$CHAMFERB
 40
0.5
  9
$SKPOLY
 70
     0
  9
$TDCREATE
 40
2451380.5970990621
  9
$TDUPDATE
 40
2456461.372417477
  9
$TDINDWG
 40
0.2475831713
  9
$TDUSRTIMER
 40
0.2475741319
  9
$USRTIMER
 70
     1
  9
$ANGBASE
 50
0.0
  9
$ANGDIR
 70
     0
  9
$PDMODE
 70
     0
  9
$PDSIZE
 40
0.0
  9
$PLINEWID
 40
0.0
  9
$COORDS
 70
     1
  9
$SPLFRAME
 70
     0
  9
$SPLINETYPE
 70
     6
  9
$SPLINESEGS
 70
     8
  9
$ATTDIA
 70
     0
  9
$ATTREQ
 70
     1
  9
$HANDLING
 70
     1
  9
$HANDSEED
  5
26C
  9
$SURFTAB1
 70
     6
  9
$SURFTAB2
 70
     6
  9
$SURFTYPE
 70
     6
  9
$SURFU
 70
     6
  9
$SURFV
 70
     6
  9
$UCSNAME
  2

  9
$UCSORG
 10
0.0
 20
0.0
 30
0.0
  9
$UCSXDIR
 10
1.0
 20
0.0
 30
0.0
  9
$UCSYDIR
 10
0.0
 20
1.0
 30
0.0
  9
$PUCSNAME
  2

  9
$PUCSORG
 10
0.0
 20
0.0
 30
0.0
  9
$PUCSXDIR
 10
1.0
 20
0.0
 30
0.0
  9
$PUCSYDIR
 10
0.0
 20
1.0
 30
0.0
  9
$USERI1
 70
     0
  9
$USERI2
 70
     0
  9
$USERI3
 70
     0
  9
$USERI4
 70
     0
  9
$USERI5
 70
     0
  9
$USERR1
 40
0.0
  9
$USERR2
 40
0.0
  9
$USERR3
 40
0.0
  9
$USERR4
 40
0.0
  9
$USERR5
 40
0.0
  9
$WORLDVIEW
 70
     1
  9
$SHADEDGE
 70
     3
  9
$SHADEDIF
 70
    70
  9
$TILEMODE
 70
     1
  9
$MAXACTVP
 70
    64
  9
$PLIMCHECK
 70
     0
  9
$PEXTMIN
 10
1.0000000000000000E+020
 20
1.0000000000000000E+020
 30
1.0000000000000000E+020
  9
$PEXTMAX
 10
-1.0000000000000000E+020
 20
-1.0000000000000000E+020
 30
-1.0000000000000000E+020
  9
$PLIMMIN
 10
0.0
 20
0.0
  9
$PLIMMAX
 10
12.0
 20
9.0
  9
$UNITMODE
 70
     0
  9
$VISRETAIN
 70
     1
  9
$PLINEGEN
 70
     0
  9
$PSLTSCALE
 70
     1
  0
ENDSEC
  0
SECTION
  2
TABLES
  0
TABLE
  2
VPORT
 70
     1
  0
VPORT
  2
*ACTIVE
 70
     0
 10
0.0
 20
0.0
 11
1.0
 21
1.0
 12
-0.0002417746307772
 22
-2.2181915334122051
 13
0.0
 23
0.0
 14
0.5
 24
0.5
 15
0.5
 25
0.5
 16
0.0
 26
0.0
 36
1.0
 17
0.0
 27
0.0
 37
0.0
 40
8.5641912494748382
 41
1.6561514195583591
 42
50.0
 43
0.0
 44
0.0
 50
0.0
 51
0.0
 71
     0
 72
  5500
 73
     1
 74
     1
 75
     0
 76
     0
 77
     0
 78
     0
  0
ENDTAB
  0
TABLE
  2
LTYPE
 70
     2
  0
LTYPE
  2
CONTINUOUS
 70
     0
  3
Solid line
 72
    65
 73
     0
 40
0.0
  0
LTYPE
  2
PHANTOM2
 70
     0
  3
Phantom (.5x) ___ _ _ ___ _ _ ___ _ _ ___ _ _
 72
    65
 73
     6
 40
1.25
 49
0.625
 49
-0.125
 49
0.125
 49
-0.125
 49
0.125
 49
-0.125
  0
ENDTAB
  0
TABLE
  2
LAYER
 70
     2
  0
LAYER
  2
0
 70
     0
 62
     7
  6
CONTINUOUS
  0
LAYER
  2
DEFPOINTS
 70
     0
 62
     7
  6
CONTINUOUS
  0
ENDTAB
  0
TABLE
  2
STYLE
 70
     1
  0
STYLE
  2
STANDARD
 70
     0
 40
0.0
 41
1.0
 50
0.0
 71
     0
 42
0.001
  3
txt
  4

  0
ENDTAB
  0
TABLE
  2
VIEW
 70
     0
  0
ENDTAB
  0
TABLE
  2
UCS
 70
     0
  0
ENDTAB
  0
TABLE
  2
APPID
 70
     4
  0
APPID
  2
ACAD
 70
     0
  0
APPID
  2
ACAD_MLEADERVER
 70
     0
  0
APPID
  2
ACAD_NAV_VCDISPLAY
 70
     0
  0
APPID
  2
AcDbAttr
 70
     0
  0
ENDTAB
  0
TABLE
  2
DIMSTYLE
 70
     1
  0
DIMSTYLE
  2
STANDARD
 70
     0
  3

  4

  5

  6

  7

 40
1.0
 41
0.18
 42
0.0625
 43
0.38
 44
0.18
 45
0.0
 46
0.0
 47
0.0
 48
0.0
140
0.18
141
0.09
142
0.0
143
25.399999999999999
144
1.0
145
0.0
146
1.0
147
0.09
 71
     0
 72
     0
 73
     1
 74
     1
 75
     0
 76
     0
 77
     0
 78
     0
170
     0
171
     2
172
     0
173
     0
174
     0
175
     0
176
     0
177
     0
178
     0
  0
ENDTAB
  0
ENDSEC
  0
SECTION
  2
BLOCKS
  0
BLOCK
  8
0
  2
$MODEL_SPACE
 70
     2
 10
0.0
 20
0.0
 30
0.0
  3
$MODEL_SPACE
  1

  0
ENDBLK
  5
16
  8
0
  0
BLOCK
 67
     1
  8
0
  2
$PAPER_SPACE
 70
     0
 10
0.0
 20
0.0
 30
0.0
  3
$PAPER_SPACE
  1

  0
ENDBLK
  5
1D
 67
     1
  8
0
  0
ENDSEC
  0
SECTION
  2
ENTITIES
  0
POLYLINE
  5
70
  8
0
 66
     1
 10
0.0
 20
0.0
 30
0.0
  0
VERTEX
  5
139
  8
0
 10
0.0000007843406138
 20
0.9362076378755546
 30
0.0
  0
VERTEX
  5
13A
  8
0
 10
0.2548608438411293
 20
0.9033494862349016
 30
0.0
  0
VERTEX
  5
13B
  8
0
 10
0.5106349420168499
 20
0.7948358823329045
 30
0.0
  0
VERTEX
  5
13C
  8
0
 10
0.7682369780548016
 20
0.6007287587405017
 30
0.0
  0
VERTEX
  5
13D
  8
0
 10
0.9646241666500827
 20
0.4192762508509987
 30
0.0
  0
VERTEX
  5
13E
  8
0
 10
1.0367536838707561
 20
0.3487271120866353
 30
0.0
  0
VERTEX
  5
13F
  8
0
 10
1.0442353934073481
 20
0.33287882940499
 30
0.0
  0
VERTEX
  5
140
  8
0
 10
1.0466790816965379
 20
0.3155291987776536
 30
0.0
  0
VERTEX
  5
141
  8
0
 10
1.0370682608406689
 20
0.2642735476441658
 30
0.0
  0
VERTEX
  5
142
  8
0
 10
1.0083858249123521
 20
0.1467073579511862
 30
0.0
  0
VERTEX
  5
143
  8
0
 10
0.9638255953979069
 20
-0.0248501900609881
 30
0.0
  0
VERTEX
  5
144
  8
0
 10
0.9065809302616116
 20
-0.238080379674102
 30
0.0
  0
VERTEX
  5
145
  8
0
 10
0.817176332211261
 20
-0.4554736926504575
 30
0.0
  0
VERTEX
  5
146
  8
0
 10
0.676135222403218
 20
-0.6395213060347942
 30
0.0
  0
SEQEND
  5
147
  8
0
  0
POLYLINE
  5
71
  8
0
 66
     1
 10
0.0
 20
0.0
 30
0.0
  0
VERTEX
  5
148
  8
0
 10
1.0367536838707561
 20
0.3487271120866353
 30
0.0
  0
VERTEX
  5
149
  8
0
 10
0.9959278198157335
 20
0.3472545025088038
 30
0.0
  0
VERTEX
  5
14A
  8
0
 10
0.9513568710571007
 20
0.3258954125332139
 30
0.0
  0
VERTEX
  5
14B
  8
0
 10
0.9069734561910536
 20
0.262892097404233
 30
0.0
  0
VERTEX
  5
14C
  8
0
 10
0.8647693092968893
 20
0.18232531992453
 30
0.0
  0
VERTEX
  5
14D
  8
0
 10
0.8286472670855573
 20
0.1042889093589565
 30
0.0
  0
VERTEX
  5
14E
  8
0
 10
0.7963703721055709
 20
0.0237905786366355
 30
0.0
  0
VERTEX
  5
14F
  8
0
 10
0.7657018986665208
 20
-0.0641618048064174
 30
0.0
  0
VERTEX
  5
150
  8
0
 10
0.7414153916271289
 20
-0.1710356650546601
 30
0.0
  0
VERTEX
  5
151
  8
0
 10
0.6979823314861733
 20
-0.3901132806985288
 30
0.0
  0
VERTEX
  5
152
  8
0
 10
0.6663722890586996
 20
-0.5894891986267794
 30
0.0
  0
VERTEX
  5
153
  8
0
 10
0.6459914213007778
 20
-0.7873419581742384
 30
0.0
  0
VERTEX
  5
154
  8
0
 10
0.6341216217017518
 20
-0.9025712326997563
 30
0.0
  0
VERTEX
  5
155
  8
0
 10
0.6158682003151627
 20
-1.2674564147102949
 30
0.0
  0
VERTEX
  5
156
  8
0
 10
0.6130250203481183
 20
-1.6302838459819211
 30
0.0
  0
VERTEX
  5
157
  8
0
 10
0.625092212013783
 20
-2.1813246070051941
 30
0.0
  0
VERTEX
  5
158
  8
0
 10
0.6511328425999637
 20
-2.7652251974335509
 30
0.0
  0
VERTEX
  5
159
  8
0
 10
0.6885343922401717
 20
-3.4810079473077158
 30
0.0
  0
VERTEX
  5
15A
  8
0
 10
0.7036502780287038
 20
-4.1314734589108184
 30
0.0
  0
VERTEX
  5
15B
  8
0
 10
0.7010901802349281
 20
-4.1606831693047752
 30
0.0
  0
VERTEX
  5
15C
  8
0
 10
0.6642614096069793
 20
-4.5808849783268206
 30
0.0
  0
VERTEX
  5
15D
  8
0
 10
0.6534107410629986
 20
-4.6245508211508186
 30
0.0
  0
VERTEX
  5
15E
  8
0
 10
0.5877265787479474
 20
-4.8888805530974651
 30
0.0
  0
VERTEX
  5
15F
  8
0
 10
0.5642335926914939
 20
-4.9466964230816748
 30
0.0
  0
VERTEX
  5
160
  8
0
 10
0.4916423574553619
 20
-5.1253423137453629
 30
0.0
  0
VERTEX
  5
161
  8
0
 10
0.4503827438200006
 20
-5.1804204376763892
 30
0.0
  0
SEQEND
  5
162
  8
0
  0
POLYLINE
  5
72
  8
0
 66
     1
 10
0.0
 20
0.0
 30
0.0
  0
VERTEX
  5
163
  8
0
 10
1.0370682608406689
 20
0.2642735476441658
 30
0.0
  0
VERTEX
  5
164
  8
0
 10
0.9973437251953782
 20
0.263231241043286
 30
0.0
  0
VERTEX
  5
165
  8
0
 10
0.9540659839614136
 20
0.2431540921199939
 30
0.0
  0
VERTEX
  5
166
  8
0
 10
0.9096546995349399
 20
0.1865135507324567
 30
0.0
  0
VERTEX
  5
167
  8
0
 10
0.8674379602915678
 20
0.1114804540873138
 30
0.0
  0
VERTEX
  5
168
  8
0
 10
0.8307428503093206
 20
0.0362253303765101
 30
0.0
  0
VERTEX
  5
169
  8
0
 10
0.7974610395078799
 20
-0.0433315870462821
 30
0.0
  0
VERTEX
  5
16A
  8
0
 10
0.7660903485533482
 20
-0.1325375494718628
 30
0.0
  0
VERTEX
  5
16B
  8
0
 10
0.754889892577353
 20
-0.1765460395530454
 30
0.0
  0
VERTEX
  5
16C
  8
0
 10
0.7417560401405581
 20
-0.2391795449807432
 30
0.0
  0
VERTEX
  5
16D
  8
0
 10
0.7243192590542549
 20
-0.3531534634723812
 30
0.0
  0
VERTEX
  5
16E
  8
0
 10
0.7036240697190124
 20
-0.4941042389854147
 30
0.0
  0
VERTEX
  5
16F
  8
0
 10
0.6899722523526181
 20
-0.6214650645462143
 30
0.0
  0
VERTEX
  5
170
  8
0
 10
0.6696485402176223
 20
-0.8204081625062826
 30
0.0
  0
VERTEX
  5
171
  8
0
 10
0.6502146826569515
 20
-1.206067476107932
 30
0.0
  0
VERTEX
  5
172
  8
0
 10
0.6473327728887171
 20
-1.6503548364275951
 30
0.0
  0
VERTEX
  5
173
  8
0
 10
0.663196776693667
 20
-2.1570269352373539
 30
0.0
  0
VERTEX
  5
174
  8
0
 10
0.6907264332639898
 20
-2.756229470348444
 30
0.0
  0
VERTEX
  5
175
  8
0
 10
0.7228412500310242
 20
-3.478108834855675
 30
0.0
  0
VERTEX
  5
176
  8
0
 10
0.7276658966244441
 20
-4.156877557830966
 30
0.0
  0
VERTEX
  5
177
  8
0
 10
0.6733241928831149
 20
-4.6267477048240826
 30
0.0
  0
VERTEX
  5
178
  8
0
 10
0.58272046326897
 20
-4.9566972293303024
 30
0.0
  0
VERTEX
  5
179
  8
0
 10
0.478759688900027
 20
-5.2157028487864627
 30
0.0
  0
VERTEX
  5
17A
  8
0
 10
0.3497647834669806
 20
-5.4032611782374707
 30
0.0
  0
VERTEX
  5
17B
  8
0
 10
0.3461338579248832
 20
-5.4061640813047234
 30
0.0
  0
VERTEX
  5
17C
  8
0
 10
0.182004775108112
 20
-5.5213579461792497
 30
0.0
  0
VERTEX
  5
17D
  8
0
 10
-0.0000012528596471
 20
-5.560848171424368
 30
0.0
  0
SEQEND
  5
17E
  8
0
  0
POLYLINE
  5
73
  8
0
 66
     1
 10
0.0
 20
0.0
 30
0.0
  0
VERTEX
  5
17F
  8
0
 10
0.0000007843406138
 20
0.9362076378755546
 30
0.0
  0
VERTEX
  5
180
  8
0
 10
-0.2548592751599017
 20
0.9033494862349016
 30
0.0
  0
VERTEX
  5
181
  8
0
 10
-0.5106333733356223
 20
0.7948358823329045
 30
0.0
  0
VERTEX
  5
182
  8
0
 10
-0.768235409373574
 20
0.6007287587405017
 30
0.0
  0
VERTEX
  5
183
  8
0
 10
-0.9646225979687415
 20
0.4192762508509987
 30
0.0
  0
VERTEX
  5
184
  8
0
 10
-1.036752115189415
 20
0.3487271120866353
 30
0.0
  0
VERTEX
  5
185
  8
0
 10
-1.0442338247260059
 20
0.33287882940499
 30
0.0
  0
VERTEX
  5
186
  8
0
 10
-1.0466775130153101
 20
0.3155291987776536
 30
0.0
  0
VERTEX
  5
187
  8
0
 10
-1.0370666921593279
 20
0.2642735476441658
 30
0.0
  0
VERTEX
  5
188
  8
0
 10
-1.008384256231011
 20
0.1467073579511862
 30
0.0
  0
VERTEX
  5
189
  8
0
 10
-0.9638240267165656
 20
-0.0248501900609881
 30
0.0
  0
VERTEX
  5
18A
  8
0
 10
-0.9065793615803841
 20
-0.238080379674102
 30
0.0
  0
VERTEX
  5
18B
  8
0
 10
-0.8171747635300334
 20
-0.4554736926504575
 30
0.0
  0
VERTEX
  5
18C
  8
0
 10
-0.6761336537219905
 20
-0.6395213060347942
 30
0.0
  0
SEQEND
  5
18D
  8
0
  0
POLYLINE
  5
74
  8
0
 66
     1
 10
0.0
 20
0.0
 30
0.0
  0
VERTEX
  5
18E
  8
0
 10
-1.036752115189415
 20
0.3487271120866353
 30
0.0
  0
VERTEX
  5
18F
  8
0
 10
-0.995926251134506
 20
0.3472545025088038
 30
0.0
  0
VERTEX
  5
190
  8
0
 10
-0.9513553023757594
 20
0.3258954125332139
 30
0.0
  0
VERTEX
  5
191
  8
0
 10
-0.9069718875097123
 20
0.262892097404233
 30
0.0
  0
VERTEX
  5
192
  8
0
 10
-0.8647677406156618
 20
0.18232531992453
 30
0.0
  0
VERTEX
  5
193
  8
0
 10
-0.828645698404216
 20
0.1042889093589565
 30
0.0
  0
VERTEX
  5
194
  8
0
 10
-0.7963688034242296
 20
0.0237905786366355
 30
0.0
  0
VERTEX
  5
195
  8
0
 10
-0.7657003299851795
 20
-0.0641618048064174
 30
0.0
  0
VERTEX
  5
196
  8
0
 10
-0.7414138229457877
 20
-0.1710356650546601
 30
0.0
  0
VERTEX
  5
197
  8
0
 10
-0.6979807628049457
 20
-0.3901132806985288
 30
0.0
  0
VERTEX
  5
198
  8
0
 10
-0.6663707203773585
 20
-0.5894891986267794
 30
0.0
  0
VERTEX
  5
199
  8
0
 10
-0.6459898526194366
 20
-0.7873419581742384
 30
0.0
  0
VERTEX
  5
19A
  8
0
 10
-0.6341200530204106
 20
-0.9025712326997563
 30
0.0
  0
VERTEX
  5
19B
  8
0
 10
-0.615866631633935
 20
-1.2674564147102949
 30
0.0
  0
VERTEX
  5
19C
  8
0
 10
-0.613023451666777
 20
-1.6302838459819211
 30
0.0
  0
VERTEX
  5
19D
  8
0
 10
-0.6250906433325554
 20
-2.1813246070051941
 30
0.0
  0
VERTEX
  5
19E
  8
0
 10
-0.6511312739186224
 20
-2.7652251974335509
 30
0.0
  0
VERTEX
  5
19F
  8
0
 10
-0.6885328235589441
 20
-3.4810079473077158
 30
0.0
  0
VERTEX
  5
1A0
  8
0
 10
-0.7036487093473625
 20
-4.1314734589108184
 30
0.0
  0
VERTEX
  5
1A1
  8
0
 10
-0.7010886115537005
 20
-4.1606831693047752
 30
0.0
  0
VERTEX
  5
1A2
  8
0
 10
-0.664259840925638
 20
-4.5808849783268206
 30
0.0
  0
VERTEX
  5
1A3
  8
0
 10
-0.6534091723816573
 20
-4.6245508211508186
 30
0.0
  0
VERTEX
  5
1A4
  8
0
 10
-0.5877250100666061
 20
-4.8888805530974651
 30
0.0
  0
VERTEX
  5
1A5
  8
0
 10
-0.5642320240101526
 20
-4.9466964230816748
 30
0.0
  0
VERTEX
  5
1A6
  8
0
 10
-0.4916407887740207
 20
-5.1253423137453629
 30
0.0
  0
VERTEX
  5
1A7
  8
0
 10
-0.4503811751386593
 20
-5.1804204376763892
 30
0.0
  0
SEQEND
  5
1A8
  8
0
  0
POLYLINE
  5
75
  8
0
 66
     1
 10
0.0
 20
0.0
 30
0.0
  0
VERTEX
  5
1A9
  8
0
 10
-1.0370666921593279
 20
0.2642735476441658
 30
0.0
  0
VERTEX
  5
1AA
  8
0
 10
-0.997342156514037
 20
0.263231241043286
 30
0.0
  0
VERTEX
  5
1AB
  8
0
 10
-0.9540644152800724
 20
0.2431540921199939
 30
0.0
  0
VERTEX
  5
1AC
  8
0
 10
-0.9096531308535986
 20
0.1865135507324567
 30
0.0
  0
VERTEX
  5
1AD
  8
0
 10
-0.8674363916103403
 20
0.1114804540873138
 30
0.0
  0
VERTEX
  5
1AE
  8
0
 10
-0.8307412816279793
 20
0.0362253303765101
 30
0.0
  0
VERTEX
  5
1AF
  8
0
 10
-0.7974594708265386
 20
-0.0433315870462821
 30
0.0
  0
VERTEX
  5
1B0
  8
0
 10
-0.7660887798720069
 20
-0.1325375494718628
 30
0.0
  0
VERTEX
  5
1B1
  8
0
 10
-0.7548883238960116
 20
-0.1765460395530454
 30
0.0
  0
VERTEX
  5
1B2
  8
0
 10
-0.7417544714592168
 20
-0.2391795449807432
 30
0.0
  0
VERTEX
  5
1B3
  8
0
 10
-0.7243176903730273
 20
-0.3531534634723812
 30
0.0
  0
VERTEX
  5
1B4
  8
0
 10
-0.7036225010376711
 20
-0.4941042389854147
 30
0.0
  0
VERTEX
  5
1B5
  8
0
 10
-0.6899706836713904
 20
-0.6214650645462143
 30
0.0
  0
VERTEX
  5
1B6
  8
0
 10
-0.6696469715362811
 20
-0.8204081625062826
 30
0.0
  0
VERTEX
  5
1B7
  8
0
 10
-0.6502131139756103
 20
-1.206067476107932
 30
0.0
  0
VERTEX
  5
1B8
  8
0
 10
-0.6473312042074895
 20
-1.6503548364275951
 30
0.0
  0
VERTEX
  5
1B9
  8
0
 10
-0.6631952080123256
 20
-2.1570269352373539
 30
0.0
  0
VERTEX
  5
1BA
  8
0
 10
-0.6907248645826485
 20
-2.756229470348444
 30
0.0
  0
VERTEX
  5
1BB
  8
0
 10
-0.7228396813497966
 20
-3.478108834855675
 30
0.0
  0
VERTEX
  5
1BC
  8
0
 10
-0.7276643279431028
 20
-4.156877557830966
 30
0.0
  0
VERTEX
  5
1BD
  8
0
 10
-0.6733226242017736
 20
-4.6267477048240826
 30
0.0
  0
VERTEX
  5
1BE
  8
0
 10
-0.5827188945876287
 20
-4.9566972293303024
 30
0.0
  0
VERTEX
  5
1BF
  8
0
 10
-0.4787581202187994
 20
-5.2157028487864627
 30
0.0
  0
VERTEX
  5
1C0
  8
0
 10
-0.3497632147856393
 20
-5.4032611782374707
 30
0.0
  0
VERTEX
  5
1C1
  8
0
 10
-0.3461322892435419
 20
-5.4061640813047234
 30
0.0
  0
VERTEX
  5
1C2
  8
0
 10
-0.1820032064267707
 20
-5.5213579461792497
 30
0.0
  0
VERTEX
  5
1C3
  8
0
 10
0.0000028215408747
 20
-5.560848171424368
 30
0.0
  0
SEQEND
  5
1C4
  8
0
  0
POLYLINE
  5
76
  8
0
 66
     1
 10
0.0
 20
0.0
 30
0.0
  0
VERTEX
  5
1C5
  8
0
 10
0.0002404837347285
 20
0.4684468252605712
 30
0.0
  0
VERTEX
  5
1C6
  8
0
 10
0.1265304648750316
 20
0.4417916803062099
 30
0.0
  0
VERTEX
  5
1C7
  8
0
 10
0.2428606247169682
 20
0.3801208430390943
 30
0.0
  0
VERTEX
  5
1C8
  8
0
 10
0.3395442261203243
 20
0.3004941699655319
 30
0.0
  0
VERTEX
  5
1C9
  8
0
 10
0.4112157567714121
 20
0.2182487429340654
 30
0.0
  0
VERTEX
  5
1CA
  8
0
 10
0.4186601336690501
 20
0.2056345056629425
 30
0.0
  0
VERTEX
  5
1CB
  8
0
 10
0.4285259838732145
 20
0.1889171662445506
 30
0.0
  0
VERTEX
  5
1CC
  8
0
 10
0.4325641345091072
 20
0.1820746606920238
 30
0.0
  0
VERTEX
  5
1CD
  8
0
 10
0.4432738836575254
 20
0.1639273639162866
 30
0.0
  0
VERTEX
  5
1CE
  8
0
 10
0.4519704887126182
 20
0.1491912696634472
 30
0.0
  0
VERTEX
  5
1CF
  8
0
 10
0.4541077703994461
 20
0.1455697203138015
 30
0.0
  0
VERTEX
  5
1D0
  8
0
 10
0.4625147227749267
 20
0.1296823705982888
 30
0.0
  0
VERTEX
  5
1D1
  8
0
 10
0.4719889835735103
 20
0.1117780352485624
 30
0.0
  0
VERTEX
  5
1D2
  8
0
 10
0.4773111824691796
 20
0.0801353929510924
 30
0.0
  0
VERTEX
  5
1D3
  8
0
 10
0.4801470104193868
 20
0.0329722553206011
 30
0.0
  0
VERTEX
  5
1D4
  8
0
 10
0.4757369843068773
 20
-0.0278324909814956
 30
0.0
  0
VERTEX
  5
1D5
  8
0
 10
0.4227566834763366
 20
-0.0725714855029764
 30
0.0
  0
VERTEX
  5
1D6
  8
0
 10
0.3509032678759922
 20
-0.0924045560814193
 30
0.0
  0
VERTEX
  5
1D7
  8
0
 10
0.2139217355534129
 20
-0.1095837218264251
 30
0.0
  0
VERTEX
  5
1D8
  8
0
 10
0.1930547926294821
 20
-0.1092800052972507
 30
0.0
  0
VERTEX
  5
1D9
  8
0
 10
0.1081537846848732
 20
-0.1120103758664754
 30
0.0
  0
VERTEX
  5
1DA
  8
0
 10
0.0002401779253205
 20
-0.1145908097392976
 30
0.0
  0
SEQEND
  5
1DB
  8
0
  0
POLYLINE
  5
77
  8
0
 66
     1
 10
0.0
 20
0.0
 30
0.0
  0
VERTEX
  5
1DC
  8
0
 10
-0.0002389150533872
 20
0.4684468252605712
 30
0.0
  0
VERTEX
  5
1DD
  8
0
 10
-0.1265288961936903
 20
0.4417916803062099
 30
0.0
  0
VERTEX
  5
1DE
  8
0
 10
-0.2428590560357406
 20
0.3801208430390943
 30
0.0
  0
VERTEX
  5
1DF
  8
0
 10
-0.339542657438983
 20
0.3004941699655319
 30
0.0
  0
VERTEX
  5
1E0
  8
0
 10
-0.4112141880900709
 20
0.2182487429340654
 30
0.0
  0
VERTEX
  5
1E1
  8
0
 10
-0.4186585649878225
 20
0.2056345056629425
 30
0.0
  0
VERTEX
  5
1E2
  8
0
 10
-0.428524415191987
 20
0.1889171662445506
 30
0.0
  0
VERTEX
  5
1E3
  8
0
 10
-0.4325625658277659
 20
0.1820746606920238
 30
0.0
  0
VERTEX
  5
1E4
  8
0
 10
-0.4432723149761842
 20
0.1639273639162866
 30
0.0
  0
VERTEX
  5
1E5
  8
0
 10
-0.4519689200312769
 20
0.1491912696634472
 30
0.0
  0
VERTEX
  5
1E6
  8
0
 10
-0.4541062017181048
 20
0.1455697203138015
 30
0.0
  0
VERTEX
  5
1E7
  8
0
 10
-0.4625131540935854
 20
0.1296823705982888
 30
0.0
  0
VERTEX
  5
1E8
  8
0
 10
-0.471987414892169
 20
0.1117780352485624
 30
0.0
  0
VERTEX
  5
1E9
  8
0
 10
-0.4773096137878384
 20
0.0801353929510924
 30
0.0
  0
VERTEX
  5
1EA
  8
0
 10
-0.4801454417380456
 20
0.0329722553206011
 30
0.0
  0
VERTEX
  5
1EB
  8
0
 10
-0.475735415625536
 20
-0.0278324909814956
 30
0.0
  0
VERTEX
  5
1EC
  8
0
 10
-0.422755114795109
 20
-0.0725714855029764
 30
0.0
  0
VERTEX
  5
1ED
  8
0
 10
-0.3509016991947647
 20
-0.0924045560814193
 30
0.0
  0
VERTEX
  5
1EE
  8
0
 10
-0.2139201668721853
 20
-0.1095837218264251
 30
0.0
  0
VERTEX
  5
1EF
  8
0
 10
-0.1930532239482545
 20
-0.1092800052972507
 30
0.0
  0
VERTEX
  5
1F0
  8
0
 10
-0.1081522160036457
 20
-0.1120103758664754
 30
0.0
  0
VERTEX
  5
1F1
  8
0
 10
-0.0002386092439792
 20
-0.1145908097392976
 30
0.0
  0
SEQEND
  5
1F2
  8
0
  0
ARC
  5
78
  8
0
 10
4.0
 20
0.0
 30
0.0
 40
1.1249990996304191
 50
19.519352209504088
 51
339.25326460812232
  0
ARC
  5
79
  8
0
 10
4.0
 20
0.0
 30
0.0
 40
0.66883530257206
 50
29.831367306141399
 51
332.143650725393
  0
ARC
  5
7A
  8
0
 10
4.0
 20
0.0
 30
0.0
 40
0.4464010013934561
 50
42.350566499577859
 51
323.35558780511599
  0
POLYLINE
  5
7B
  8
0
 66
     1
 10
0.0
 20
0.0
 30
0.0
  0
VERTEX
  5
1F3
  8
0
 10
3.6747284854868658
 20
0.3057323926105937
 30
0.0
  0
VERTEX
  5
1F4
  8
0
 10
3.7610199148889469
 20
0.2220839659826197
 30
0.0
  0
VERTEX
  5
1F5
  8
0
 10
3.8547935173497758
 20
0.1939817051635373
 30
0.0
  0
VERTEX
  5
1F6
  8
0
 10
4.0253050505846204
 20
0.2382001644139109
 30
0.0
  0
VERTEX
  5
1F7
  8
0
 10
4.0744217019282578
 20
0.262732996372506
 30
0.0
  0
VERTEX
  5
1F8
  8
0
 10
4.1410586818044521
 20
0.2763326322218518
 30
0.0
  0
VERTEX
  5
1F9
  8
0
 10
4.3418133624559232
 20
0.3022626209925647
 30
0.0
  0
VERTEX
  5
1FA
  8
0
 10
4.5892995317290106
 20
0.3338723532237964
 30
0.0
  0
VERTEX
  5
1FB
  8
0
 10
4.9081826216101936
 20
0.3663428459167335
 30
0.0
  0
VERTEX
  5
1FC
  8
0
 10
5.305621266761932
 20
0.3912811051686731
 30
0.0
  0
VERTEX
  5
1FD
  8
0
 10
5.7178678965900636
 20
0.4052392994055936
 30
0.0
  0
VERTEX
  5
1FE
  8
0
 10
6.0811252584198883
 20
0.4092717429484765
 30
0.0
  0
VERTEX
  5
1FF
  8
0
 10
6.400610548675103
 20
0.3911001770586608
 30
0.0
  0
VERTEX
  5
200
  8
0
 10
6.681239781147041
 20
0.3654680252860771
 30
0.0
  0
VERTEX
  5
201
  8
0
 10
6.9405439088084222
 20
0.3309727137369691
 30
0.0
  0
VERTEX
  5
202
  8
0
 10
6.9897804578577052
 20
0.3198725965089579
 30
0.0
  0
VERTEX
  5
203
  8
0
 10
7.0474976064783732
 20
0.3058368395810476
 30
0.0
  0
VERTEX
  5
204
  8
0
 10
7.0605133058642187
 20
0.2978812559938433
 30
0.0
  0
VERTEX
  5
205
  8
0
 10
7.0637048097402149
 20
0.2699339660493933
 30
0.0
  0
VERTEX
  5
206
  8
0
 10
7.0623111534195004
 20
0.2621202202119548
 30
0.0
  0
VERTEX
  5
207
  8
0
 10
7.0523553176451506
 20
0.2080684495178957
 30
0.0
  0
VERTEX
  5
208
  8
0
 10
6.9607367837388656
 20
0.0979062521631704
 30
0.0
  0
VERTEX
  5
209
  8
0
 10
6.7259770760875881
 20
-0.1003393508694899
 30
0.0
  0
VERTEX
  5
20A
  8
0
 10
6.4114069044477437
 20
-0.3012701371835647
 30
0.0
  0
VERTEX
  5
20B
  8
0
 10
6.0808730331336838
 20
-0.4213191055259813
 30
0.0
  0
VERTEX
  5
20C
  8
0
 10
5.7158049144177312
 20
-0.465745454419448
 30
0.0
  0
VERTEX
  5
20D
  8
0
 10
5.2976709364247654
 20
-0.4374054067844782
 30
0.0
  0
VERTEX
  5
20E
  8
0
 10
4.8852055241852659
 20
-0.3721015608811058
 30
0.0
  0
VERTEX
  5
20F
  8
0
 10
4.5304283989680689
 20
-0.300169143486869
 30
0.0
  0
VERTEX
  5
210
  8
0
 10
4.2853724445679973
 20
-0.2521754258840474
 30
0.0
  0
VERTEX
  5
211
  8
0
 10
4.165691369572186
 20
-0.2445973563237658
 30
0.0
  0
VERTEX
  5
212
  8
0
 10
4.0778236448185217
 20
-0.2330386087088527
 30
0.0
  0
VERTEX
  5
213
  8
0
 10
4.030935298514577
 20
-0.2113295531269159
 30
0.0
  0
VERTEX
  5
214
  8
0
 10
3.8579219822258888
 20
-0.1891908125974169
 30
0.0
  0
VERTEX
  5
215
  8
0
 10
3.7623428068422982
 20
-0.2228337070820316
 30
0.0
  0
VERTEX
  5
216
  8
0
 10
3.6736716798325229
 20
-0.3046041390095979
 30
0.0
  0
SEQEND
  5
217
  8
0
  0
ARC
  5
7C
  8
0
 10
4.0
 20
0.0
 30
0.0
 40
0.6261321056094613
 50
31.464073740146041
 51
330.99045748543568
  0
ARC
  5
7D
  8
0
 10
-4.0
 20
0.0
 30
0.0
 40
1.1249990996304191
 50
200.74673539187771
 51
160.48064779049591
  0
ARC
  5
7E
  8
0
 10
-4.0
 20
0.0
 30
0.0
 40
0.66883530257206
 50
207.856349274607
 51
150.1686326938586
  0
ARC
  5
7F
  8
0
 10
-4.0
 20
0.0
 30
0.0
 40
0.4464010013934561
 50
216.64441219488401
 51
137.64943350042211
  0
POLYLINE
  5
80
  8
0
 66
     1
 10
0.0
 20
0.0
 30
0.0
  0
VERTEX
  5
218
  8
0
 10
-3.6747284854868658
 20
0.3057323926105937
 30
0.0
  0
VERTEX
  5
219
  8
0
 10
-3.7610199148889469
 20
0.2220839659826197
 30
0.0
  0
VERTEX
  5
21A
  8
0
 10
-3.8547935173497758
 20
0.1939817051635373
 30
0.0
  0
VERTEX
  5
21B
  8
0
 10
-4.0253050505846204
 20
0.2382001644139109
 30
0.0
  0
VERTEX
  5
21C
  8
0
 10
-4.0744217019282578
 20
0.262732996372506
 30
0.0
  0
VERTEX
  5
21D
  8
0
 10
-4.1410586818044521
 20
0.2763326322218518
 30
0.0
  0
VERTEX
  5
21E
  8
0
 10
-4.3418133624559232
 20
0.3022626209925647
 30
0.0
  0
VERTEX
  5
21F
  8
0
 10
-4.5892995317290106
 20
0.3338723532237964
 30
0.0
  0
VERTEX
  5
220
  8
0
 10
-4.9081826216101936
 20
0.3663428459167335
 30
0.0
  0
VERTEX
  5
221
  8
0
 10
-5.305621266761932
 20
0.3912811051686731
 30
0.0
  0
VERTEX
  5
222
  8
0
 10
-5.7178678965900636
 20
0.4052392994055936
 30
0.0
  0
VERTEX
  5
223
  8
0
 10
-6.0811252584198883
 20
0.4092717429484765
 30
0.0
  0
VERTEX
  5
224
  8
0
 10
-6.400610548675103
 20
0.3911001770586608
 30
0.0
  0
VERTEX
  5
225
  8
0
 10
-6.681239781147041
 20
0.3654680252860771
 30
0.0
  0
VERTEX
  5
226
  8
0
 10
-6.9405439088084222
 20
0.3309727137369691
 30
0.0
  0
VERTEX
  5
227
  8
0
 10
-6.9897804578577052
 20
0.3198725965089579
 30
0.0
  0
VERTEX
  5
228
  8
0
 10
-7.0474976064783732
 20
0.3058368395810476
 30
0.0
  0
VERTEX
  5
229
  8
0
 10
-7.0605133058642187
 20
0.2978812559938433
 30
0.0
  0
VERTEX
  5
22A
  8
0
 10
-7.0637048097402149
 20
0.2699339660493933
 30
0.0
  0
VERTEX
  5
22B
  8
0
 10
-7.0623111534195004
 20
0.2621202202119548
 30
0.0
  0
VERTEX
  5
22C
  8
0
 10
-7.0523553176451506
 20
0.2080684495178957
 30
0.0
  0
VERTEX
  5
22D
  8
0
 10
-6.9607367837388656
 20
0.0979062521631704
 30
0.0
  0
VERTEX
  5
22E
  8
0
 10
-6.7259770760875881
 20
-0.1003393508694899
 30
0.0
  0
VERTEX
  5
22F
  8
0
 10
-6.4114069044477437
 20
-0.3012701371835647
 30
0.0
  0
VERTEX
  5
230
  8
0
 10
-6.0808730331336838
 20
-0.4213191055259813
 30
0.0
  0
VERTEX
  5
231
  8
0
 10
-5.7158049144177312
 20
-0.465745454419448
 30
0.0
  0
VERTEX
  5
232
  8
0
 10
-5.2976709364247654
 20
-0.4374054067844782
 30
0.0
  0
VERTEX
  5
233
  8
0
 10
-4.8852055241852659
 20
-0.3721015608811058
 30
0.0
  0
VERTEX
  5
234
  8
0
 10
-4.5304283989680689
 20
-0.300169143486869
 30
0.0
  0
VERTEX
  5
235
  8
0
 10
-4.2853724445679973
 20
-0.2521754258840474
 30
0.0
  0
VERTEX
  5
236
  8
0
 10
-4.165691369572186
 20
-0.2445973563237658
 30
0.0
  0
VERTEX
  5
237
  8
0
 10
-4.0778236448185217
 20
-0.2330386087088527
 30
0.0
  0
VERTEX
  5
238
  8
0
 10
-4.030935298514577
 20
-0.2113295531269159
 30
0.0
  0
VERTEX
  5
239
  8
0
 10
-3.8579219822258888
 20
-0.1891908125974169
 30
0.0
  0
VERTEX
  5
23A
  8
0
 10
-3.7623428068422982
 20
-0.2228337070820316
 30
0.0
  0
VERTEX
  5
23B
  8
0
 10
-3.6857765337369979
 20
-0.2934413268792468
 30
0.0
  0
SEQEND
  5
23C
  8
0
  0
ARC
  5
81
  8
0
 10
-4.0
 20
0.0
 30
0.0
 40
0.6261321056094613
 50
209.00954251456429
 51
148.53592625985959
  0
ATTDEF
  5
82
  8
DEFPOINTS
 10
0.0
 20
-0.005
 30
0.0
 40
0.001
  1
BRASS
  3

  2
MATERIAL
 70
     8
1001
AcDbAttr
1070
     0
1070
     1
  0
ATTDEF
  5
84
  8
DEFPOINTS
 10
0.0
 20
-0.0033333333333333
 30
0.0
 40
0.001
  1
FAUCET
  3

  2
PRODUCT
 70
     8
1001
AcDbAttr
1070
     0
1070
     1
  0
ATTDEF
  5
85
  8
DEFPOINTS
 10
0.0
 20
-0.0016666666666667
 30
0.0
 40
0.001
  1
REFINIA
  3

  2
TRADENAME
 70
     8
1001
AcDbAttr
1070
     0
1070
     1
  0
ATTDEF
  5
86
  8
DEFPOINTS
 10
0.0
 20
0.0
 30
0.0
 40
0.001
  1
K-5317-4
  3

  2
MODELNUMBER
 70
     8
1001
AcDbAttr
1070
     0
1070
     1
  0
ENDSEC
  0
EOF
