  0
SECTION
  2
HEADER
  9
$ACADVER
  1
AC1009
  9
$INSBASE
 10
55.269839515000001
 20
-11.988654325502541
 30
0.0
  9
$EXTMIN
 10
25.403983987945651
 20
-11.99298485400811
 30
-0.0000000349181948
  9
$EXTMAX
 10
55.295024653556879
 20
18.495489536565572
 30
0.0000000814935746
  9
$LIMMIN
 10
0.0
 20
0.0
  9
$LIMMAX
 10
11.692913385800001
 20
8.2677165353999982
  9
$ORTHOMODE
 70
     1
  9
$REGENMODE
 70
     1
  9
$FILLMODE
 70
     1
  9
$QTEXTMODE
 70
     0
  9
$MIRRTEXT
 70
     0
  9
$DRAGMODE
 70
     2
  9
$LTSCALE
 40
0.6431102362
  9
$OSMODE
 70
  3071
  9
$ATTMODE
 70
     1
  9
$TEXTSIZE
 40
0.2
  9
$TRACEWID
 40
0.05
  9
$TEXTSTYLE
  7
STANDARD
  9
$CLAYER
  8
0
  9
$CELTYPE
  6
BYLAYER
  9
$CECOLOR
 62
   256
  9
$DIMSCALE
 40
1.0
  9
$DIMASZ
 40
0.1875
  9
$DIMEXO
 40
0.0625
  9
$DIMDLI
 40
0.4443307087
  9
$DIMRND
 40
0.0
  9
$DIMDLE
 40
0.0
  9
$DIMEXE
 40
0.125
  9
$DIMTP
 40
0.01
  9
$DIMTM
 40
0.01
  9
$DIMTXT
 40
0.15625
  9
$DIMCEN
 40
0.1052362205
  9
$DIMTSZ
 40
0.0
  9
$DIMTOL
 70
     1
  9
$DIMLIM
 70
     0
  9
$DIMTIH
 70
     1
  9
$DIMTOH
 70
     1
  9
$DIMSE1
 70
     0
  9
$DIMSE2
 70
     0
  9
$DIMTAD
 70
     0
  9
$DIMZIN
 70
     0
  9
$DIMBLK
  1

  9
$DIMASO
 70
     1
  9
$DIMSHO
 70
     1
  9
$DIMPOST
  1

  9
$DIMAPOST
  1

  9
$DIMALT
 70
     0
  9
$DIMALTD
 70
     2
  9
$DIMALTF
 40
25.399999999999999
  9
$DIMLFAC
 40
1.0
  9
$DIMTOFL
 70
     0
  9
$DIMTVP
 40
0.0
  9
$DIMTIX
 70
     0
  9
$DIMSOXD
 70
     0
  9
$DIMSAH
 70
     0
  9
$DIMBLK1
  1

  9
$DIMBLK2
  1

  9
$DIMSTYLE
  2
STANDARD
  9
$DIMCLRD
 70
     0
  9
$DIMCLRE
 70
     0
  9
$DIMCLRT
 70
     0
  9
$DIMTFAC
 40
1.0
  9
$DIMGAP
 40
0.09
  9
$LUNITS
 70
     2
  9
$LUPREC
 70
     4
  9
$SKETCHINC
 40
0.1
  9
$FILLETRAD
 40
0.0
  9
$AUNITS
 70
     0
  9
$AUPREC
 70
     0
  9
$MENU
  1
.
  9
$ELEVATION
 40
0.0
  9
$PELEVATION
 40
0.0
  9
$THICKNESS
 40
0.0
  9
$LIMCHECK
 70
     0
  9
$BLIPMODE
 70
     0
  9
$CHAMFERA
 40
0.0
  9
$CHAMFERB
 40
0.0
  9
$SKPOLY
 70
     0
  9
$TDCREATE
 40
2457893.7587911459
  9
$TDUPDATE
 40
2457932.7360655558
  9
$TDINDWG
 40
0.1844852431
  9
$TDUSRTIMER
 40
0.1844852431
  9
$USRTIMER
 70
     1
  9
$ANGBASE
 50
0.0
  9
$ANGDIR
 70
     0
  9
$PDMODE
 70
     0
  9
$PDSIZE
 40
0.3125
  9
$PLINEWID
 40
0.0
  9
$COORDS
 70
     1
  9
$SPLFRAME
 70
     0
  9
$SPLINETYPE
 70
     6
  9
$SPLINESEGS
 70
     8
  9
$ATTDIA
 70
     1
  9
$ATTREQ
 70
     1
  9
$HANDLING
 70
     1
  9
$HANDSEED
  5
18C5
  9
$SURFTAB1
 70
     6
  9
$SURFTAB2
 70
     6
  9
$SURFTYPE
 70
     6
  9
$SURFU
 70
     6
  9
$SURFV
 70
     6
  9
$UCSNAME
  2

  9
$UCSORG
 10
0.0
 20
0.0
 30
0.0
  9
$UCSXDIR
 10
1.0
 20
0.0
 30
0.0
  9
$UCSYDIR
 10
0.0
 20
1.0
 30
0.0
  9
$PUCSNAME
  2

  9
$PUCSORG
 10
0.0
 20
0.0
 30
0.0
  9
$PUCSXDIR
 10
1.0
 20
0.0
 30
0.0
  9
$PUCSYDIR
 10
0.0
 20
1.0
 30
0.0
  9
$USERI1
 70
     0
  9
$USERI2
 70
     0
  9
$USERI3
 70
     0
  9
$USERI4
 70
     0
  9
$USERI5
 70
     0
  9
$USERR1
 40
0.0
  9
$USERR2
 40
0.0
  9
$USERR3
 40
0.0
  9
$USERR4
 40
0.0
  9
$USERR5
 40
0.0
  9
$WORLDVIEW
 70
     1
  9
$SHADEDGE
 70
     3
  9
$SHADEDIF
 70
    70
  9
$TILEMODE
 70
     1
  9
$MAXACTVP
 70
    48
  9
$PLIMCHECK
 70
     0
  9
$PEXTMIN
 10
1.0000000000000000E+020
 20
1.0000000000000000E+020
 30
1.0000000000000000E+020
  9
$PEXTMAX
 10
-1.0000000000000000E+020
 20
-1.0000000000000000E+020
 30
-1.0000000000000000E+020
  9
$PLIMMIN
 10
0.0
 20
0.0
  9
$PLIMMAX
 10
12.0
 20
9.0
  9
$UNITMODE
 70
     0
  9
$VISRETAIN
 70
     1
  9
$PLINEGEN
 70
     0
  9
$PSLTSCALE
 70
     1
  0
ENDSEC
  0
SECTION
  2
TABLES
  0
TABLE
  2
VPORT
 70
     1
  0
VPORT
  2
*ACTIVE
 70
     0
 10
0.0
 20
0.0
 11
1.0
 21
1.0
 12
14.69225129197824
 22
-20.078629978371271
 13
0.0
 23
0.0
 14
1.0
 24
1.0
 15
0.0
 25
0.0
 16
-0.0000000000000497
 26
0.0
 36
227.27877346333361
 17
25.65725302877302
 27
23.32988231965
 37
0.0
 40
30.746123469930652
 41
1.798307475317348
 42
50.0
 43
0.0
 44
0.0
 50
0.0
 51
0.0
 71
     0
 72
   100
 73
     1
 74
     1
 75
     0
 76
     0
 77
     0
 78
     0
  0
ENDTAB
  0
TABLE
  2
LTYPE
 70
     3
  0
LTYPE
  2
CONTINUOUS
 70
     0
  3
Solid line
 72
    65
 73
     0
 40
0.0
  0
LTYPE
  2
PHANTOM2
 70
     0
  3
___ _ _ ___ _ _ ___ _ _ ___ _ _
 72
    65
 73
     6
 40
1.25
 49
0.625
 49
-0.125
 49
0.125
 49
-0.125
 49
0.125
 49
-0.125
  0
ENDTAB
  0
TABLE
  2
LAYER
 70
     3
  0
LAYER
  2
0
 70
     0
 62
     7
  6
CONTINUOUS
  0
LAYER
  2
DEFPOINTS
 70
     0
 62
     7
  6
CONTINUOUS
  0
ENDTAB
  0
TABLE
  2
STYLE
 70
     1
  0
STYLE
  2
STANDARD
 70
     0
 40
0.0
 41
0.8
 50
0.0
 71
     0
 42
0.2
  3
txt
  4

  0
ENDTAB
  0
TABLE
  2
VIEW
 70
     0
  0
ENDTAB
  0
TABLE
  2
UCS
 70
     0
  0
ENDTAB
  0
TABLE
  2
APPID
 70
     5
  0
APPID
  2
ACAD
 70
     0
  0
APPID
  2
ACAD_MLEADERVER
 70
     0
  0
APPID
  2
ACAD_NAV_VCDISPLAY
 70
     0
  0
APPID
  2
ACAD_EXEMPT_FROM_CAD_STANDARDS
 70
     0
  0
APPID
  2
AcDbAttr
 70
     0
  0
ENDTAB
  0
TABLE
  2
DIMSTYLE
 70
     2
  0
DIMSTYLE
  2
STANDARD
 70
     0
  3

  4

  5

  6

  7

 40
1.0
 41
0.1875
 42
0.0625
 43
0.38
 44
0.125
 45
0.0
 46
0.0
 47
0.01
 48
0.01
140
0.15625
141
0.09
142
0.0
143
25.399999999999999
144
1.0
145
0.0
146
1.0
147
0.09
 71
     1
 72
     0
 73
     1
 74
     1
 75
     0
 76
     0
 77
     0
 78
     4
170
     0
171
     2
172
     0
173
     0
174
     0
175
     0
176
     0
177
     0
178
     0
  0
ENDTAB
  0
ENDSEC
  0
SECTION
  2
BLOCKS
  0
BLOCK
  8
0
  2
$MODEL_SPACE
 70
     0
 10
0.0
 20
0.0
 30
0.0
  3
$MODEL_SPACE
  1

  0
ENDBLK
  5
21
  8
0
  0
BLOCK
 67
     1
  8
0
  2
$PAPER_SPACE
 70
     0
 10
0.0
 20
0.0
 30
0.0
  3
$PAPER_SPACE
  1

  0
ENDBLK
  5
1D
 67
     1
  8
0
  0
ENDSEC
  0
SECTION
  2
ENTITIES
  0
LINE
  5
12D3
  8
0
 10
46.311525459999999
 20
16.707138389899999
 30
0.0
 11
46.257104341999998
 21
18.265555234899999
 31
0.0
  0
ARC
  5
12D4
  8
0
 10
46.382028195854673
 20
18.269917672211591
 30
0.0
 40
0.1250000004848069
 50
92.827847564800493
 51
182.00000009487749
  0
ARC
  5
12D5
  8
0
 10
50.290521819835512
 20
-61.812020726788823
 30
0.0
 40
80.302260970743873
 50
87.458180474056704
 51
92.794223433595405
  0
ARC
  5
12D6
  8
0
 10
53.845072043266107
 20
18.261385032949619
 30
0.0
 40
0.1499987874076037
 50
43.625947206006373
 51
87.424556342851645
  0
LINE
  5
12D7
  8
0
 10
53.953650088000003
 20
18.36487631
 30
0.0
 11
54.228301428599998
 21
18.077376564400002
 31
0.0
  0
ARC
  5
12D9
  8
0
 10
54.118106443994797
 20
17.973067044752369
 30
0.0
 40
0.151734671454016
 50
0.2631579489666699
 51
43.428341995273797
  0
LINE
  5
12DA
  8
0
 10
54.269839515000001
 20
17.973763955500001
 30
0.0
 11
54.269839515000001
 21
16.903826295799998
 31
0.0
  0
ARC
  5
12DB
  8
0
 10
53.957339515000022
 20
16.903826295800009
 30
0.0
 40
0.3125000000000069
 50
269.9996844554974
 51
359.99999999999739
  0
LINE
  5
12DC
  8
0
 10
53.957337793971732
 20
16.591326295804741
 30
0.0
 11
46.4314516122
 21
16.591326295799998
 31
0.0
  0
ARC
  5
12DE
  8
0
 10
46.431452355713809
 20
16.711326290924969
 30
0.0
 40
0.1199999951272824
 50
181.9999816497448
 51
269.99964499828837
  0
LINE
  5
12DF
  8
0
 10
49.48032306697381
 20
18.486152944810449
 30
0.0
 11
49.497395571600002
 21
16.591327776386098
 31
0.0
  0
LINE
  5
12E1
  8
0
 10
54.141523878176038
 20
16.651373586641551
 30
0.0
 11
53.939666343889087
 21
5.0869631941900266
 31
0.0
  0
ARC
  5
12E3
  8
0
 10
53.68970442010589
 20
5.091326295799897
 30
0.0
 40
0.2499999999941092
 50
327.42102960624322
 51
358.9999999998505
  0
ARC
  5
12E4
  8
0
 10
53.799248931598513
 20
5.0213262958027043
 30
0.0
 40
0.1200000000027084
 50
269.99999630630907
 51
327.4210296062455
  0
LINE
  5
12E5
  8
0
 10
53.799248923862457
 20
4.9013262957999988
 30
0.0
 11
47.353297313100022
 21
4.9013267113516008
 31
0.0
  0
ARC
  5
12E6
  8
0
 10
53.793627468744248
 20
4.7813262951793112
 30
0.0
 40
0.1200000006206885
 50
90.000000068879785
 51
138.19011473958531
  0
ARC
  5
12E7
  8
0
 10
53.659464739788298
 20
4.9013232771413344
 30
0.0
 40
0.0599969813565188
 50
269.99871088676957
 51
318.19011473958352
  0
LINE
  5
12E8
  8
0
 10
53.65946338989999
 20
4.8413262958000001
 30
0.0
 11
47.493076034341072
 21
4.8413265903323
 31
0.0
  0
ARC
  5
12E9
  8
0
 10
47.493389063272843
 20
4.902010701679945
 30
0.0
 40
0.0606849186962052
 50
222.09876916004259
 51
269.70445183781118
  0
ARC
  5
12EA
  8
0
 10
47.358292339787653
 20
4.7799244408919508
 30
0.0
 40
0.1214034661782283
 50
42.106569527427808
 51
89.704788205826034
  0
ARC
  5
12EB
  8
0
 10
47.353296677233558
 20
5.0213251666523862
 30
0.0
 40
0.1199984553024691
 50
212.57822601224089
 51
270.0003036077772
  0
ARC
  5
12ED
  8
0
 10
47.465778507566853
 20
5.0924015069285282
 30
0.0
 40
0.2530540586022585
 50
187.79847069436781
 51
212.42586376290859
  0
ARC
  5
12EE
  8
0
 10
96.019439934696393
 20
11.287721492984669
 30
0.0
 40
49.200362312696832
 50
181.45656217088739
 51
187.2742089480187
  0
ARC
  5
12EF
  8
0
 10
437.1264674806111
 20
18.476605832510501
 30
0.0
 40
390.38272809773531
 50
180.27669983753381
 51
181.23874863914031
  0
ARC
  5
12F0
  8
0
 10
-31.558282880778659
 20
18.48737953952169
 30
0.0
 40
81.127707149333332
 50
354.42413930823
 51
358.66080597394631
  0
ARC
  5
12F1
  8
0
 10
11.35671181432744
 20
14.45183468119737
 30
0.0
 40
38.023969094418121
 50
345.45319931742279
 51
354.19310402362493
  0
ARC
  5
13B5
  8
0
 10
53.067839515000003
 20
4.681326295800007
 30
0.0
 40
0.1599999999999921
 50
359.99999999999721
 51
90.0
  0
LINE
  5
13B6
  8
0
 10
53.227839514999992
 20
4.681326295799999
 30
0.0
 11
53.227839514999992
 21
4.5913262958000001
 31
0.0
  0
LINE
  5
13B7
  8
0
 10
53.227839514999992
 20
4.5913262958000001
 30
0.0
 11
52.822379440299997
 21
4.5913262958000001
 31
0.0
  0
ARC
  5
13B8
  8
0
 10
52.826266840786552
 20
4.5643324653724271
 30
0.0
 40
0.0272723076342162
 50
98.194864091925382
 51
186.3284539576961
  0
LINE
  5
13B9
  8
0
 10
52.7991607214
 20
4.5613262957999989
 30
0.0
 11
52.799039572849999
 21
4.5392911095000041
 31
0.0
  0
ARC
  5
13BA
  8
0
 10
52.771627483942439
 20
4.5384110168048037
 30
0.0
 40
0.0274262133993839
 50
279.05100663055839
 51
1.838906977558517
  0
ARC
  5
13BB
  8
0
 10
52.454232920249197
 20
4.5387233420988071
 30
0.0
 40
0.0277494497025396
 50
174.61762881396459
 51
260.85905337531818
  0
LINE
  5
13BC
  8
0
 10
52.426605821400003
 20
4.5413262958000002
 30
0.0
 11
52.426605821400003
 21
4.5613262958000016
 31
0.0
  0
ARC
  5
13BD
  8
0
 10
52.398952447914702
 20
4.5639089140695717
 30
0.0
 40
0.0277737102714752
 50
354.6644792077372
 51
80.812202742639656
  0
LINE
  5
13BE
  8
0
 10
52.403387102499998
 20
4.5913262958000001
 30
0.0
 11
49.078291927600013
 21
4.5913262958000001
 31
0.0
  0
ARC
  5
1486
  8
0
 10
49.082906708972423
 20
4.5637695036283361
 30
0.0
 40
0.0279405261565972
 50
99.506787286757174
 51
185.0165307628244
  0
LINE
  5
1487
  8
0
 10
49.055073208700001
 20
4.5613262957999989
 30
0.0
 11
49.055073208700001
 21
4.5413262958000011
 31
0.0
  0
ARC
  5
1488
  8
0
 10
49.027239708457699
 20
4.5388830879637281
 30
0.0
 40
0.0279405261272771
 50
279.50678702627829
 51
5.016530784438344
  0
ARC
  5
148F
  8
0
 10
48.709328240251821
 20
4.5379509588090059
 30
0.0
 40
0.0268657679572995
 50
174.78226155822611
 51
262.31813990176278
  0
LINE
  5
1490
  8
0
 10
48.682573796203741
 20
4.5403941558159806
 30
0.0
 11
48.682530366717018
 21
4.5611237319082321
 31
0.0
  0
ARC
  5
1491
  8
0
 10
48.654649716141407
 20
4.5637143317293187
 30
0.0
 40
0.0280007479177239
 50
354.69146284397192
 51
80.441038525249994
  0
LINE
  5
1492
  8
0
 10
48.659299589699998
 20
4.5913262958000001
 30
0.0
 11
48.253839515000003
 21
4.5913262958000001
 31
0.0
  0
LINE
  5
1493
  8
0
 10
48.253839515000003
 20
4.5913262958000001
 30
0.0
 11
48.253839515000003
 21
4.681326295799999
 31
0.0
  0
ARC
  5
1494
  8
0
 10
48.413839514999999
 20
4.6813262957999946
 30
0.0
 40
0.1600000000000055
 50
90.0
 51
179.99999999999869
  0
LINE
  5
1497
  8
0
 10
53.531064588600003
 20
4.5113262957999991
 30
0.0
 11
26.046092512000001
 21
4.5113262957999991
 31
0.0
  0
ARC
  5
1498
  8
0
 10
26.046092512000001
 20
4.2613262128842591
 30
0.0
 40
0.25000008291574
 50
90.0
 51
158.39060141482349
  0
ARC
  5
1499
  8
0
 10
31.465278993518631
 20
2.1268733092154788
 30
0.0
 40
6.0743855474213762
 50
158.4974407416326
 51
175.7143132664113
  0
ARC
  5
149A
  8
0
 10
25.597912647886709
 20
2.5669250907554448
 30
0.0
 40
0.1905407687214216
 50
175.8211525932208
 51
226.28902633153541
  0
ARC
  5
149B
  8
0
 10
24.977019585847291
 20
1.9607494641542991
 30
0.0
 40
0.6773354264182896
 50
33.52904785989498
 51
43.757007263546463
  0
ARC
  5
149C
  8
0
 10
25.45715306989462
 20
2.2793297887950361
 30
0.0
 40
0.1011230541248206
 50
3.173397039923648
 51
33.322773372476028
  0
LINE
  5
149D
  8
0
 10
25.558121059400001
 20
2.2849277501
 30
0.0
 11
25.564634637200001
 21
2.0613265247999939
 31
0.0
  0
ARC
  5
149E
  8
0
 10
29.271940978261618
 20
2.5297376833427081
 30
0.0
 40
3.7367806090166771
 50
187.2010565169528
 51
243.37129004777429
  0
ARC
  5
149F
  8
0
 10
26.174989817242061
 20
-3.4697915818292362
 30
0.0
 40
3.015498750500921
 50
350.33233547701661
 51
61.861999881994898
  0
LINE
  5
14A0
  8
0
 10
29.147663663300001
 20
-3.9761935163
 30
0.0
 11
27.745325723800001
 21
-11.906518331799999
 31
0.0
  0
ARC
  5
14A1
  8
0
 10
27.814262264140961
 20
-11.918673706194021
 30
0.0
 40
0.0699999980060036
 50
170.0000115425035
 51
270.00004703085978
  0
LINE
  5
14A2
  8
0
 10
27.814262321600001
 20
-11.9886737042
 30
0.0
 11
53.937716501791201
 21
-11.988652260936281
 31
0.0
  0
ARC
  5
14A3
  8
0
 10
53.937716444332807
 20
-11.918653042494791
 30
0.0
 40
0.0699992184415064
 50
270.00004703085949
 51
2.483092386736923
  0
LINE
  5
14A4
  8
0
 10
54.007649936999861
 20
-11.915620356258501
 30
0.0
 11
53.694028288090287
 21
-4.7325020927408472
 31
0.0
  0
ARC
  5
14A5
  8
0
 10
24.9378617638869
 20
-53.337164905192537
 30
0.0
 40
52.593753705474533
 50
80.830659927023007
 51
87.101794288128659
  0
ARC
  5
14A6
  8
0
 10
37.115608441240468
 20
22.106288736282249
 30
0.0
 40
23.826218889987381
 50
260.83065992702302
 51
269.97531238036368
  0
ARC
  5
14A7
  8
0
 10
37.257260935685352
 20
5.8484911019406596
 30
0.0
 40
7.5699436013593511
 50
268.85007239901898
 51
299.89276321049527
  0
ARC
  5
14A8
  8
0
 10
50.248250612721961
 20
-17.267262510790921
 30
0.0
 40
18.946662840750399
 50
111.6454734361633
 51
119.1133669960296
  0
ARC
  5
14A9
  8
0
 10
42.970560670947151
 20
0.7242238836022322
 30
0.0
 40
0.4780876129742856
 50
307.18912957437152
 51
332.70458753822078
  0
ARC
  5
14AA
  8
0
 10
34.816243692929021
 20
4.2902589626850931
 30
0.0
 40
9.3771261438944364
 50
336.19211573415072
 51
346.24943133821301
  0
ARC
  5
14AB
  8
0
 10
1236.1143362825851
 20
-46.442808458066636
 30
0.0
 40
1193.176004157159
 50
177.61542245690191
 51
177.67020958813271
  0
LINE
  5
14AC
  8
0
 10
25.46084600153409
 20
2.4345675484596021
 30
0.0
 11
37.916299858800002
 21
2.4337849608000002
 31
0.0
  0
ARC
  5
14AD
  8
0
 10
38.31912872272374
 20
11.34946579200982
 30
0.0
 40
8.9247765113537927
 50
267.41301782440343
 51
281.46433685667267
  0
ARC
  5
14AE
  8
0
 10
38.124866497008938
 20
7.3363759923495504
 30
0.0
 40
5.1264755307403513
 50
292.57641892369622
 51
300.10803547391492
  0
ARC
  5
14AF
  8
0
 10
41.717492399261047
 20
1.1655251927656001
 30
0.0
 40
2.0140253523044951
 50
96.979843014069175
 51
120.4612544073249
  0
ARC
  5
14B0
  8
0
 10
42.491362436213478
 20
-10.55058511189554
 30
0.0
 40
13.752983366789101
 50
90.715370618054862
 51
94.247501293633164
  0
LINE
  5
14B1
  8
0
 10
42.319653024499992
 20
3.2013262957999991
 30
0.0
 11
48.471827735233362
 21
3.2013262957999991
 31
0.0
  0
ARC
  5
14B2
  8
0
 10
48.521380836475558
 20
4.776366674386507
 30
0.0
 40
1.5758196885024851
 50
268.19798928124158
 51
308.99120345340322
  0
ARC
  5
14B3
  8
0
 10
50.886636376663823
 20
2.1200581291042062
 30
0.0
 40
1.984040658909308
 50
105.3388083800447
 51
133.8203253598769
  0
ARC
  5
14B4
  8
0
 10
50.729362058768551
 20
2.2719166663420371
 30
0.0
 40
1.7994462333068819
 50
89.634546347970556
 51
101.7862409216184
  0
LINE
  5
14B5
  8
0
 10
50.740839513900013
 20
4.0713262957999987
 30
0.0
 11
53.663495419299998
 21
4.0713262957999987
 31
0.0
  0
ARC
  5
14B6
  8
0
 10
53.663016360512977
 20
4.2017282730602696
 30
0.0
 40
0.130402861278034
 50
270.21097199566202
 51
9.7897454327258497
  0
LINE
  5
14B7
  8
0
 10
53.791520340458803
 20
4.2239010800000001
 30
0.0
 11
53.777563123581942
 21
4.3047910603493094
 31
0.0
  0
ARC
  5
14B8
  8
0
 10
53.530294608966209
 20
4.2600424683508997
 30
0.0
 40
0.2512850071255891
 50
10.25788907446548
 51
89.824435795561229
  0
ARC
  5
14B9
  8
0
 10
52.791619681099988
 20
3.8813262957999979
 30
0.0
 40
0.1900000000000008
 50
89.999999999997854
 51
164.99999999047051
  0
LINE
  5
14BA
  8
0
 10
52.60809377411325
 20
3.9305019144000002
 30
0.0
 11
52.17378770083571
 21
2.3096495839708151
 31
0.0
  0
LINE
  5
14BB
  8
0
 10
52.17378770083571
 20
2.3096495839708151
 30
0.0
 11
52.160839514999992
 21
2.2112983467
 31
0.0
  0
LINE
  5
14BC
  8
0
 10
52.160839514999992
 20
2.2112983467
 30
0.0
 11
52.160839514999992
 21
2.0613262957999998
 31
0.0
  0
ARC
  5
14BD
  8
0
 10
49.828551832626708
 20
1.9077784656576511
 30
0.0
 40
2.3373366829559679
 50
322.7384675059298
 51
3.7666729442270821
  0
ARC
  5
14BE
  8
0
 10
50.74266323151803
 20
1.3665644904766261
 30
0.0
 40
1.287992156752374
 50
276.54111594279601
 51
317.27142380831663
  0
ARC
  5
14BF
  8
0
 10
50.921118429424318
 20
-0.1055066618029458
 30
0.0
 40
0.1950616984683863
 50
99.362312963883113
 51
212.7783089155734
  0
ARC
  5
14C0
  8
0
 10
47.363931947661428
 20
-3.3072484151882948
 30
0.0
 40
4.593448035889466
 50
33.525416233804933
 51
42.379131607640289
  0
ARC
  5
14C1
  8
0
 10
46.966836283684351
 20
-3.5318207771203158
 30
0.0
 40
5.0486181627385616
 50
1.9833945559947099
 51
33.161049691592659
  0
ARC
  5
14C2
  8
0
 10
43.635802622074159
 20
-3.9535828950733349
 30
0.0
 40
8.3978383120109292
 50
359.84935381355592
 51
4.073118984641984
  0
ARC
  5
14C3
  8
0
 10
52.216763479317052
 20
-3.9761446268270642
 30
0.0
 40
0.1831522057133665
 50
179.84935381355669
 51
271.23399962440652
  0
LINE
  5
14C4
  8
0
 10
52.220707788699997
 20
-4.159254355899999
 30
0.0
 11
53.08111024188495
 21
-4.1595504218199491
 31
0.0
  0
ARC
  5
14C5
  8
0
 10
53.083099099676609
 20
-4.7404565642411951
 30
0.0
 40
0.5809095470536266
 50
78.841138375183135
 51
90.196163724135758
  0
ARC
  5
14C6
  8
0
 10
53.074565876363948
 20
-4.7799153976870521
 30
0.0
 40
0.6212742558868297
 50
4.3768531315107806
 51
78.773314773153501
  0
LINE
  5
14C7
  8
0
 10
53.081110241884701
 20
-4.1595504218199491
 30
0.0
 11
50.859077423499997
 21
-4.2294629007999989
 31
0.0
  0
ARC
  5
14C9
  8
0
 10
50.84594079121004
 20
-4.0832339699809408
 30
0.0
 40
0.1468178167539793
 50
179.33694356911371
 51
275.13344732434439
  0
ARC
  5
14CA
  8
0
 10
42.125685160819387
 20
-4.3641119711186587
 30
0.0
 40
8.5781031869228617
 50
1.8877599880268501
 51
6.1546638600875356
  0
ARC
  5
14CB
  8
0
 10
44.99879043413172
 20
-4.0225281102080981
 30
0.0
 40
5.6850237793245038
 50
5.8363703563967304
 51
35.593014457713338
  0
ARC
  5
14CC
  8
0
 10
46.122708517663654
 20
-3.2936421660745641
 30
0.0
 40
4.3472905317294401
 50
36.402768532524711
 51
48.911829651719252
  0
ARC
  5
14CD
  8
0
 10
47.835251904745022
 20
-2.6530121333547112
 30
0.0
 40
2.873697119099031
 50
66.528319070745354
 51
91.884124934448394
  0
ARC
  5
14CE
  8
0
 10
47.811056459485108
 20
0.785063850522066
 30
0.0
 40
0.5702804603439415
 50
250.51913359986429
 51
262.92032962091019
  0
ARC
  5
14CF
  8
0
 10
47.845127281995701
 20
0.8218577355681663
 30
0.0
 40
0.6166499169988944
 50
178.8062052570854
 51
248.6744695443719
  0
ARC
  5
14D0
  8
0
 10
25.508104105587641
 20
0.7473535801617181
 30
0.0
 40
21.720682752327281
 50
0.2304203498342609
 51
0.5932560895675128
  0
LINE
  5
14D1
  8
0
 10
43.395415118099997
 20
0.5049832293
 30
0.0
 11
43.551173490699988
 21
0.4302185092000001
 31
0.0
  0
ARC
  5
14D2
  8
0
 10
52.323303408068853
 20
-23.23624407317347
 30
0.0
 40
25.23988340801283
 50
95.181294742835306
 51
110.3375556210933
  0
ARC
  5
14D3
  8
0
 10
49.105114244074883
 20
20.110158198656599
 30
0.0
 40
18.23383662434696
 50
272.95139998551957
 51
275.79092255123362
  0
ARC
  5
14D4
  8
0
 10
51.0177361127583
 20
0.8223299917449867
 30
0.0
 40
1.1493553794612961
 50
63.037917875203277
 51
93.634129777808127
  0
ARC
  5
14D5
  8
0
 10
51.305023653646451
 20
1.3137670127511261
 30
0.0
 40
0.5820279991764111
 50
28.734676773280469
 51
66.312236274356124
  0
ARC
  5
14D6
  8
0
 10
51.586751494939513
 20
1.4881928870520531
 30
0.0
 40
0.2517467391355966
 50
348.62438372012679
 51
24.747582409127379
  0
ARC
  5
14D7
  8
0
 10
48.959917957975968
 20
2.024188598654673
 30
0.0
 40
2.9327057461829158
 50
340.49737573632228
 51
348.48080418090439
  0
ARC
  5
14D8
  8
0
 10
50.659536590476293
 20
1.479792110160262
 30
0.0
 40
1.1501343130489501
 50
274.07855333041931
 51
337.79355560097957
  0
ARC
  5
14D9
  8
0
 10
53.487148952170323
 20
-32.745492706536439
 30
0.0
 40
33.191832449335962
 50
94.745243471260991
 51
94.976785461296373
  0
ARC
  5
14DA
  8
0
 10
50.6519622705543
 20
0.0751173467105687
 30
0.0
 40
0.2500379643715549
 50
100.199259457251
 51
155.0206014411136
  0
ARC
  5
14DB
  8
0
 10
51.669290256449962
 20
0.9428032747733807
 30
0.0
 40
1.4588595258347259
 50
211.492851335506
 51
215.83384961615201
  0
ARC
  5
14DC
  8
0
 10
51.121301827607013
 20
0.3894752796091179
 30
0.0
 40
0.7023779161674961
 50
205.3519144161649
 51
238.7680020515929
  0
LINE
  5
14DD
  8
0
 10
50.425312935799482
 20
0.1807064686989117
 30
0.0
 11
48.97983254201133
 21
-0.0170925380312213
 31
0.0
  0
ARC
  5
14DE
  8
0
 10
46.135484710420783
 20
0.7607985099857517
 30
0.0
 40
1.112419583673468
 50
10.957673065571189
 51
37.598955299714582
  0
ARC
  5
14DF
  8
0
 10
57.209282232370171
 20
1.3780438847127039
 30
0.0
 40
5.0707227778609241
 50
177.74044087572139
 51
196.38812321202079
  0
ARC
  5
14E0
  8
0
 10
77.288826498265166
 20
7.8563538740194439
 30
0.0
 40
26.168068906099389
 50
197.59205406500811
 51
202.3921465903305
  0
ARC
  5
14E1
  8
0
 10
45.369177660657918
 20
-5.260348298368605
 30
0.0
 40
8.3415681771157111
 50
3.6280329161012488
 51
22.172982992724549
  0
ARC
  5
14E2
  8
0
 10
36.975762104986721
 20
0.5833276378422796
 30
0.0
 40
13.181642945814129
 50
7.1515884213056049
 51
13.942395960368939
  0
ARC
  5
14E3
  8
0
 10
47.848554044854218
 20
2.2980017599291118
 30
0.0
 40
2.207529230954814
 50
353.84532781205951
 51
358.08868675097318
  0
ARC
  5
14E4
  8
0
 10
59.97045843165661
 20
2.0173644199762131
 30
0.0
 40
9.9271964899749054
 50
179.74626888141759
 51
180.67446874853621
  0
LINE
  5
14E5
  8
0
 10
50.054855116599988
 20
2.2243750912999909
 30
0.0
 11
52.160839514999992
 21
2.2112983467
 31
0.0
  0
CIRCLE
  5
14E6
  8
0
 10
43.260840236014012
 20
-7.545357979496023
 30
0.0
 40
0.7469484357010021
  0
ARC
  5
14E7
  8
0
 10
26.91511151001249
 20
2.3515452885270198
 30
0.0
 40
2.4222450516385612
 50
63.080602381883189
 51
81.054265921314567
  0
LINE
  5
14E8
  8
0
 10
45.422642656500003
 20
4.5113262957999991
 30
0.0
 11
45.429513607099999
 21
4.6461881792000002
 31
0.0
  0
ARC
  5
14E9
  8
0
 10
45.622745018072663
 20
4.6254534318228977
 30
0.0
 40
0.1943407006658119
 50
126.6046428196188
 51
173.8752970282716
  0
ARC
  5
14EA
  8
0
 10
45.040259424431227
 20
5.4272285634696251
 30
0.0
 40
0.7966989891240923
 50
305.85029169336508
 51
309.56006529848952
  0
ARC
  5
14EC
  8
0
 10
45.505751236092202
 20
4.8698562943579224
 30
0.0
 40
0.0706304367991095
 50
306.40183191644871
 51
68.68800786402943
  0
ARC
  5
14ED
  8
0
 10
43.093996096523377
 20
-4.7613521764965778
 30
0.0
 40
9.99865110314615
 50
75.890522802794052
 51
84.146598494889517
  0
ARC
  5
14EE
  8
0
 10
44.125857545714439
 20
5.0548424494212369
 30
0.0
 40
0.130890829316579
 50
95.332274254697367
 51
163.42628530423741
  0
ARC
  5
14EF
  8
0
 10
44.012223544781321
 20
5.0882924876023781
 30
0.0
 40
0.0124413666131328
 50
161.79744761338389
 51
198.23776435033031
  0
LINE
  5
14F0
  8
0
 10
44.000407158009793
 20
5.0843988252045804
 30
0.0
 11
44.06787541004261
 21
4.5349123360621411
 31
0.0
  0
ARC
  5
14F1
  8
0
 10
44.128839514999981
 20
4.6019079143999786
 30
0.0
 40
0.0905816184999753
 50
227.698681086595
 51
270.00000000000898
  0
LINE
  5
14F2
  8
0
 10
44.055266341299998
 20
4.5113262957999991
 30
0.0
 11
43.981474282678739
 21
5.1123143851958863
 31
0.0
  0
ARC
  5
14F3
  8
0
 10
43.120081955039531
 20
1.6214624444368051
 30
0.0
 40
3.4201026711370042
 50
114.063983861007
 51
122.3319141918596
  0
LINE
  5
14F4
  8
0
 10
26.052181710700001
 20
4.7443262957999988
 30
0.0
 11
42.87692093206411
 21
4.7443262957999988
 31
0.0
  0
ARC
  5
14F5
  8
0
 10
42.87692093206411
 20
5.2404831529145781
 30
0.0
 40
0.4961568571145785
 50
270.0
 51
288.79161088163607
  0
LINE
  5
14F6
  8
0
 10
43.036746494414338
 20
4.7707732248938388
 30
0.0
 11
43.941801586872693
 21
5.0689886690448533
 31
0.0
  0
ARC
  5
14F7
  8
0
 10
43.923052139067813
 20
5.1259839482749197
 30
0.0
 40
0.0600000303958327
 50
288.2093922080835
 51
6.9999908758713474
  0
LINE
  5
14F8
  8
0
 10
43.9826049395
 20
5.1332961031000002
 30
0.0
 11
43.911021859126564
 21
5.7162935078646031
 31
0.0
  0
ARC
  5
14F9
  8
0
 10
42.791473284004297
 20
5.5917409283702106
 30
0.0
 40
1.126455661407497
 50
6.3481938986986624
 51
28.523328623293839
  0
ARC
  5
14FA
  8
0
 10
43.527896670113464
 20
6.0079582401467961
 30
0.0
 40
0.2810177928672999
 50
25.658821560772431
 51
86.364706747601787
  0
ARC
  5
14FB
  8
0
 10
27.934817868575919
 20
280.28373747810548
 30
0.0
 40
274.43968236733002
 50
269.68485987444268
 51
273.2609043503474
  0
ARC
  5
14FC
  8
0
 10
26.422679709681059
 20
5.5967272384602591
 30
0.0
 40
0.2514932194160709
 50
89.39315455655624
 51
161.64928101744451
  0
ARC
  5
14FD
  8
0
 10
29.482612657356061
 20
4.4924218603856696
 30
0.0
 40
3.5045170617681061
 50
160.2630488205418
 51
174.850610759245
  0
ARC
  5
14FE
  8
0
 10
26.052267358896309
 20
4.8044083119705627
 30
0.0
 40
0.06008207729306
 50
177.56374209558609
 51
269.91827296603248
  0
LINE
  5
1540
  8
0
 10
42.916806588034859
 20
4.7459320824379301
 30
0.0
 11
42.908613973400001
 21
4.5113262957999991
 31
0.0
  0
LINE
  5
1541
  8
0
 10
38.5833097262
 20
4.7443262957999988
 30
0.0
 11
38.590108500397648
 21
4.6666159512268921
 31
0.0
  0
ARC
  5
1542
  8
0
 10
38.649880182339437
 20
4.6718452958034522
 30
0.0
 40
0.0600000000570977
 50
185.0000000064498
 51
270.00242300084301
  0
LINE
  5
1543
  8
0
 10
38.649882719700003
 20
4.6118452958000002
 30
0.0
 11
39.238353885173801
 21
4.6118701818586771
 31
0.0
  0
ARC
  5
1544
  8
0
 10
39.238351355416611
 20
4.6716903877980451
 30
0.0
 40
0.0598202059928589
 50
270.00242300084329
 51
353.81494345511157
  0
ARC
  5
1545
  8
0
 10
39.428898083877591
 20
4.6510406708959513
 30
0.0
 40
0.1318421704280621
 50
134.96364662222439
 51
173.81494345511089
  0
ARC
  5
1546
  8
0
 10
28.967004219809709
 20
4.5544429507801167
 30
0.0
 40
0.2063224492510508
 50
28.041205349095581
 51
66.973383276128345
  0
ARC
  5
1547
  8
0
 10
29.253251668462379
 20
4.6868453622194766
 30
0.0
 40
0.1100001029072916
 50
198.77779535668779
 51
270.04666754977143
  0
LINE
  5
1548
  8
0
 10
29.253341263799999
 20
4.5768452958000001
 30
0.0
 11
30.155596471100001
 21
4.5768452958000001
 31
0.0
  0
ARC
  5
1549
  8
0
 10
30.15978185972585
 20
4.6871714518923149
 30
0.0
 40
0.1104055170544272
 50
267.82744028395911
 51
319.38167953605728
  0
ARC
  5
154A
  8
0
 10
30.74038956984834
 20
4.1892083349156222
 30
0.0
 40
0.6544948548390712
 50
121.9876335171177
 51
139.3816795360575
  0
ATTDEF
  5
1839
  8
DEFPOINTS
 10
55.281305290262409
 20
-11.98698765883587
 30
0.0
 40
0.001
  1
K-5310
  3

  2
MODELNUMBER
 70
     0
1001
AcDbAttr
1070
     0
1070
     1
  0
ATTDEF
  5
183A
  8
DEFPOINTS
 10
55.281305290262409
 20
-11.988654325502541
 30
0.0
 40
0.001
  1
CIMARRON
  3

  2
TRADENAME
 70
     0
1001
AcDbAttr
1070
     0
1070
     1
  0
ATTDEF
  5
183B
  8
DEFPOINTS
 10
55.281305290262409
 20
-11.990320992169201
 30
0.0
 40
0.001
  1
TOILET
  3

  2
PRODUCT
 70
     0
1001
AcDbAttr
1070
     0
1070
     1
  0
ATTDEF
  5
183C
  8
DEFPOINTS
 10
55.281305290262409
 20
-11.991987658835869
 30
0.0
 40
0.001
  1
VITREOUS CHINA
  3

  2
MATERIAL
 70
     0
1001
AcDbAttr
1070
     0
1070
     1
  0
ENDSEC
  0
EOF
