  0
SECTION
  2
HEADER
  9
$ACADVER
  1
AC1009
  9
$INSBASE
 10
5.8464567021619818
 20
59.648438343499997
 30
0.0
  9
$EXTMIN
 10
-2.9558706392581011
 20
29.783805732078889
 30
-0.0015258207003583
  9
$EXTMAX
 10
14.648784122347729
 20
59.663028014936572
 30
0.0000000349246037
  9
$LIMMIN
 10
0.0
 20
0.0
  9
$LIMMAX
 10
11.692913385800001
 20
8.2677165353999982
  9
$ORTHOMODE
 70
     0
  9
$REGENMODE
 70
     1
  9
$FILLMODE
 70
     1
  9
$QTEXTMODE
 70
     0
  9
$MIRRTEXT
 70
     0
  9
$DRAGMODE
 70
     2
  9
$LTSCALE
 40
0.6431102362
  9
$OSMODE
 70
  3071
  9
$ATTMODE
 70
     1
  9
$TEXTSIZE
 40
0.2
  9
$TRACEWID
 40
0.05
  9
$TEXTSTYLE
  7
STANDARD
  9
$CLAYER
  8
0
  9
$CELTYPE
  6
BYLAYER
  9
$CECOLOR
 62
   256
  9
$DIMSCALE
 40
1.0
  9
$DIMASZ
 40
0.1875
  9
$DIMEXO
 40
0.0625
  9
$DIMDLI
 40
0.4443307087
  9
$DIMRND
 40
0.0
  9
$DIMDLE
 40
0.0
  9
$DIMEXE
 40
0.125
  9
$DIMTP
 40
0.01
  9
$DIMTM
 40
0.01
  9
$DIMTXT
 40
0.15625
  9
$DIMCEN
 40
0.1052362205
  9
$DIMTSZ
 40
0.0
  9
$DIMTOL
 70
     1
  9
$DIMLIM
 70
     0
  9
$DIMTIH
 70
     1
  9
$DIMTOH
 70
     1
  9
$DIMSE1
 70
     0
  9
$DIMSE2
 70
     0
  9
$DIMTAD
 70
     0
  9
$DIMZIN
 70
     0
  9
$DIMBLK
  1

  9
$DIMASO
 70
     1
  9
$DIMSHO
 70
     1
  9
$DIMPOST
  1

  9
$DIMAPOST
  1

  9
$DIMALT
 70
     0
  9
$DIMALTD
 70
     2
  9
$DIMALTF
 40
25.399999999999999
  9
$DIMLFAC
 40
1.0
  9
$DIMTOFL
 70
     0
  9
$DIMTVP
 40
0.0
  9
$DIMTIX
 70
     0
  9
$DIMSOXD
 70
     0
  9
$DIMSAH
 70
     0
  9
$DIMBLK1
  1

  9
$DIMBLK2
  1

  9
$DIMSTYLE
  2
STANDARD
  9
$DIMCLRD
 70
     0
  9
$DIMCLRE
 70
     0
  9
$DIMCLRT
 70
     0
  9
$DIMTFAC
 40
1.0
  9
$DIMGAP
 40
0.09
  9
$LUNITS
 70
     2
  9
$LUPREC
 70
     4
  9
$SKETCHINC
 40
0.1
  9
$FILLETRAD
 40
0.0
  9
$AUNITS
 70
     0
  9
$AUPREC
 70
     0
  9
$MENU
  1
.
  9
$ELEVATION
 40
0.0
  9
$PELEVATION
 40
0.0
  9
$THICKNESS
 40
0.0
  9
$LIMCHECK
 70
     0
  9
$BLIPMODE
 70
     0
  9
$CHAMFERA
 40
0.0
  9
$CHAMFERB
 40
0.0
  9
$SKPOLY
 70
     0
  9
$TDCREATE
 40
2457893.7587911459
  9
$TDUPDATE
 40
2457932.7343878821
  9
$TDINDWG
 40
0.1824393866
  9
$TDUSRTIMER
 40
0.1824393866
  9
$USRTIMER
 70
     1
  9
$ANGBASE
 50
0.0
  9
$ANGDIR
 70
     0
  9
$PDMODE
 70
     0
  9
$PDSIZE
 40
0.3125
  9
$PLINEWID
 40
0.0
  9
$COORDS
 70
     1
  9
$SPLFRAME
 70
     0
  9
$SPLINETYPE
 70
     6
  9
$SPLINESEGS
 70
     8
  9
$ATTDIA
 70
     1
  9
$ATTREQ
 70
     1
  9
$HANDLING
 70
     1
  9
$HANDSEED
  5
1897
  9
$SURFTAB1
 70
     6
  9
$SURFTAB2
 70
     6
  9
$SURFTYPE
 70
     6
  9
$SURFU
 70
     6
  9
$SURFV
 70
     6
  9
$UCSNAME
  2

  9
$UCSORG
 10
0.0
 20
0.0
 30
0.0
  9
$UCSXDIR
 10
1.0
 20
0.0
 30
0.0
  9
$UCSYDIR
 10
0.0
 20
1.0
 30
0.0
  9
$PUCSNAME
  2

  9
$PUCSORG
 10
0.0
 20
0.0
 30
0.0
  9
$PUCSXDIR
 10
1.0
 20
0.0
 30
0.0
  9
$PUCSYDIR
 10
0.0
 20
1.0
 30
0.0
  9
$USERI1
 70
     0
  9
$USERI2
 70
     0
  9
$USERI3
 70
     0
  9
$USERI4
 70
     0
  9
$USERI5
 70
     0
  9
$USERR1
 40
0.0
  9
$USERR2
 40
0.0
  9
$USERR3
 40
0.0
  9
$USERR4
 40
0.0
  9
$USERR5
 40
0.0
  9
$WORLDVIEW
 70
     1
  9
$SHADEDGE
 70
     3
  9
$SHADEDIF
 70
    70
  9
$TILEMODE
 70
     1
  9
$MAXACTVP
 70
    48
  9
$PLIMCHECK
 70
     0
  9
$PEXTMIN
 10
1.0000000000000000E+020
 20
1.0000000000000000E+020
 30
1.0000000000000000E+020
  9
$PEXTMAX
 10
-1.0000000000000000E+020
 20
-1.0000000000000000E+020
 30
-1.0000000000000000E+020
  9
$PLIMMIN
 10
0.0
 20
0.0
  9
$PLIMMAX
 10
12.0
 20
9.0
  9
$UNITMODE
 70
     0
  9
$VISRETAIN
 70
     1
  9
$PLINEGEN
 70
     0
  9
$PSLTSCALE
 70
     1
  0
ENDSEC
  0
SECTION
  2
TABLES
  0
TABLE
  2
VPORT
 70
     1
  0
VPORT
  2
*ACTIVE
 70
     0
 10
0.0
 20
0.0
 11
1.0
 21
1.0
 12
0.0000000409865244
 22
-0.0002330505839296
 13
0.0
 23
0.0
 14
1.0
 24
1.0
 15
0.0
 25
0.0
 16
-0.0000000000000195
 26
0.0
 36
86.690858994963278
 17
5.8464567005582833
 27
44.72364992409166
 37
0.0
 40
30.131722752853658
 41
1.798307475317348
 42
50.0
 43
0.0
 44
0.0
 50
0.0
 51
0.0
 71
     0
 72
   100
 73
     1
 74
     1
 75
     0
 76
     0
 77
     0
 78
     0
  0
ENDTAB
  0
TABLE
  2
LTYPE
 70
     2
  0
LTYPE
  2
CONTINUOUS
 70
     0
  3
Solid line
 72
    65
 73
     0
 40
0.0
  0
LTYPE
  2
PHANTOM2
 70
     0
  3
___ _ _ ___ _ _ ___ _ _ ___ _ _
 72
    65
 73
     6
 40
1.25
 49
0.625
 49
-0.125
 49
0.125
 49
-0.125
 49
0.125
 49
-0.125
  0
ENDTAB
  0
TABLE
  2
LAYER
 70
     2
  0
LAYER
  2
0
 70
     0
 62
     7
  6
CONTINUOUS
  0
LAYER
  2
DEFPOINTS
 70
     0
 62
     7
  6
CONTINUOUS
  0
ENDTAB
  0
TABLE
  2
STYLE
 70
     1
  0
STYLE
  2
STANDARD
 70
     0
 40
0.0
 41
0.8
 50
0.0
 71
     0
 42
0.2
  3
txt
  4

  0
ENDTAB
  0
TABLE
  2
VIEW
 70
     0
  0
ENDTAB
  0
TABLE
  2
UCS
 70
     0
  0
ENDTAB
  0
TABLE
  2
APPID
 70
     5
  0
APPID
  2
ACAD
 70
     0
  0
APPID
  2
ACAD_MLEADERVER
 70
     0
  0
APPID
  2
ACAD_NAV_VCDISPLAY
 70
     0
  0
APPID
  2
ACAD_EXEMPT_FROM_CAD_STANDARDS
 70
     0
  0
APPID
  2
AcDbAttr
 70
     0
  0
ENDTAB
  0
TABLE
  2
DIMSTYLE
 70
     1
  0
DIMSTYLE
  2
STANDARD
 70
     0
  3

  4

  5

  6

  7

 40
1.0
 41
0.1875
 42
0.0625
 43
0.38
 44
0.125
 45
0.0
 46
0.0
 47
0.01
 48
0.01
140
0.15625
141
0.09
142
0.0
143
25.399999999999999
144
1.0
145
0.0
146
1.0
147
0.09
 71
     1
 72
     0
 73
     1
 74
     1
 75
     0
 76
     0
 77
     0
 78
     4
170
     0
171
     2
172
     0
173
     0
174
     0
175
     0
176
     0
177
     0
178
     0
  0
ENDTAB
  0
ENDSEC
  0
SECTION
  2
BLOCKS
  0
BLOCK
  8
0
  2
$MODEL_SPACE
 70
     0
 10
0.0
 20
0.0
 30
0.0
  3
$MODEL_SPACE
  1

  0
ENDBLK
  5
21
  8
0
  0
BLOCK
 67
     1
  8
0
  2
$PAPER_SPACE
 70
     0
 10
0.0
 20
0.0
 30
0.0
  3
$PAPER_SPACE
  1

  0
ENDBLK
  5
1D
 67
     1
  8
0
  0
ENDSEC
  0
SECTION
  2
ENTITIES
  0
LINE
  5
F22
  8
0
 10
-2.8193750248760359
 20
58.648438343500011
 30
0.0
 11
14.5122884292
 21
58.648438343500011
 31
0.0
  0
ARC
  5
F23
  8
0
 10
14.512288425992599
 20
58.522896847532927
 30
0.0
 40
0.1255414959670702
 50
359.69733001763188
 51
89.999998536177387
  0
LINE
  5
F24
  8
0
 10
14.637828170300001
 20
58.522233666650003
 30
0.0
 11
14.648246858570539
 21
53.860059155175229
 31
0.0
  0
ARC
  5
F25
  8
0
 10
14.460272508604509
 20
53.860019645493331
 30
0.0
 40
0.1879743541182356
 50
327.30897769856119
 51
0.0120428025957935
  0
ARC
  5
F2E
  8
0
 10
9.5359706512150897
 20
57.275773851895039
 30
0.0
 40
6.1808633908012567
 50
285.92396897022923
 51
325.31531284000232
  0
ARC
  5
F2F
  8
0
 10
6.3035064908484753
 20
68.270336771090697
 30
0.0
 40
17.640631132259841
 50
268.5153618104116
 51
286.22258142738229
  0
ARC
  5
F30
  8
0
 10
37.825834271537062
 20
53.956021879853431
 30
0.0
 40
26.91489993456798
 50
185.7088476527662
 51
195.8159462100748
  0
ARC
  5
F31
  8
0
 10
-207.37063609887321
 20
-13.15516789824356
 30
0.0
 40
227.30119760089531
 50
15.014349042146589
 51
15.246937059860331
  0
ARC
  5
F32
  8
0
 10
16.404363980265138
 20
47.110769910407043
 30
0.0
 40
4.4532127173107678
 50
198.06707432239509
 51
211.11199257816531
  0
ARC
  5
F74
  8
0
 10
5.9945615860375021
 20
41.414164968252003
 30
0.0
 40
7.4197195664363118
 50
6.877894567720725
 51
27.235043781817609
  0
ARC
  5
F75
  8
0
 10
-0.3140967945384856
 20
40.80916422528194
 30
0.0
 40
13.756301028808849
 50
332.81445593419249
 51
6.2329678339520154
  0
ARC
  5
F76
  8
0
 10
3.0547442049873901
 20
38.524777329405651
 30
0.0
 40
9.7284290610795043
 50
305.01081867001312
 51
335.71864555845087
  0
ARC
  5
F77
  8
0
 10
5.8642598301284448
 20
35.15897750192498
 30
0.0
 40
5.3725447838759806
 50
269.81013726374579
 51
301.06125180122979
  0
LINE
  5
FB9
  8
0
 10
3.875197029084358
 20
48.433865612499993
 30
0.0
 11
7.8177164897107989
 21
48.433865612499993
 31
0.0
  0
LINE
  5
FBA
  8
0
 10
7.8172356589999987
 20
48.378767870600001
 30
0.0
 11
7.8266693722999996
 21
49.4597643396
 31
0.0
  0
ARC
  5
FBB
  8
0
 10
8.3240913175782563
 20
49.455423404032253
 30
0.0
 40
0.4974408863030938
 50
93.337282734924827
 51
179.49999999826349
  0
LINE
  5
FBC
  8
0
 10
8.2951334717999998
 20
49.952020704200002
 30
0.0
 11
8.8747383366000037
 21
49.952675790400001
 31
0.0
  0
ARC
  5
FBD
  8
0
 10
8.8708355493536271
 20
49.457572446266248
 30
0.0
 40
0.4951187262876555
 50
0.5051982492480281
 51
89.548359733897442
  0
LINE
  5
FBE
  8
0
 10
9.3659350289999992
 20
49.461938036099987
 30
0.0
 11
9.3756778594999997
 21
48.378767907700002
 31
0.0
  0
LINE
  5
FBF
  8
0
 10
9.3756778597999997
 20
48.378767869399987
 30
0.0
 11
9.3001448814999996
 21
48.3787674911
 31
0.0
  0
ARC
  5
FC0
  8
0
 10
9.2996256409947602
 20
48.411372116437128
 30
0.0
 40
0.0326087596218541
 50
186.662850839285
 51
270.91237898046791
  0
ARC
  5
FC1
  8
0
 10
9.2518383440341978
 20
48.394258135047053
 30
0.0
 40
0.0203672352671463
 50
40.882257936138849
 51
74.472020506147032
  0
ARC
  5
FC2
  8
0
 10
9.2476364350185651
 20
48.38356843715615
 30
0.0
 40
0.0318137906156377
 50
72.334109461060123
 51
90.209845019715729
  0
LINE
  5
FC3
  8
0
 10
9.2475199177
 20
48.415382014399988
 30
0.0
 11
7.945395283625369
 21
48.415382014399988
 31
0.0
  0
LINE
  5
FC4
  8
0
 10
9.3622634713377657
 20
48.378767802215258
 30
0.0
 11
9.3698929107000009
 21
48.271181733900001
 31
0.0
  0
LINE
  5
FC5
  8
0
 10
9.3698929107000009
 20
48.271181733900001
 30
0.0
 11
9.3725339063676643
 21
47.900568249052469
 31
0.0
  0
LINE
  5
FC6
  8
0
 10
5.8464567005582824
 20
47.861567069398717
 30
0.0
 11
9.8643832603000003
 21
47.906008488699989
 31
0.0
  0
ARC
  5
FC7
  8
0
 10
9.8637160007676865
 20
47.966335090308831
 30
0.0
 40
0.0603302917028802
 50
270.63371042057241
 51
359.65489378813243
  0
LINE
  5
FC8
  8
0
 10
9.9240451980999982
 20
47.965971708700003
 30
0.0
 11
9.9249092282490832
 21
48.109419379406752
 31
0.0
  0
ARC
  5
FC9
  8
0
 10
12.44736106511888
 20
48.094225863709148
 30
0.0
 40
2.5224975941013499
 50
175.18824452442001
 51
179.65489378813211
  0
ARC
  5
FCA
  8
0
 10
9.993750711233492
 20
48.301499188369291
 30
0.0
 40
0.0601524208890911
 50
90.135276954431873
 51
175.88203218118241
  0
LINE
  5
FCB
  8
0
 10
9.9936086898000003
 20
48.361651441599989
 30
0.0
 11
10.381063559199999
 21
48.361651441599989
 31
0.0
  0
ARC
  5
FCC
  8
0
 10
10.3812372855375
 20
48.173855042343391
 30
0.0
 40
0.1877964796118028
 50
38.339448620744633
 51
90.053003056123913
  0
ARC
  5
FCD
  8
0
 10
1.1137847002755501
 20
41.427709081881538
 30
0.0
 40
11.65046582083888
 50
16.349525251262691
 51
36.089213499870702
  0
ARC
  5
FCE
  8
0
 10
0.3246555955997036
 20
40.836591748292321
 30
0.0
 40
12.578815863533491
 50
357.66078404748401
 51
17.921528501693491
  0
ARC
  5
FCF
  8
0
 10
-0.9611275186529811
 20
41.055573554267852
 30
0.0
 40
13.873462394880971
 50
335.019674392723
 51
356.97388865531423
  0
ARC
  5
FD0
  8
0
 10
1.4785582955323631
 20
39.583749358855222
 30
0.0
 40
11.04462074883814
 50
316.52231669718719
 51
336.59610748487648
  0
ARC
  5
FD1
  8
0
 10
5.6774363994448587
 20
35.68041031522521
 30
0.0
 40
5.3122609951282831
 50
271.82328853447842
 51
315.91074167487898
  0
LINE
  5
1013
  8
0
 10
14.63852228176019
 20
58.211631345724811
 30
0.0
 11
-2.9456087804655189
 21
58.211676173614649
 31
0.0
  0
LINE
  5
1014
  8
0
 10
9.3964652936390074
 20
47.900832948966801
 30
0.0
 11
9.3995988519383058
 21
48.284479065799999
 31
0.0
  0
LINE
  5
1015
  8
0
 10
9.3995988519383058
 20
48.284479065799999
 30
0.0
 11
9.4046172245000008
 21
48.358182303200003
 31
0.0
  0
LINE
  5
1017
  8
0
 10
9.4046172245000008
 20
48.358182303200003
 30
0.0
 11
9.8340308627000006
 21
48.358245842800002
 31
0.0
  0
ARC
  5
1018
  8
0
 10
9.8340397391568874
 20
48.29825692807492
 30
0.0
 40
0.0599889153817849
 50
359.9090140951385
 51
90.00847795822348
  0
LINE
  5
1019
  8
0
 10
9.8940285789000004
 20
48.298161665500608
 30
0.0
 11
9.8887870839333853
 21
47.911460825977969
 31
0.0
  0
LINE
  5
101A
  8
0
 10
9.9246117014999982
 20
48.058438786300002
 30
0.0
 11
9.8907792808993449
 21
48.058438786300002
 31
0.0
  0
LINE
  5
101C
  8
0
 10
9.3977530475860256
 20
48.058494544514652
 30
0.0
 11
9.3714089192261572
 21
48.058438786300002
 31
0.0
  0
ARC
  5
101D
  8
0
 10
8.2467012480789954
 20
42.338337890699528
 30
0.0
 40
5.8722861843191119
 50
71.863134117902433
 51
73.403053705323856
  0
ARC
  5
101E
  8
0
 10
-0.1527762271469225
 20
40.554283071306742
 30
0.0
 40
12.60308547959059
 50
8.0142780522241637
 51
35.75690000190766
  0
ARC
  5
101F
  8
0
 10
-0.1597660367026939
 20
40.76647531387151
 30
0.0
 40
12.582194121008079
 50
337.43535618502091
 51
7.0529685249092928
  0
ARC
  5
1020
  8
0
 10
0.9095911586357086
 20
39.957518286460171
 30
0.0
 40
11.289303536312559
 50
317.52141309860122
 51
339.14438480901077
  0
ARC
  5
1021
  8
0
 10
5.687290300330309
 20
35.663810230323513
 30
0.0
 40
4.8663707186678327
 50
271.8743310495334
 51
316.81835061781851
  0
ARC
  5
1022
  8
0
 10
-2.8193750248760359
 20
58.522896847532927
 30
0.0
 40
0.1255414959670702
 50
90.000001463822656
 51
180.30266998236809
  0
LINE
  5
1023
  8
0
 10
-2.9449147691834341
 20
58.522233666650003
 30
0.0
 11
-2.9553334574539778
 21
53.860059155175229
 31
0.0
  0
ARC
  5
1024
  8
0
 10
-2.7673591074879438
 20
53.860019645493331
 30
0.0
 40
0.1879743541182356
 50
179.9879571974042
 51
212.69102230143881
  0
ARC
  5
1025
  8
0
 10
2.1569427499014759
 20
57.275773851895039
 30
0.0
 40
6.1808633908012567
 50
214.68468715999771
 51
254.0760310297708
  0
ARC
  5
1026
  8
0
 10
5.3894069102680913
 20
68.270336771090697
 30
0.0
 40
17.640631132259841
 50
253.77741857261779
 51
271.48463818958828
  0
ARC
  5
1027
  8
0
 10
-26.132920870420492
 20
53.956021879853431
 30
0.0
 40
26.91489993456798
 50
344.1840537899252
 51
354.29115234723372
  0
ARC
  5
1028
  8
0
 10
219.06354949998979
 20
-13.15516789824356
 30
0.0
 40
227.30119760089531
 50
164.75306294013961
 51
164.98565095785341
  0
ARC
  5
1029
  8
0
 10
-4.7114505791485746
 20
47.110769910407043
 30
0.0
 40
4.4532127173107678
 50
328.88800742183469
 51
341.93292567760489
  0
ARC
  5
102A
  8
0
 10
5.6983518150790626
 20
41.414164968252003
 30
0.0
 40
7.4197195664363118
 50
152.76495621818239
 51
173.12210543227931
  0
ARC
  5
102B
  8
0
 10
12.007010195655051
 20
40.80916422528194
 30
0.0
 40
13.756301028808849
 50
173.76703216604801
 51
207.18554406580751
  0
ARC
  5
102C
  8
0
 10
8.6381691961291764
 20
38.524777329405651
 30
0.0
 40
9.7284290610795043
 50
204.2813544415491
 51
234.98918132998691
  0
ARC
  5
102D
  8
0
 10
5.82865357098812
 20
35.15897750192498
 30
0.0
 40
5.3725447838759806
 50
238.9387481987701
 51
270.18986273625433
  0
LINE
  5
102E
  8
0
 10
3.875677742116566
 20
48.378767870600001
 30
0.0
 11
3.866244028816566
 21
49.4597643396
 31
0.0
  0
ARC
  5
102F
  8
0
 10
3.3688220835383098
 20
49.455423404032253
 30
0.0
 40
0.4974408863030938
 50
0.5000000017364571
 51
86.662717265075216
  0
LINE
  5
1030
  8
0
 10
3.3977799293165658
 20
49.952020704200002
 30
0.0
 11
2.818175064516562
 21
49.952675790400001
 31
0.0
  0
ARC
  5
1031
  8
0
 10
2.822077851762939
 20
49.457572446266248
 30
0.0
 40
0.4951187262876555
 50
90.451640266102544
 51
179.494801750752
  0
LINE
  5
1032
  8
0
 10
2.3269783721165669
 20
49.461938036099987
 30
0.0
 11
2.317235541616566
 21
48.378767907700002
 31
0.0
  0
LINE
  5
1033
  8
0
 10
2.3172355413165659
 20
48.378767869399987
 30
0.0
 11
2.392768519616566
 21
48.3787674911
 31
0.0
  0
ARC
  5
1034
  8
0
 10
2.3932877601218059
 20
48.411372116437128
 30
0.0
 40
0.0326087596218541
 50
269.08762101953209
 51
353.33714916071489
  0
ARC
  5
1035
  8
0
 10
2.4410750570823678
 20
48.394258135047053
 30
0.0
 40
0.0203672352671463
 50
105.5279794938529
 51
139.1177420638611
  0
ARC
  5
1036
  8
0
 10
2.4452769660980009
 20
48.38356843715615
 30
0.0
 40
0.0318137906156377
 50
89.790154980284257
 51
107.66589053893981
  0
LINE
  5
1037
  8
0
 10
2.445393483416566
 20
48.415382014399988
 30
0.0
 11
3.7475181174911958
 21
48.415382014399988
 31
0.0
  0
LINE
  5
1038
  8
0
 10
2.3306499297787999
 20
48.378767802215258
 30
0.0
 11
2.3230204904165652
 21
48.271181733900001
 31
0.0
  0
LINE
  5
1039
  8
0
 10
2.3230204904165652
 20
48.271181733900001
 30
0.0
 11
2.3203794947489018
 21
47.900568249052469
 31
0.0
  0
LINE
  5
103A
  8
0
 10
5.8464567005582841
 20
47.861567069398717
 30
0.0
 11
1.828530140816566
 21
47.906008488699989
 31
0.0
  0
ARC
  5
103B
  8
0
 10
1.82919740034888
 20
47.966335090308831
 30
0.0
 40
0.0603302917028802
 50
180.34510621186749
 51
269.36628957942759
  0
LINE
  5
103C
  8
0
 10
1.7688682030165661
 20
47.965971708700003
 30
0.0
 11
1.7680041728674829
 21
48.109419379406752
 31
0.0
  0
ARC
  5
103D
  8
0
 10
-0.7544476640023206
 20
48.094225863709148
 30
0.0
 40
2.5224975941013499
 50
0.3451062118678895
 51
4.8117554755799707
  0
ARC
  5
103E
  8
0
 10
1.6991626898830741
 20
48.301499188369291
 30
0.0
 40
0.0601524208890911
 50
4.117967818817629
 51
89.864723045568098
  0
LINE
  5
103F
  8
0
 10
1.699304711316566
 20
48.361651441599989
 30
0.0
 11
1.311849841916563
 21
48.361651441599989
 31
0.0
  0
ARC
  5
1040
  8
0
 10
1.3116761155790659
 20
48.173855042343391
 30
0.0
 40
0.1877964796118028
 50
89.946996943876073
 51
141.66055137925531
  0
ARC
  5
1041
  8
0
 10
10.579128700841011
 20
41.427709081881538
 30
0.0
 40
11.65046582083888
 50
143.91078650012929
 51
163.65047474873731
  0
ARC
  5
1042
  8
0
 10
11.36825780551686
 20
40.836591748292321
 30
0.0
 40
12.578815863533491
 50
162.0784714983065
 51
182.3392159525161
  0
ARC
  5
1043
  8
0
 10
12.65404091976955
 20
41.055573554267852
 30
0.0
 40
13.873462394880971
 50
183.0261113446858
 51
204.980325607277
  0
ARC
  5
1044
  8
0
 10
10.2143551055842
 20
39.583749358855222
 30
0.0
 40
11.04462074883814
 50
203.4038925151236
 51
223.47768330281281
  0
ARC
  5
1045
  8
0
 10
6.0154770016717061
 20
35.68041031522521
 30
0.0
 40
5.3122609951282831
 50
224.08925832512099
 51
268.17671146552169
  0
LINE
  5
1046
  8
0
 10
2.2964481074775591
 20
47.900832948966801
 30
0.0
 11
2.2933145491782598
 21
48.284479065799999
 31
0.0
  0
LINE
  5
1047
  8
0
 10
2.2933145491782598
 20
48.284479065799999
 30
0.0
 11
2.2882961766165648
 21
48.358182303200003
 31
0.0
  0
LINE
  5
1048
  8
0
 10
2.2882961766165648
 20
48.358182303200003
 30
0.0
 11
1.858882538416565
 21
48.358245842800002
 31
0.0
  0
ARC
  5
1049
  8
0
 10
1.8588736619596791
 20
48.29825692807492
 30
0.0
 40
0.0599889153817849
 50
89.991522041776534
 51
180.0909859048615
  0
LINE
  5
104A
  8
0
 10
1.7988848222165661
 20
48.298161665500608
 30
0.0
 11
1.8041263171831809
 21
47.911460825977969
 31
0.0
  0
LINE
  5
104B
  8
0
 10
1.7683016996165659
 20
48.058438786300002
 30
0.0
 11
1.802134120217221
 21
48.058438786300002
 31
0.0
  0
LINE
  5
104C
  8
0
 10
2.29516035353054
 20
48.058494544514652
 30
0.0
 11
2.3215044818904089
 21
48.058438786300002
 31
0.0
  0
ARC
  5
104D
  8
0
 10
3.4462121530375711
 20
42.338337890699528
 30
0.0
 40
5.8722861843191119
 50
106.5969462946761
 51
108.1368658820975
  0
ARC
  5
104E
  8
0
 10
11.845689628263489
 20
40.554283071306742
 30
0.0
 40
12.60308547959059
 50
144.2430999980923
 51
171.9857219477758
  0
ARC
  5
104F
  8
0
 10
11.85267943781926
 20
40.76647531387151
 30
0.0
 40
12.582194121008079
 50
172.94703147509071
 51
202.56464381497909
  0
ARC
  5
1050
  8
0
 10
10.78332224248086
 20
39.957518286460171
 30
0.0
 40
11.289303536312559
 50
200.85561519098931
 51
222.47858690139881
  0
ARC
  5
1051
  8
0
 10
6.0056231007862593
 20
35.663810230323527
 30
0.0
 40
4.866370718667846
 50
223.1816493821816
 51
268.1256689504666
  0
LINE
  5
1052
  8
0
 10
7.8172356589999987
 20
48.378767870600001
 30
0.0
 11
7.8927703198253703
 21
48.3787674911
 31
0.0
  0
ARC
  5
1053
  8
0
 10
7.8932895603306088
 20
48.411372116437128
 30
0.0
 40
0.0326087596218541
 50
269.08762101953209
 51
353.33714916071489
  0
ARC
  5
1054
  8
0
 10
7.9410768572911721
 20
48.394258135047053
 30
0.0
 40
0.0203672352671463
 50
105.527979493853
 51
139.11774206386119
  0
ARC
  5
1055
  8
0
 10
7.9452787663068039
 20
48.38356843715615
 30
0.0
 40
0.0318137906156377
 50
89.790154980284257
 51
107.66589053893981
  0
LINE
  5
1056
  8
0
 10
3.875677742116566
 20
48.378767870600001
 30
0.0
 11
3.8001430812911958
 21
48.3787674911
 31
0.0
  0
ARC
  5
1057
  8
0
 10
3.7996238407859559
 20
48.411372116437128
 30
0.0
 40
0.0326087596218541
 50
186.662850839285
 51
270.91237898046779
  0
ARC
  5
1058
  8
0
 10
3.751836543825394
 20
48.394258135047053
 30
0.0
 40
0.0203672352671463
 50
40.882257936138821
 51
74.472020506146976
  0
ARC
  5
1059
  8
0
 10
3.7476346348097609
 20
48.38356843715615
 30
0.0
 40
0.0318137906156377
 50
72.334109461060137
 51
90.209845019715729
  0
LINE
  5
109B
  8
0
 10
-1.588430797048662
 20
52.358940597700503
 30
0.0
 11
-2.1172174847999989
 21
52.607967369099988
 31
0.0
  0
ARC
  5
109C
  8
0
 10
-2.1086892595779769
 20
52.626076313540807
 30
0.0
 40
0.020016605461421
 50
156.37419900570589
 51
244.7823808341324
  0
LINE
  5
109D
  8
0
 10
-2.127028120299999
 20
52.63409820119999
 30
0.0
 11
-2.0694555161051671
 21
52.765715099190892
 31
0.0
  0
ATTDEF
  5
180E
  8
DEFPOINTS
 10
5.8428235392151038
 20
59.659837632726173
 30
0.0
 40
0.001
  1
K-5310
  3

  2
MODELNUMBER
 70
     0
1001
AcDbAttr
1070
     0
1070
     1
  0
ATTDEF
  5
180F
  8
DEFPOINTS
 10
5.8428235392151038
 20
59.658170966059501
 30
0.0
 40
0.001
  1
CIMARRON
  3

  2
TRADENAME
 70
     0
1001
AcDbAttr
1070
     0
1070
     1
  0
ATTDEF
  5
1810
  8
DEFPOINTS
 10
5.8428235392151038
 20
59.656504299392843
 30
0.0
 40
0.001
  1
TOILET
  3

  2
PRODUCT
 70
     0
1001
AcDbAttr
1070
     0
1070
     1
  0
ATTDEF
  5
1811
  8
DEFPOINTS
 10
5.8428235392151038
 20
59.654837632726171
 30
0.0
 40
0.001
  1
VITREOUS CHINA
  3

  2
MATERIAL
 70
     0
1001
AcDbAttr
1070
     0
1070
     1
  0
ENDSEC
  0
EOF
