  0
SECTION
  2
HEADER
  9
$ACADVER
  1
AC1009
  9
$INSBASE
 10
5.8464566984821822
 20
-11.9886737042
 30
0.0
  9
$EXTMIN
 10
-2.9553334616061799
 20
-12.00257978792043
 30
0.0
  9
$EXTMAX
 10
14.648246858570539
 20
18.491538074529331
 30
0.0
  9
$LIMMIN
 10
0.0
 20
0.0
  9
$LIMMAX
 10
11.692913385800001
 20
8.2677165353999982
  9
$ORTHOMODE
 70
     0
  9
$REGENMODE
 70
     1
  9
$FILLMODE
 70
     1
  9
$QTEXTMODE
 70
     0
  9
$MIRRTEXT
 70
     0
  9
$DRAGMODE
 70
     2
  9
$LTSCALE
 40
0.6431102362
  9
$OSMODE
 70
  3071
  9
$ATTMODE
 70
     1
  9
$TEXTSIZE
 40
0.2
  9
$TRACEWID
 40
0.05
  9
$TEXTSTYLE
  7
STANDARD
  9
$CLAYER
  8
0
  9
$CELTYPE
  6
BYLAYER
  9
$CECOLOR
 62
   256
  9
$DIMSCALE
 40
1.0
  9
$DIMASZ
 40
0.1875
  9
$DIMEXO
 40
0.0625
  9
$DIMDLI
 40
0.4443307087
  9
$DIMRND
 40
0.0
  9
$DIMDLE
 40
0.0
  9
$DIMEXE
 40
0.125
  9
$DIMTP
 40
0.01
  9
$DIMTM
 40
0.01
  9
$DIMTXT
 40
0.15625
  9
$DIMCEN
 40
0.1052362205
  9
$DIMTSZ
 40
0.0
  9
$DIMTOL
 70
     1
  9
$DIMLIM
 70
     0
  9
$DIMTIH
 70
     1
  9
$DIMTOH
 70
     1
  9
$DIMSE1
 70
     0
  9
$DIMSE2
 70
     0
  9
$DIMTAD
 70
     0
  9
$DIMZIN
 70
     0
  9
$DIMBLK
  1

  9
$DIMASO
 70
     1
  9
$DIMSHO
 70
     1
  9
$DIMPOST
  1

  9
$DIMAPOST
  1

  9
$DIMALT
 70
     0
  9
$DIMALTD
 70
     2
  9
$DIMALTF
 40
25.399999999999999
  9
$DIMLFAC
 40
1.0
  9
$DIMTOFL
 70
     0
  9
$DIMTVP
 40
0.0
  9
$DIMTIX
 70
     0
  9
$DIMSOXD
 70
     0
  9
$DIMSAH
 70
     0
  9
$DIMBLK1
  1

  9
$DIMBLK2
  1

  9
$DIMSTYLE
  2
STANDARD
  9
$DIMCLRD
 70
     0
  9
$DIMCLRE
 70
     0
  9
$DIMCLRT
 70
     0
  9
$DIMTFAC
 40
1.0
  9
$DIMGAP
 40
0.09
  9
$LUNITS
 70
     2
  9
$LUPREC
 70
     4
  9
$SKETCHINC
 40
0.1
  9
$FILLETRAD
 40
0.0
  9
$AUNITS
 70
     0
  9
$AUPREC
 70
     0
  9
$MENU
  1
.
  9
$ELEVATION
 40
0.0
  9
$PELEVATION
 40
0.0
  9
$THICKNESS
 40
0.0
  9
$LIMCHECK
 70
     0
  9
$BLIPMODE
 70
     0
  9
$CHAMFERA
 40
0.0
  9
$CHAMFERB
 40
0.0
  9
$SKPOLY
 70
     0
  9
$TDCREATE
 40
2457893.7587911459
  9
$TDUPDATE
 40
2457932.7352706599
  9
$TDINDWG
 40
0.1832276852
  9
$TDUSRTIMER
 40
0.1832276852
  9
$USRTIMER
 70
     1
  9
$ANGBASE
 50
0.0
  9
$ANGDIR
 70
     0
  9
$PDMODE
 70
     0
  9
$PDSIZE
 40
0.3125
  9
$PLINEWID
 40
0.0
  9
$COORDS
 70
     1
  9
$SPLFRAME
 70
     0
  9
$SPLINETYPE
 70
     6
  9
$SPLINESEGS
 70
     8
  9
$ATTDIA
 70
     1
  9
$ATTREQ
 70
     1
  9
$HANDLING
 70
     1
  9
$HANDSEED
  5
1847
  9
$SURFTAB1
 70
     6
  9
$SURFTAB2
 70
     6
  9
$SURFTYPE
 70
     6
  9
$SURFU
 70
     6
  9
$SURFV
 70
     6
  9
$UCSNAME
  2

  9
$UCSORG
 10
0.0
 20
0.0
 30
0.0
  9
$UCSXDIR
 10
1.0
 20
0.0
 30
0.0
  9
$UCSYDIR
 10
0.0
 20
1.0
 30
0.0
  9
$PUCSNAME
  2

  9
$PUCSORG
 10
0.0
 20
0.0
 30
0.0
  9
$PUCSXDIR
 10
1.0
 20
0.0
 30
0.0
  9
$PUCSYDIR
 10
0.0
 20
1.0
 30
0.0
  9
$USERI1
 70
     0
  9
$USERI2
 70
     0
  9
$USERI3
 70
     0
  9
$USERI4
 70
     0
  9
$USERI5
 70
     0
  9
$USERR1
 40
0.0
  9
$USERR2
 40
0.0
  9
$USERR3
 40
0.0
  9
$USERR4
 40
0.0
  9
$USERR5
 40
0.0
  9
$WORLDVIEW
 70
     1
  9
$SHADEDGE
 70
     3
  9
$SHADEDIF
 70
    70
  9
$TILEMODE
 70
     1
  9
$MAXACTVP
 70
    48
  9
$PLIMCHECK
 70
     0
  9
$PEXTMIN
 10
1.0000000000000000E+020
 20
1.0000000000000000E+020
 30
1.0000000000000000E+020
  9
$PEXTMAX
 10
-1.0000000000000000E+020
 20
-1.0000000000000000E+020
 30
-1.0000000000000000E+020
  9
$PLIMMIN
 10
0.0
 20
0.0
  9
$PLIMMAX
 10
12.0
 20
9.0
  9
$UNITMODE
 70
     0
  9
$VISRETAIN
 70
     1
  9
$PLINEGEN
 70
     0
  9
$PSLTSCALE
 70
     1
  0
ENDSEC
  0
SECTION
  2
TABLES
  0
TABLE
  2
VPORT
 70
     1
  0
VPORT
  2
*ACTIVE
 70
     0
 10
0.0
 20
0.0
 11
1.0
 21
1.0
 12
0.0
 22
0.0
 13
0.0
 23
0.0
 14
1.0
 24
1.0
 15
0.0
 25
0.0
 16
-0.0000000000000195
 26
0.0
 36
88.028810421134324
 17
5.8464566984821822
 27
3.244373253935712
 37
0.0
 40
35.210287535479992
 41
1.798307475317348
 42
50.0
 43
0.0
 44
0.0
 50
0.0
 51
0.0
 71
     0
 72
   100
 73
     1
 74
     1
 75
     0
 76
     0
 77
     0
 78
     0
  0
ENDTAB
  0
TABLE
  2
LTYPE
 70
     2
  0
LTYPE
  2
CONTINUOUS
 70
     0
  3
Solid line
 72
    65
 73
     0
 40
0.0
  0
LTYPE
  2
PHANTOM2
 70
     0
  3
___ _ _ ___ _ _ ___ _ _ ___ _ _
 72
    65
 73
     6
 40
1.25
 49
0.625
 49
-0.125
 49
0.125
 49
-0.125
 49
0.125
 49
-0.125
  0
ENDTAB
  0
TABLE
  2
LAYER
 70
     2
  0
LAYER
  2
0
 70
     0
 62
     7
  6
CONTINUOUS
  0
LAYER
  2
DEFPOINTS
 70
     0
 62
     7
  6
CONTINUOUS
  0
ENDTAB
  0
TABLE
  2
STYLE
 70
     1
  0
STYLE
  2
STANDARD
 70
     0
 40
0.0
 41
0.8
 50
0.0
 71
     0
 42
0.2
  3
txt
  4

  0
ENDTAB
  0
TABLE
  2
VIEW
 70
     0
  0
ENDTAB
  0
TABLE
  2
UCS
 70
     0
  0
ENDTAB
  0
TABLE
  2
APPID
 70
     5
  0
APPID
  2
ACAD
 70
     0
  0
APPID
  2
ACAD_MLEADERVER
 70
     0
  0
APPID
  2
ACAD_NAV_VCDISPLAY
 70
     0
  0
APPID
  2
ACAD_EXEMPT_FROM_CAD_STANDARDS
 70
     0
  0
APPID
  2
AcDbAttr
 70
     0
  0
ENDTAB
  0
TABLE
  2
DIMSTYLE
 70
     1
  0
DIMSTYLE
  2
STANDARD
 70
     0
  3

  4

  5

  6

  7

 40
1.0
 41
0.1875
 42
0.0625
 43
0.38
 44
0.125
 45
0.0
 46
0.0
 47
0.01
 48
0.01
140
0.15625
141
0.09
142
0.0
143
25.399999999999999
144
1.0
145
0.0
146
1.0
147
0.09
 71
     1
 72
     0
 73
     1
 74
     1
 75
     0
 76
     0
 77
     0
 78
     4
170
     0
171
     2
172
     0
173
     0
174
     0
175
     0
176
     0
177
     0
178
     0
  0
ENDTAB
  0
ENDSEC
  0
SECTION
  2
BLOCKS
  0
BLOCK
  8
0
  2
$MODEL_SPACE
 70
     0
 10
0.0
 20
0.0
 30
0.0
  3
$MODEL_SPACE
  1

  0
ENDBLK
  5
21
  8
0
  0
BLOCK
 67
     1
  8
0
  2
$PAPER_SPACE
 70
     0
 10
0.0
 20
0.0
 30
0.0
  3
$PAPER_SPACE
  1

  0
ENDBLK
  5
1D
 67
     1
  8
0
  0
ENDSEC
  0
SECTION
  2
ENTITIES
  0
ARC
  5
10DF
  8
0
 10
6.231734849319392
 20
-331.9669133488278
 30
0.0
 40
350.45845142335708
 50
88.643733357032218
 51
90.062988397681679
  0
LINE
  5
10E1
  8
0
 10
14.648246858570539
 20
18.27195391038957
 30
0.0
 11
14.593862849813959
 21
16.707111179057371
 31
0.0
  0
ARC
  5
10E2
  8
0
 10
14.473936920511941
 20
16.71132627735242
 30
0.0
 40
0.1199999815524533
 50
270.00004172473223
 51
357.9870244152101
  0
LINE
  5
10E3
  8
0
 10
14.4739370079
 20
16.591326295799998
 30
0.0
 11
-2.7802492049314562
 21
16.591328804045371
 31
0.0
  0
ARC
  5
10E4
  8
0
 10
-103.66064544546551
 20
21.786227460295031
 30
0.0
 40
117.872768363665
 50
354.51260827968019
 51
357.47403736849009
  0
ARC
  5
10E5
  8
0
 10
-6.4228950908550102
 20
11.62157789226851
 30
0.0
 40
20.125314402041191
 50
342.3987958455624
 51
356.84644873981091
  0
ARC
  5
10E6
  8
0
 10
-41.999404560439778
 20
20.44411077589783
 30
0.0
 40
56.19437835494297
 50
351.89601763451577
 51
356.06861992949803
  0
ARC
  5
10E7
  8
0
 10
-21.219708032962419
 20
17.270119359660448
 30
0.0
 40
35.175397824034242
 50
346.7787979701576
 51
352.2429355040062
  0
ARC
  5
10E8
  8
0
 10
2.9520034425000832
 20
11.357844667713019
 30
0.0
 40
10.294678633724351
 50
329.33291100806849
 51
348.04354709384057
  0
ARC
  5
10E9
  8
0
 10
4.0369934629967092
 20
370.8880443130754
 30
0.0
 40
364.64861097548248
 50
270.2843148967338
 51
270.93755280076988
  0
ARC
  5
10EA
  8
0
 10
8.6640540738525775
 20
-15.58178640997305
 30
0.0
 40
21.911023992115659
 50
82.989113613821274
 51
86.49496448715044
  0
ARC
  5
10EB
  8
0
 10
9.7307234439305326
 20
-8.6509156099621567
 30
0.0
 40
14.903298289477689
 50
80.108570296994074
 51
83.806967693618219
  0
ARC
  5
10EC
  8
0
 10
11.9685487788889
 20
4.3158851829674987
 30
0.0
 40
1.744981291876182
 50
74.047155588681434
 51
79.356651122961054
  0
ARC
  5
10ED
  8
0
 10
12.386692837843141
 20
5.6926481052979483
 30
0.0
 40
0.3072257419897362
 50
21.381012426752719
 51
78.460730545903019
  0
ARC
  5
10EE
  8
0
 10
9.0329452870413771
 20
4.4207883897602231
 30
0.0
 40
3.8940256766083281
 50
5.6914274549758304
 51
20.816823825046502
  0
ARC
  5
1171
  8
0
 10
6.5304445354316574
 20
647.54778201424665
 30
0.0
 40
641.6999397708986
 50
269.938928428743
 51
270.36925088147831
  0
ARC
  5
1172
  8
0
 10
10.41618005527677
 20
38.753185295897516
 30
0.0
 40
32.892965364965981
 50
270.43506324117919
 51
272.73169801081201
  0
ARC
  5
1173
  8
0
 10
11.943458989709891
 20
7.9391906610705494
 30
0.0
 40
2.0419922515690931
 50
271.13277822399237
 51
283.49761249566438
  0
ARC
  5
1174
  8
0
 10
12.413863260365151
 20
5.9832234056850711
 30
0.0
 40
0.030267640938005
 50
281.83288034914392
 51
24.029708853990289
  0
ARC
  5
1175
  8
0
 10
12.84783242348724
 20
4.8043266869781878
 30
0.0
 40
0.0600005396244032
 50
270.12745142720638
 51
2.5176135395146551
  0
LINE
  5
1176
  8
0
 10
12.847965891399999
 20
4.7443262957999988
 30
0.0
 11
-1.1549191594999999
 21
4.7443262957999988
 31
0.0
  0
ARC
  5
1177
  8
0
 10
12.33708832179987
 20
4.6198912905287344
 30
0.0
 40
0.1876964366176009
 50
138.47407963721969
 51
167.90099287833951
  0
ARC
  5
1178
  8
0
 10
12.094939052563889
 20
4.6717992067061527
 30
0.0
 40
0.059953922464313
 50
269.96442268444508
 51
347.90099287833959
  0
LINE
  5
1179
  8
0
 10
12.094901824700001
 20
4.6118452958000002
 30
0.0
 11
10.67200415099966
 21
4.6127288318383606
 31
0.0
  0
ARC
  5
117A
  8
0
 10
12.697462538722871
 20
1.1238299614876699
 30
0.0
 40
4.034215785990213
 50
116.1754624920023
 51
122.892452576963
  0
LINE
  5
11BC
  8
0
 10
-1.136202276099999
 20
4.5113262957999991
 30
0.0
 11
12.828712150799999
 21
4.5113262957999991
 31
0.0
  0
ARC
  5
11BD
  8
0
 10
12.828712150799999
 20
4.26049027480303
 30
0.0
 40
0.2508360209969691
 50
21.548240433266731
 51
90.0
  0
ARC
  5
11BE
  8
0
 10
7.4306655565205446
 20
2.1288913084529231
 30
0.0
 40
6.0545090982263252
 50
4.278716082839872
 51
21.548240433266709
  0
ARC
  5
11BF
  8
0
 10
13.27988532265857
 20
2.5665112929296039
 30
0.0
 40
0.1889415107380399
 50
315.51784779590582
 51
4.2787160828396082
  0
ARC
  5
11C0
  8
0
 10
13.883408602730841
 20
1.9738000531683459
 30
0.0
 40
0.656958579892363
 50
135.51784779590571
 51
146.74398790381909
  0
ARC
  5
11C1
  8
0
 10
13.415985164891049
 20
2.2803264225138551
 30
0.0
 40
0.0979924938494735
 50
146.74398790381889
 51
177.3085850523475
  0
LINE
  5
11C2
  8
0
 10
13.3181007644
 20
2.284927834399999
 30
0.0
 11
13.30758661222589
 21
2.0612635531534451
 31
0.0
  0
ARC
  5
11C3
  8
0
 10
8.2454542710487573
 20
3.0954802135953261
 30
0.0
 40
5.1666999080967644
 50
291.16153486066992
 51
348.45311844742571
  0
ARC
  5
11C4
  8
0
 10
10.215873193354019
 20
-1.943802164354131
 30
0.0
 40
0.2447742687957148
 50
115.4661757477415
 51
132.96687885037539
  0
LINE
  5
11C5
  8
0
 10
10.049041056000879
 20
-1.7646891257146731
 30
0.0
 11
10.66010043475594
 21
-11.914466806830969
 31
0.0
  0
ARC
  5
11C6
  8
0
 10
10.58974861648386
 20
-11.91822290674717
 30
0.0
 40
0.0704520166392945
 50
270.3370750502408
 51
3.0561097240501529
  0
LINE
  5
11C7
  8
0
 10
10.590163088200001
 20
-11.9886737042
 30
0.0
 11
1.1026865571999991
 21
-11.9886737042
 31
0.0
  0
LINE
  5
11C8
  8
0
 10
10.3844541548
 20
-6.7969096273999989
 30
0.0
 11
10.393894166700001
 21
-6.8003818697999989
 31
0.0
  0
ARC
  5
11C9
  8
0
 10
10.38698999973785
 20
-6.8191522811866641
 30
0.0
 40
0.0199998966263775
 50
9.4451081939404524
 51
69.805376446992128
  0
ARC
  5
11CA
  8
0
 10
4.4875599856345341
 20
-7.8005690418370213
 30
0.0
 40
6.0005060081012704
 50
355.52564505588492
 51
9.4451081939404204
  0
ARC
  5
11CB
  8
0
 10
10.44983961545835
 20
-8.267125529415285
 30
0.0
 40
0.0199998973851081
 50
295.16537786800768
 51
355.52564505588668
  0
LINE
  5
11CC
  8
0
 10
10.458344220900001
 20
-8.2852271200000001
 30
0.0
 11
10.44924057257967
 21
-8.2895042544695716
 31
0.0
  0
LINE
  5
11CD
  8
0
 10
10.3844541548
 20
-6.7969096273999989
 30
0.0
 11
10.449240572508799
 21
-8.2895042545028659
 31
0.0
  0
ARC
  5
120F
  8
0
 10
10.407256853352759
 20
-8.0140657542435108
 30
0.0
 40
0.0299999999326797
 50
310.33028796745953
 51
2.4853767076967692
  0
ARC
  5
1210
  8
0
 10
10.366494314700001
 20
-7.0749499916999978
 30
0.0
 40
0.0299999999999983
 50
2.4853766229977601
 51
89.156399124602004
  0
LINE
  5
1211
  8
0
 10
13.414794848375561
 20
2.4342300986849619
 30
0.0
 11
-1.721912397528816
 21
2.4342617887977149
 31
0.0
  0
ARC
  5
1253
  8
0
 10
5.4611786525269199
 20
-331.96691252380202
 30
0.0
 40
350.45845059822108
 50
89.937011618638167
 51
91.35626664380311
  0
ARC
  5
1254
  8
0
 10
-2.830088637909502
 20
18.268109312143292
 30
0.0
 40
0.1253036987246589
 50
91.724840747262107
 51
178.2435400390296
  0
LINE
  5
1255
  8
0
 10
-2.9553334616061799
 20
18.271950021878261
 30
0.0
 11
-2.9009493335455812
 21
16.707111179057371
 31
0.0
  0
ARC
  5
1256
  8
0
 10
-2.7810234229623001
 20
16.711326269014489
 30
0.0
 40
0.1199999625523846
 50
182.01297192011521
 51
270.36966455991501
  0
ARC
  5
1257
  8
0
 10
115.3535589617339
 20
21.786227460295031
 30
0.0
 40
117.872768363665
 50
182.52596263150991
 51
185.48739172031981
  0
ARC
  5
1258
  8
0
 10
18.115808607123391
 20
11.62157789226851
 30
0.0
 40
20.125314402041191
 50
183.1535512601892
 51
197.6012041544376
  0
ARC
  5
1259
  8
0
 10
53.692318076708169
 20
20.44411077589783
 30
0.0
 40
56.19437835494297
 50
183.931380070502
 51
188.1039823654842
  0
ARC
  5
125A
  8
0
 10
32.912621549230799
 20
17.270119359660448
 30
0.0
 40
35.175397824034242
 50
187.75706449599389
 51
193.2212020298424
  0
ARC
  5
125B
  8
0
 10
8.7409100737682977
 20
11.357844667713019
 30
0.0
 40
10.294678633724351
 50
191.9564529061594
 51
210.66708899193139
  0
ARC
  5
125C
  8
0
 10
7.6559202908806814
 20
370.88806189591168
 30
0.0
 40
364.64862855985268
 50
269.062447207106
 51
269.71568506154819
  0
ARC
  5
125D
  8
0
 10
3.0288594424158042
 20
-15.58178640997305
 30
0.0
 40
21.911023992115659
 50
93.505035512849574
 51
97.010886386178754
  0
ARC
  5
125E
  8
0
 10
1.9621900723378489
 20
-8.6509156099621567
 30
0.0
 40
14.903298289477689
 50
96.193032306381795
 51
99.891429703005983
  0
ARC
  5
125F
  8
0
 10
-0.2756352626205185
 20
4.3158851829674987
 30
0.0
 40
1.744981291876182
 50
100.643348877039
 51
105.95284441131859
  0
ARC
  5
1260
  8
0
 10
-0.6937793215747626
 20
5.6926481052979483
 30
0.0
 40
0.3072257419897362
 50
101.539269454097
 51
158.6189875732473
  0
ARC
  5
1261
  8
0
 10
2.6599682292270042
 20
4.4207883897602231
 30
0.0
 40
3.8940256766083281
 50
159.1831761749535
 51
174.30857254502411
  0
ARC
  5
1262
  8
0
 10
5.162468941106531
 20
647.54777331488708
 30
0.0
 40
641.69993107146354
 50
269.63074911706332
 51
270.06107156535069
  0
ARC
  5
1263
  8
0
 10
1.276733460991611
 20
38.753185295897516
 30
0.0
 40
32.892965364965981
 50
267.26830198918788
 51
269.56493675882081
  0
ARC
  5
1264
  8
0
 10
-0.2505454734415107
 20
7.9391906610705494
 30
0.0
 40
2.0419922515690931
 50
256.50238750433562
 51
268.86722177600763
  0
ARC
  5
1265
  8
0
 10
-0.720949744096771
 20
5.9832234056850711
 30
0.0
 40
0.030267640938005
 50
155.97029114600971
 51
258.16711965085608
  0
ARC
  5
1266
  8
0
 10
-1.1549191517496289
 20
4.8043265951628733
 30
0.0
 40
0.0600002993628735
 50
177.48228861116991
 51
269.99999259897839
  0
ARC
  5
1267
  8
0
 10
-0.64417480553149
 20
4.6198912905287344
 30
0.0
 40
0.1876964366176009
 50
12.09900712166052
 51
41.525920362780269
  0
ARC
  5
1268
  8
0
 10
-0.4020255362955095
 20
4.6717992067061527
 30
0.0
 40
0.059953922464313
 50
192.09900712166041
 51
270.0355773155548
  0
LINE
  5
1269
  8
0
 10
-0.4019883084316192
 20
4.6118452958000002
 30
0.0
 11
1.0209093652687189
 21
4.6127288318383606
 31
0.0
  0
ARC
  5
126A
  8
0
 10
-1.004549022454492
 20
1.1238299614876699
 30
0.0
 40
4.034215785990213
 50
57.107547423037047
 51
63.824537507997597
  0
ARC
  5
126B
  8
0
 10
-1.1357978654923271
 20
4.2604896595413946
 30
0.0
 40
0.2508369622632818
 50
90.092374867081276
 51
158.45169337016711
  0
ARC
  5
126C
  8
0
 10
4.2622479597478362
 20
2.1288913084529231
 30
0.0
 40
6.0545090982263252
 50
158.4517595667333
 51
175.72128391716009
  0
ARC
  5
126D
  8
0
 10
-1.5869718063901881
 20
2.5665112929296039
 30
0.0
 40
0.1889415107380399
 50
175.72128391716041
 51
224.48215220409429
  0
ARC
  5
126E
  8
0
 10
-2.1904950864624619
 20
1.9738000531683459
 30
0.0
 40
0.656958579892363
 50
33.256012096180882
 51
44.482152204094263
  0
ARC
  5
126F
  8
0
 10
-1.723071648622672
 20
2.2803264225138551
 30
0.0
 40
0.0979924938494735
 50
2.6914149476524631
 51
33.256012096181081
  0
LINE
  5
1270
  8
0
 10
-1.6251872481316181
 20
2.284927834399999
 30
0.0
 11
-1.6146730959575131
 21
2.0612635531534451
 31
0.0
  0
ARC
  5
1271
  8
0
 10
3.447459245219624
 20
3.0954802135953261
 30
0.0
 40
5.1666999080967644
 50
191.54688155257429
 51
248.83846513933011
  0
ARC
  5
1272
  8
0
 10
1.4770403229143569
 20
-1.943802164354131
 30
0.0
 40
0.2447742687957148
 50
47.033121149624598
 51
64.533824252258484
  0
LINE
  5
1273
  8
0
 10
1.6438724602674979
 20
-1.7646891257146731
 30
0.0
 11
1.0328130815124379
 21
-11.914466806830969
 31
0.0
  0
ARC
  5
1274
  8
0
 10
1.103165567790281
 20
-11.91822266197908
 30
0.0
 40
0.0704526706460385
 50
176.94411801414549
 51
269.61044064944667
  0
LINE
  5
1275
  8
0
 10
1.308459361468381
 20
-6.7969096273999989
 30
0.0
 11
1.2990193495683819
 21
-6.8003818697999989
 31
0.0
  0
ARC
  5
1276
  8
0
 10
1.3059235165305241
 20
-6.8191522811866641
 30
0.0
 40
0.0199998966263775
 50
110.1946235530079
 51
170.55489180605949
  0
ARC
  5
1277
  8
0
 10
7.2053535306338468
 20
-7.8005690418370213
 30
0.0
 40
6.0005060081012704
 50
170.5548918060596
 51
184.47435494411511
  0
ARC
  5
1278
  8
0
 10
1.2430739008100331
 20
-8.267125529415285
 30
0.0
 40
0.0199998973851081
 50
184.47435494411329
 51
244.83462213199229
  0
LINE
  5
1279
  8
0
 10
1.23456929536838
 20
-8.2852271200000001
 30
0.0
 11
1.2436729436887111
 21
-8.2895042544695716
 31
0.0
  0
LINE
  5
127A
  8
0
 10
1.308459361468381
 20
-6.7969096273999989
 30
0.0
 11
1.243672943759575
 21
-8.2895042545028659
 31
0.0
  0
ARC
  5
127B
  8
0
 10
1.2856566629156161
 20
-8.0140657542435108
 30
0.0
 40
0.0299999999326797
 50
177.51462329230321
 51
229.66971203254059
  0
ARC
  5
127C
  8
0
 10
1.3264192015683789
 20
-7.0749499916999978
 30
0.0
 40
0.0299999999999983
 50
90.84360087539801
 51
177.51462337700221
  0
LINE
  5
127D
  8
0
 10
-1.941539742599999
 20
15.1162889084
 30
0.0
 11
-2.1114493339
 21
15.08975897925
 31
0.0
  0
ARC
  5
127E
  8
0
 10
-2.1086033024316921
 20
15.06984212381356
 30
0.0
 40
0.0201191705990691
 50
98.132263004400244
 51
173.54797660177539
  0
LINE
  5
127F
  8
0
 10
-2.128595044199999
 20
15.072102939300001
 30
0.0
 11
-2.1274862692999998
 21
14.9682235415
 31
0.0
  0
ARC
  5
1280
  8
0
 10
-2.1074900668729759
 20
14.96846353395309
 30
0.0
 40
0.0199976425580627
 50
180.68762529028291
 51
270.05900693076148
  0
LINE
  5
1281
  8
0
 10
-2.107469472
 20
14.948465902000001
 30
0.0
 11
-0.9239456656340495
 21
14.94322251395266
 31
0.0
  0
ARC
  5
1282
  8
0
 10
-0.9247843027983524
 20
14.894833915789491
 30
0.0
 40
0.0483958649523914
 50
46.259945093438631
 51
89.007089237483456
  0
ARC
  5
1283
  8
0
 10
-0.9380395715266974
 20
14.88305992286999
 30
0.0
 40
0.0660825268233842
 50
10.49126001612288
 51
45.014504035092109
  0
ARC
  5
1284
  8
0
 10
-0.2603240212176717
 20
15.003608892748741
 30
0.0
 40
0.6222727145791323
 50
190.04298967956251
 51
239.52209754345961
  0
ARC
  5
1285
  8
0
 10
-0.3202305891114681
 20
14.907643233332299
 30
0.0
 40
0.5091907259482343
 50
239.85456147114161
 51
298.96758302946938
  0
ARC
  5
1287
  8
0
 10
-0.3953723487631395
 20
14.9959110040278
 30
0.0
 40
0.6232321536030769
 50
301.08176397507401
 51
9.3585195227850182
  0
ARC
  5
1288
  8
0
 10
-0.3572015767295493
 20
15.042049190259601
 30
0.0
 40
0.579402349751748
 50
5.4675528711172028
 51
94.681469051883596
  0
ARC
  5
1289
  8
0
 10
-0.3096147134633993
 20
15.056185467024379
 30
0.0
 40
0.5712665973658262
 50
99.559929262525344
 51
172.3837515900411
  0
ARC
  5
128A
  8
0
 10
-0.931471674854681
 20
15.138788846585751
 30
0.0
 40
0.0560550287250141
 50
295.11360131106193
 51
352.94052088945989
  0
ARC
  5
128B
  8
0
 10
-0.923479657590253
 20
15.12624627185242
 30
0.0
 40
0.0413504873768516
 50
269.22123259945198
 51
292.4616060145816
  0
LINE
  5
128C
  8
0
 10
-0.9240416783937945
 20
15.084899604043279
 30
0.0
 11
-2.1104338926647102
 21
15.089917531712061
 31
0.0
  0
LINE
  5
128D
  8
0
 10
-0.404490175
 20
15.619518558599999
 30
0.0
 11
-0.2216647632
 21
15.646798653999999
 31
0.0
  0
LINE
  5
128E
  8
0
 10
-0.3165228153
 20
14.398519038250001
 30
0.0
 11
-0.1139048016
 21
14.403385461299999
 31
0.0
  0
ARC
  5
128F
  8
0
 10
-0.1289176789477939
 20
15.02846046133117
 30
0.0
 40
0.625255261593401
 50
271.3758495701482
 51
98.530435324665007
  0
LINE
  5
12D1
  8
0
 10
-1.941539742599999
 20
15.1162889084
 30
0.0
 11
-0.8824737094892508
 21
15.11156081626018
 31
0.0
  0
ARC
  5
12D2
  8
0
 10
5.8464567493072899
 20
-10.529473645225339
 30
0.0
 40
9.7202449829374729
 50
64.382972379451317
 51
115.6170274840141
  0
ARC
  5
154B
  8
0
 10
10.343867890049991
 20
4.5891459151062319
 30
0.0
 40
0.15887294161599
 50
102.3771674955541
 51
156.54494112228119
  0
ARC
  5
154C
  8
0
 10
10.093660329945649
 20
4.686845296129988
 30
0.0
 40
0.1100000004719652
 50
269.99708893393432
 51
341.74165019124661
  0
LINE
  5
154D
  8
0
 10
10.0936547411
 20
4.5768452958000001
 30
0.0
 11
8.9369247582999982
 21
4.5768452958000001
 31
0.0
  0
ARC
  5
154E
  8
0
 10
8.9396050196513812
 20
4.6692822291852352
 30
0.0
 40
0.0924757830709105
 50
216.50589409835021
 51
268.33914169884002
  0
ARC
  5
154F
  8
0
 10
8.6631406180274393
 20
4.5401181716114154
 30
0.0
 40
0.2153040525362963
 50
20.14488812164501
 51
71.525343165893219
  0
ARC
  5
1550
  8
0
 10
1.3490456205822241
 20
4.5891459151062319
 30
0.0
 40
0.15887294161599
 50
23.455058877718841
 51
77.62283250444581
  0
ARC
  5
1551
  8
0
 10
1.5992531806865631
 20
4.686845296129988
 30
0.0
 40
0.1100000004719652
 50
198.25834980875331
 51
270.00291106606568
  0
LINE
  5
1552
  8
0
 10
1.59925876953222
 20
4.5768452958000001
 30
0.0
 11
2.7559887523322191
 21
4.5768452958000001
 31
0.0
  0
ARC
  5
1553
  8
0
 10
2.7533084909808379
 20
4.6692822291852352
 30
0.0
 40
0.0924757830709105
 50
271.66085830115998
 51
323.49410590164979
  0
ARC
  5
1554
  8
0
 10
3.0297728926047802
 20
4.5401181716114154
 30
0.0
 40
0.2153040525362963
 50
108.4746568341067
 51
159.8551118783549
  0
ARC
  5
169C
  8
0
 10
14.523002154177879
 20
18.268109312143292
 30
0.0
 40
0.1253036987246589
 50
1.7582388400193709
 51
88.275159252737836
  0
ATTDEF
  5
17BC
  8
DEFPOINTS
 10
5.8425852308261517
 20
-11.997579787920429
 30
0.0
 40
0.001
  1
K-5310
  3

  2
MODELNUMBER
 70
     0
1001
AcDbAttr
1070
     0
1070
     1
  0
ATTDEF
  5
17BD
  8
DEFPOINTS
 10
5.8425852308261517
 20
-11.999246454587089
 30
0.0
 40
0.001
  1
CIMARRON
  3

  2
TRADENAME
 70
     0
1001
AcDbAttr
1070
     0
1070
     1
  0
ATTDEF
  5
17BE
  8
DEFPOINTS
 10
5.8425852308261517
 20
-12.00091312125376
 30
0.0
 40
0.001
  1
TOILET
  3

  2
PRODUCT
 70
     0
1001
AcDbAttr
1070
     0
1070
     1
  0
ATTDEF
  5
17BF
  8
DEFPOINTS
 10
5.8425852308261517
 20
-12.002579787920419
 30
0.0
 40
0.001
  1
VITREOUS CHINA
  3

  2
MATERIAL
 70
     0
1001
AcDbAttr
1070
     0
1070
     1
  0
ENDSEC
  0
EOF
