  0
SECTION
  2
HEADER
  9
$ACADVER
  1
AC1009
  9
$INSBASE
 10
6.6102227638939848
 20
48.397124253023932
 30
0.0
  9
$EXTMIN
 10
-0.9002355754871231
 20
32.831742530155971
 30
-0.0015258207003583
  9
$EXTMAX
 10
14.120681172895139
 20
48.409978785534747
 30
0.0000000349246037
  9
$LIMMIN
 10
0.0
 20
0.0
  9
$LIMMAX
 10
11.692913385800001
 20
8.2677165353999982
  9
$ORTHOMODE
 70
     1
  9
$REGENMODE
 70
     1
  9
$FILLMODE
 70
     1
  9
$QTEXTMODE
 70
     0
  9
$MIRRTEXT
 70
     0
  9
$DRAGMODE
 70
     2
  9
$LTSCALE
 40
0.6431102362
  9
$OSMODE
 70
    47
  9
$ATTMODE
 70
     1
  9
$TEXTSIZE
 40
0.001
  9
$TRACEWID
 40
0.05
  9
$TEXTSTYLE
  7
STANDARD
  9
$CLAYER
  8
0
  9
$CELTYPE
  6
BYLAYER
  9
$CECOLOR
 62
   256
  9
$DIMSCALE
 40
1.0
  9
$DIMASZ
 40
0.1875
  9
$DIMEXO
 40
0.0625
  9
$DIMDLI
 40
0.4443307087
  9
$DIMRND
 40
0.0
  9
$DIMDLE
 40
0.0
  9
$DIMEXE
 40
0.125
  9
$DIMTP
 40
0.0
  9
$DIMTM
 40
0.0
  9
$DIMTXT
 40
0.15625
  9
$DIMCEN
 40
0.1052362205
  9
$DIMTSZ
 40
0.0
  9
$DIMTOL
 70
     0
  9
$DIMLIM
 70
     0
  9
$DIMTIH
 70
     1
  9
$DIMTOH
 70
     1
  9
$DIMSE1
 70
     0
  9
$DIMSE2
 70
     0
  9
$DIMTAD
 70
     0
  9
$DIMZIN
 70
     0
  9
$DIMBLK
  1

  9
$DIMASO
 70
     1
  9
$DIMSHO
 70
     1
  9
$DIMPOST
  1

  9
$DIMAPOST
  1

  9
$DIMALT
 70
     0
  9
$DIMALTD
 70
     2
  9
$DIMALTF
 40
25.399999999999999
  9
$DIMLFAC
 40
1.0
  9
$DIMTOFL
 70
     0
  9
$DIMTVP
 40
0.0
  9
$DIMTIX
 70
     0
  9
$DIMSOXD
 70
     0
  9
$DIMSAH
 70
     0
  9
$DIMBLK1
  1

  9
$DIMBLK2
  1

  9
$DIMSTYLE
  2
STANDARD
  9
$DIMCLRD
 70
     0
  9
$DIMCLRE
 70
     0
  9
$DIMCLRT
 70
     0
  9
$DIMTFAC
 40
1.0
  9
$DIMGAP
 40
0.09
  9
$LUNITS
 70
     2
  9
$LUPREC
 70
     4
  9
$SKETCHINC
 40
0.1
  9
$FILLETRAD
 40
0.0
  9
$AUNITS
 70
     0
  9
$AUPREC
 70
     0
  9
$MENU
  1
.
  9
$ELEVATION
 40
0.0
  9
$PELEVATION
 40
0.0
  9
$THICKNESS
 40
0.0
  9
$LIMCHECK
 70
     0
  9
$BLIPMODE
 70
     0
  9
$CHAMFERA
 40
0.0
  9
$CHAMFERB
 40
0.0
  9
$SKPOLY
 70
     0
  9
$TDCREATE
 40
2457343.4768705671
  9
$TDUPDATE
 40
2457343.7014344679
  9
$TDINDWG
 40
0.1825196875
  9
$TDUSRTIMER
 40
0.1825196875
  9
$USRTIMER
 70
     1
  9
$ANGBASE
 50
0.0
  9
$ANGDIR
 70
     0
  9
$PDMODE
 70
     0
  9
$PDSIZE
 40
0.3125
  9
$PLINEWID
 40
0.0
  9
$COORDS
 70
     1
  9
$SPLFRAME
 70
     0
  9
$SPLINETYPE
 70
     6
  9
$SPLINESEGS
 70
     8
  9
$ATTDIA
 70
     0
  9
$ATTREQ
 70
     1
  9
$HANDLING
 70
     1
  9
$HANDSEED
  5
CEE
  9
$SURFTAB1
 70
     6
  9
$SURFTAB2
 70
     6
  9
$SURFTYPE
 70
     6
  9
$SURFU
 70
     6
  9
$SURFV
 70
     6
  9
$UCSNAME
  2

  9
$UCSORG
 10
0.0
 20
0.0
 30
0.0
  9
$UCSXDIR
 10
1.0
 20
0.0
 30
0.0
  9
$UCSYDIR
 10
0.0
 20
1.0
 30
0.0
  9
$PUCSNAME
  2

  9
$PUCSORG
 10
0.0
 20
0.0
 30
0.0
  9
$PUCSXDIR
 10
1.0
 20
0.0
 30
0.0
  9
$PUCSYDIR
 10
0.0
 20
1.0
 30
0.0
  9
$USERI1
 70
     0
  9
$USERI2
 70
     0
  9
$USERI3
 70
     0
  9
$USERI4
 70
     0
  9
$USERI5
 70
     0
  9
$USERR1
 40
0.0
  9
$USERR2
 40
0.0
  9
$USERR3
 40
0.0
  9
$USERR4
 40
0.0
  9
$USERR5
 40
0.0
  9
$WORLDVIEW
 70
     1
  9
$SHADEDGE
 70
     3
  9
$SHADEDIF
 70
    70
  9
$TILEMODE
 70
     1
  9
$MAXACTVP
 70
    48
  9
$PLIMCHECK
 70
     0
  9
$PEXTMIN
 10
1.0000000000000000E+020
 20
1.0000000000000000E+020
 30
1.0000000000000000E+020
  9
$PEXTMAX
 10
-1.0000000000000000E+020
 20
-1.0000000000000000E+020
 30
-1.0000000000000000E+020
  9
$PLIMMIN
 10
0.0
 20
0.0
  9
$PLIMMAX
 10
12.0
 20
9.0
  9
$UNITMODE
 70
     0
  9
$VISRETAIN
 70
     1
  9
$PLINEGEN
 70
     0
  9
$PSLTSCALE
 70
     1
  0
ENDSEC
  0
SECTION
  2
TABLES
  0
TABLE
  2
VPORT
 70
     1
  0
VPORT
  2
*ACTIVE
 70
     0
 10
0.0
 20
0.0
 11
1.0
 21
1.0
 12
6.4405287714265924
 22
41.285444588739217
 13
0.0
 23
0.0
 14
1.0
 24
1.0
 15
0.0
 25
0.0
 16
0.0
 26
0.0
 36
1.0
 17
0.0
 27
0.0
 37
0.0
 40
25.075582115980762
 41
2.0329087048832268
 42
50.0
 43
0.0
 44
0.0
 50
0.0
 51
0.0
 71
     0
 72
   100
 73
     1
 74
     1
 75
     0
 76
     0
 77
     0
 78
     0
  0
ENDTAB
  0
TABLE
  2
LTYPE
 70
     1
  0
LTYPE
  2
CONTINUOUS
 70
     0
  3
Solid line
 72
    65
 73
     0
 40
0.0
  0
ENDTAB
  0
TABLE
  2
LAYER
 70
     2
  0
LAYER
  2
0
 70
     0
 62
     7
  6
CONTINUOUS
  0
LAYER
  2
DEFPOINTS
 70
     0
 62
     7
  6
CONTINUOUS
  0
ENDTAB
  0
TABLE
  2
STYLE
 70
     1
  0
STYLE
  2
STANDARD
 70
     0
 40
0.0
 41
0.8
 50
0.0
 71
     0
 42
0.001
  3
txt
  4

  0
ENDTAB
  0
TABLE
  2
VIEW
 70
     0
  0
ENDTAB
  0
TABLE
  2
UCS
 70
     0
  0
ENDTAB
  0
TABLE
  2
APPID
 70
     5
  0
APPID
  2
ACAD
 70
     0
  0
APPID
  2
ACAD_MLEADERVER
 70
     0
  0
APPID
  2
ACAD_NAV_VCDISPLAY
 70
     0
  0
APPID
  2
ACAD_EXEMPT_FROM_CAD_STANDARDS
 70
     0
  0
APPID
  2
ACDBATTR
 70
     0
  0
ENDTAB
  0
TABLE
  2
DIMSTYLE
 70
     1
  0
DIMSTYLE
  2
STANDARD
 70
     0
  3

  4

  5

  6

  7

 40
1.0
 41
0.1875
 42
0.0625
 43
0.38
 44
0.125
 45
0.0
 46
0.0
 47
1.5
 48
1.5
140
0.15625
141
0.09
142
0.0
143
25.399999999999999
144
1.0
145
0.0
146
1.0
147
0.09
 71
     0
 72
     0
 73
     1
 74
     1
 75
     0
 76
     0
 77
     0
 78
     4
170
     0
171
     2
172
     0
173
     0
174
     0
175
     0
176
     0
177
     0
178
     0
  0
ENDTAB
  0
ENDSEC
  0
SECTION
  2
BLOCKS
  0
BLOCK
  8
0
  2
$MODEL_SPACE
 70
     2
 10
0.0
 20
0.0
 30
0.0
  3
$MODEL_SPACE
  1

  0
ENDBLK
  5
21
  8
0
  0
BLOCK
 67
     1
  8
0
  2
$PAPER_SPACE
 70
     0
 10
0.0
 20
0.0
 30
0.0
  3
$PAPER_SPACE
  1

  0
ENDBLK
  5
1D
 67
     1
  8
0
  0
ENDSEC
  0
SECTION
  2
ENTITIES
  0
LINE
  5
8AE
  8
0
 10
-0.3604315828
 20
48.397124252799998
 30
0.0
 11
13.580877110599999
 21
48.397124252799998
 31
0.0
  0
ARC
  5
8AF
  8
0
 10
13.58087711058797
 20
48.337124252769847
 30
0.0
 40
0.0600000000301435
 50
2.9997608002977829
 51
89.999999988514389
  0
LINE
  5
8B0
  8
0
 10
13.64079489581243
 20
48.340264159999933
 30
0.0
 11
13.8848197881
 21
43.684187296200001
 31
0.0
  0
ARC
  5
8B1
  8
0
 10
14.090446378445799
 20
43.700135865468837
 30
0.0
 40
0.2062441551146652
 50
184.4350292635209
 51
250.70515014808029
  0
ARC
  5
8B2
  8
0
 10
13.90945683493962
 20
43.327040720360039
 30
0.0
 40
0.2111213168883863
 50
3.3249403898186092
 51
57.691264159795963
  0
LINE
  5
8B3
  8
0
 10
14.120222763899999
 20
43.339285459399917
 30
0.0
 11
14.120222763899999
 21
43.193948530299998
 31
0.0
  0
ARC
  5
8B4
  8
0
 10
13.92669298093389
 20
43.198090935290537
 30
0.0
 40
0.193108952155472
 50
255.93775414056941
 51
358.77084657998819
  0
LINE
  5
8B5
  8
0
 10
13.8797721641
 20
43.010769009100002
 30
0.0
 11
11.505108825100001
 21
43.552443454200002
 31
0.0
  0
LINE
  5
8B6
  8
0
 10
11.505108825100001
 20
43.552443454200002
 30
0.0
 11
9.037931777899999
 21
43.885777523599991
 31
0.0
  0
LINE
  5
8B7
  8
0
 10
9.037931777899999
 20
43.885777523599991
 30
0.0
 11
8.6532204368411847
 21
43.916904918108052
 31
0.0
  0
ARC
  5
8B8
  8
0
 10
6.4740856459835561
 20
17.608013004726089
 30
0.0
 40
26.398985248428421
 50
85.265065946985374
 51
89.704529682443564
  0
ARC
  5
8C0
  8
0
 10
12.809138645230419
 20
42.426804329673018
 30
0.0
 40
0.910743788102776
 50
104.704447382341
 51
172.80317795010299
  0
LINE
  5
8C1
  8
0
 10
11.9055700141
 20
42.540900676699991
 30
0.0
 11
11.402121767400001
 21
37.8861949478
 31
0.0
  0
ARC
  5
8C2
  8
0
 10
5.4479009005287651
 20
38.321673322209548
 30
0.0
 40
5.9701245837974959
 50
316.61358433953029
 51
355.81696298094039
  0
ARC
  5
8C3
  8
0
 10
6.5234178284989506
 20
37.360422589225159
 30
0.0
 40
4.5283868219260697
 50
271.09837371410072
 51
316.10479272542079
  0
ARC
  5
8C4
  8
0
 10
-0.3604315827918274
 20
48.337124253217723
 30
0.0
 40
0.0600000000301435
 50
90.000000007804303
 51
177.00023919602091
  0
LINE
  5
8C5
  8
0
 10
-0.4203493680160851
 20
48.340264160451653
 30
0.0
 11
-0.6643742606028092
 21
43.684187296667403
 31
0.0
  0
ARC
  5
8C6
  8
0
 10
-0.8700008509475836
 20
43.700135865949449
 30
0.0
 40
0.2062441551146652
 50
289.29484984823853
 51
355.5649707327978
  0
ARC
  5
8C7
  8
0
 10
-0.6890113074653783
 20
43.327040720829011
 30
0.0
 40
0.2111213168883863
 50
122.3087358365227
 51
176.6750596065001
  0
LINE
  5
8C8
  8
0
 10
-0.8997772364249705
 20
43.33928545988244
 30
0.0
 11
-0.899777236434307
 21
43.193948530782521
 31
0.0
  0
ARC
  5
8C9
  8
0
 10
-0.7062474534679364
 20
43.198090935760618
 30
0.0
 40
0.193108952155472
 50
181.22915341633049
 51
284.06224585574932
  0
LINE
  5
8CA
  8
0
 10
-0.6593266366460764
 20
43.01076900956707
 30
0.0
 11
1.7153367023887249
 21
43.552443454514503
 31
0.0
  0
LINE
  5
8CB
  8
0
 10
1.7153367023887249
 20
43.552443454514503
 30
0.0
 11
4.5672250906709664
 21
43.916904918239318
 31
0.0
  0
ARC
  5
8CC
  8
0
 10
6.7463598798382307
 20
17.608013004717339
 30
0.0
 40
26.398985248428421
 50
90.2954703138751
 51
94.734934049333319
  0
ARC
  5
8CD
  8
0
 10
0.4113068821859809
 20
42.426804330071313
 30
0.0
 40
0.910743788102776
 50
7.1968220462156891
 51
75.295552613977804
  0
LINE
  5
8CE
  8
0
 10
1.3148755133237291
 20
42.54090067704022
 30
0.0
 11
1.818323759724668
 21
37.886194948107878
 31
0.0
  0
ARC
  5
8CF
  8
0
 10
7.7725446266238816
 20
38.32167332213487
 30
0.0
 40
5.9701245837974959
 50
184.18303701537829
 51
223.38641565678839
  0
ARC
  5
8D0
  8
0
 10
6.6970276985919348
 20
37.360422589219588
 30
0.0
 40
4.5283868219260697
 50
223.895207270898
 51
268.9016262822181
  0
LINE
  5
8D1
  8
0
 10
-0.3604315828000001
 20
48.397124253247867
 30
0.0
 11
13.58087711058797
 21
48.397124252799998
 31
0.0
  0
ARC
  5
8D2
  8
0
 10
6.6108386209328769
 20
44.04868676450679
 30
0.0
 40
1.108827048535304
 50
227.00850578328911
 51
313.06496373345789
  0
POLYLINE
  5
8D3
  8
0
 10
6.6102227675999989
 20
43.327478088100001
 30
0.0
 66
     1
 70
     8
  0
VERTEX
  8
0
  5
C6C
 10
6.61022
 20
43.3275
 30
0.000000
  70
    32
  0
VERTEX
  8
0
  5
C6D
 10
6.39785
 20
43.3214
 30
0.000000
  70
    32
  0
VERTEX
  8
0
  5
C6E
 10
6.18598
 20
43.3031
 30
0.000000
  70
    32
  0
VERTEX
  8
0
  5
C6F
 10
5.97514
 20
43.2726
 30
0.000000
  70
    32
  0
VERTEX
  8
0
  5
C70
 10
5.76583
 20
43.2300
 30
0.000000
  70
    32
  0
VERTEX
  8
0
  5
C71
 10
5.55855
 20
43.1755
 30
0.000000
  70
    32
  0
VERTEX
  8
0
  5
C72
 10
5.35381
 20
43.1091
 30
0.000000
  70
    32
  0
VERTEX
  8
0
  5
C73
 10
5.15209
 20
43.0310
 30
0.000000
  70
    32
  0
VERTEX
  8
0
  5
C74
 10
4.95388
 20
42.9414
 30
0.000000
  70
    32
  0
VERTEX
  8
0
  5
C75
 10
4.75967
 20
42.8406
 30
0.000000
  70
    32
  0
VERTEX
  8
0
  5
C76
 10
4.56991
 20
42.7287
 30
0.000000
  70
    32
  0
VERTEX
  8
0
  5
C77
 10
4.38507
 20
42.6060
 30
0.000000
  70
    32
  0
VERTEX
  8
0
  5
C78
 10
4.20559
 20
42.4728
 30
0.000000
  70
    32
  0
VERTEX
  8
0
  5
C79
 10
4.03190
 20
42.3295
 30
0.000000
  70
    32
  0
VERTEX
  8
0
  5
C7A
 10
3.86443
 20
42.1763
 30
0.000000
  70
    32
  0
VERTEX
  8
0
  5
C7B
 10
3.70357
 20
42.0137
 30
0.000000
  70
    32
  0
VERTEX
  8
0
  5
C7C
 10
3.54971
 20
41.8421
 30
0.000000
  70
    32
  0
VERTEX
  8
0
  5
C7D
 10
3.40322
 20
41.6618
 30
0.000000
  70
    32
  0
VERTEX
  8
0
  5
C7E
 10
3.26446
 20
41.4734
 30
0.000000
  70
    32
  0
VERTEX
  8
0
  5
C7F
 10
3.13376
 20
41.2771
 30
0.000000
  70
    32
  0
VERTEX
  8
0
  5
C80
 10
3.01144
 20
41.0736
 30
0.000000
  70
    32
  0
VERTEX
  8
0
  5
C81
 10
2.89778
 20
40.8633
 30
0.000000
  70
    32
  0
VERTEX
  8
0
  5
C82
 10
2.79307
 20
40.6467
 30
0.000000
  70
    32
  0
VERTEX
  8
0
  5
C83
 10
2.69756
 20
40.4244
 30
0.000000
  70
    32
  0
VERTEX
  8
0
  5
C84
 10
2.61147
 20
40.1968
 30
0.000000
  70
    32
  0
VERTEX
  8
0
  5
C85
 10
2.53501
 20
39.9646
 30
0.000000
  70
    32
  0
VERTEX
  8
0
  5
C86
 10
2.46837
 20
39.7282
 30
0.000000
  70
    32
  0
VERTEX
  8
0
  5
C87
 10
2.41171
 20
39.4884
 30
0.000000
  70
    32
  0
VERTEX
  8
0
  5
C88
 10
2.36517
 20
39.2455
 30
0.000000
  70
    32
  0
VERTEX
  8
0
  5
C89
 10
2.32885
 20
39.0002
 30
0.000000
  70
    32
  0
VERTEX
  8
0
  5
C8A
 10
2.30284
 20
38.7532
 30
0.000000
  70
    32
  0
VERTEX
  8
0
  5
C8B
 10
2.28721
 20
38.5049
 30
0.000000
  70
    32
  0
VERTEX
  8
0
  5
C8C
 10
2.28200
 20
38.2561
 30
0.000000
  70
    32
  0
VERTEX
  8
0
  5
C8D
 10
2.28721
 20
38.0073
 30
0.000000
  70
    32
  0
VERTEX
  8
0
  5
C8E
 10
2.30284
 20
37.7590
 30
0.000000
  70
    32
  0
VERTEX
  8
0
  5
C8F
 10
2.32885
 20
37.5120
 30
0.000000
  70
    32
  0
VERTEX
  8
0
  5
C90
 10
2.36517
 20
37.2667
 30
0.000000
  70
    32
  0
VERTEX
  8
0
  5
C91
 10
2.41171
 20
37.0239
 30
0.000000
  70
    32
  0
VERTEX
  8
0
  5
C92
 10
2.46837
 20
36.7840
 30
0.000000
  70
    32
  0
VERTEX
  8
0
  5
C93
 10
2.53501
 20
36.5476
 30
0.000000
  70
    32
  0
VERTEX
  8
0
  5
C94
 10
2.61147
 20
36.3154
 30
0.000000
  70
    32
  0
VERTEX
  8
0
  5
C95
 10
2.69756
 20
36.0878
 30
0.000000
  70
    32
  0
VERTEX
  8
0
  5
C96
 10
2.79307
 20
35.8655
 30
0.000000
  70
    32
  0
VERTEX
  8
0
  5
C97
 10
2.89778
 20
35.6489
 30
0.000000
  70
    32
  0
VERTEX
  8
0
  5
C98
 10
3.01144
 20
35.4386
 30
0.000000
  70
    32
  0
VERTEX
  8
0
  5
C99
 10
3.13376
 20
35.2351
 30
0.000000
  70
    32
  0
VERTEX
  8
0
  5
C9A
 10
3.26446
 20
35.0389
 30
0.000000
  70
    32
  0
VERTEX
  8
0
  5
C9B
 10
3.40322
 20
34.8504
 30
0.000000
  70
    32
  0
VERTEX
  8
0
  5
C9C
 10
3.54971
 20
34.6701
 30
0.000000
  70
    32
  0
VERTEX
  8
0
  5
C9D
 10
3.70357
 20
34.4985
 30
0.000000
  70
    32
  0
VERTEX
  8
0
  5
C9E
 10
3.86443
 20
34.3359
 30
0.000000
  70
    32
  0
VERTEX
  8
0
  5
C9F
 10
4.03190
 20
34.1827
 30
0.000000
  70
    32
  0
VERTEX
  8
0
  5
CA0
 10
4.20559
 20
34.0394
 30
0.000000
  70
    32
  0
VERTEX
  8
0
  5
CA1
 10
4.38507
 20
33.9062
 30
0.000000
  70
    32
  0
VERTEX
  8
0
  5
CA2
 10
4.56991
 20
33.7836
 30
0.000000
  70
    32
  0
VERTEX
  8
0
  5
CA3
 10
4.75967
 20
33.6716
 30
0.000000
  70
    32
  0
VERTEX
  8
0
  5
CA4
 10
4.95388
 20
33.5708
 30
0.000000
  70
    32
  0
VERTEX
  8
0
  5
CA5
 10
5.15209
 20
33.4812
 30
0.000000
  70
    32
  0
VERTEX
  8
0
  5
CA6
 10
5.35381
 20
33.4031
 30
0.000000
  70
    32
  0
VERTEX
  8
0
  5
CA7
 10
5.55855
 20
33.3367
 30
0.000000
  70
    32
  0
VERTEX
  8
0
  5
CA8
 10
5.76583
 20
33.2822
 30
0.000000
  70
    32
  0
VERTEX
  8
0
  5
CA9
 10
5.97514
 20
33.2396
 30
0.000000
  70
    32
  0
VERTEX
  8
0
  5
CAA
 10
6.18598
 20
33.2092
 30
0.000000
  70
    32
  0
VERTEX
  8
0
  5
CAB
 10
6.39785
 20
33.1908
 30
0.000000
  70
    32
  0
VERTEX
  8
0
  5
CAC
 10
6.61022
 20
33.1847
 30
0.000000
  70
    32
  0
VERTEX
  8
0
  5
CAD
 10
6.82260
 20
33.1908
 30
0.000000
  70
    32
  0
VERTEX
  8
0
  5
CAE
 10
7.03446
 20
33.2092
 30
0.000000
  70
    32
  0
VERTEX
  8
0
  5
CAF
 10
7.24530
 20
33.2396
 30
0.000000
  70
    32
  0
VERTEX
  8
0
  5
CB0
 10
7.45462
 20
33.2822
 30
0.000000
  70
    32
  0
VERTEX
  8
0
  5
CB1
 10
7.66190
 20
33.3367
 30
0.000000
  70
    32
  0
VERTEX
  8
0
  5
CB2
 10
7.86664
 20
33.4031
 30
0.000000
  70
    32
  0
VERTEX
  8
0
  5
CB3
 10
8.06836
 20
33.4812
 30
0.000000
  70
    32
  0
VERTEX
  8
0
  5
CB4
 10
8.26656
 20
33.5708
 30
0.000000
  70
    32
  0
VERTEX
  8
0
  5
CB5
 10
8.46078
 20
33.6716
 30
0.000000
  70
    32
  0
VERTEX
  8
0
  5
CB6
 10
8.65053
 20
33.7836
 30
0.000000
  70
    32
  0
VERTEX
  8
0
  5
CB7
 10
8.83537
 20
33.9062
 30
0.000000
  70
    32
  0
VERTEX
  8
0
  5
CB8
 10
9.01485
 20
34.0394
 30
0.000000
  70
    32
  0
VERTEX
  8
0
  5
CB9
 10
9.18854
 20
34.1827
 30
0.000000
  70
    32
  0
VERTEX
  8
0
  5
CBA
 10
9.35602
 20
34.3359
 30
0.000000
  70
    32
  0
VERTEX
  8
0
  5
CBB
 10
9.51688
 20
34.4985
 30
0.000000
  70
    32
  0
VERTEX
  8
0
  5
CBC
 10
9.67074
 20
34.6701
 30
0.000000
  70
    32
  0
VERTEX
  8
0
  5
CBD
 10
9.81722
 20
34.8504
 30
0.000000
  70
    32
  0
VERTEX
  8
0
  5
CBE
 10
9.95598
 20
35.0389
 30
0.000000
  70
    32
  0
VERTEX
  8
0
  5
CBF
 10
10.0867
 20
35.2351
 30
0.000000
  70
    32
  0
VERTEX
  8
0
  5
CC0
 10
10.2090
 20
35.4386
 30
0.000000
  70
    32
  0
VERTEX
  8
0
  5
CC1
 10
10.3227
 20
35.6489
 30
0.000000
  70
    32
  0
VERTEX
  8
0
  5
CC2
 10
10.4274
 20
35.8655
 30
0.000000
  70
    32
  0
VERTEX
  8
0
  5
CC3
 10
10.5229
 20
36.0878
 30
0.000000
  70
    32
  0
VERTEX
  8
0
  5
CC4
 10
10.6090
 20
36.3154
 30
0.000000
  70
    32
  0
VERTEX
  8
0
  5
CC5
 10
10.6854
 20
36.5476
 30
0.000000
  70
    32
  0
VERTEX
  8
0
  5
CC6
 10
10.7521
 20
36.7840
 30
0.000000
  70
    32
  0
VERTEX
  8
0
  5
CC7
 10
10.8087
 20
37.0239
 30
0.000000
  70
    32
  0
VERTEX
  8
0
  5
CC8
 10
10.8553
 20
37.2667
 30
0.000000
  70
    32
  0
VERTEX
  8
0
  5
CC9
 10
10.8916
 20
37.5120
 30
0.000000
  70
    32
  0
VERTEX
  8
0
  5
CCA
 10
10.9176
 20
37.7590
 30
0.000000
  70
    32
  0
VERTEX
  8
0
  5
CCB
 10
10.9332
 20
38.0073
 30
0.000000
  70
    32
  0
VERTEX
  8
0
  5
CCC
 10
10.9384
 20
38.2561
 30
0.000000
  70
    32
  0
VERTEX
  8
0
  5
CCD
 10
10.9332
 20
38.5049
 30
0.000000
  70
    32
  0
VERTEX
  8
0
  5
CCE
 10
10.9176
 20
38.7532
 30
0.000000
  70
    32
  0
VERTEX
  8
0
  5
CCF
 10
10.8916
 20
39.0002
 30
0.000000
  70
    32
  0
VERTEX
  8
0
  5
CD0
 10
10.8553
 20
39.2455
 30
0.000000
  70
    32
  0
VERTEX
  8
0
  5
CD1
 10
10.8087
 20
39.4884
 30
0.000000
  70
    32
  0
VERTEX
  8
0
  5
CD2
 10
10.7521
 20
39.7282
 30
0.000000
  70
    32
  0
VERTEX
  8
0
  5
CD3
 10
10.6854
 20
39.9646
 30
0.000000
  70
    32
  0
VERTEX
  8
0
  5
CD4
 10
10.6090
 20
40.1968
 30
0.000000
  70
    32
  0
VERTEX
  8
0
  5
CD5
 10
10.5229
 20
40.4244
 30
0.000000
  70
    32
  0
VERTEX
  8
0
  5
CD6
 10
10.4274
 20
40.6467
 30
0.000000
  70
    32
  0
VERTEX
  8
0
  5
CD7
 10
10.3227
 20
40.8633
 30
0.000000
  70
    32
  0
VERTEX
  8
0
  5
CD8
 10
10.2090
 20
41.0736
 30
0.000000
  70
    32
  0
VERTEX
  8
0
  5
CD9
 10
10.0867
 20
41.2771
 30
0.000000
  70
    32
  0
VERTEX
  8
0
  5
CDA
 10
9.95598
 20
41.4734
 30
0.000000
  70
    32
  0
VERTEX
  8
0
  5
CDB
 10
9.81722
 20
41.6618
 30
0.000000
  70
    32
  0
VERTEX
  8
0
  5
CDC
 10
9.67074
 20
41.8421
 30
0.000000
  70
    32
  0
VERTEX
  8
0
  5
CDD
 10
9.51688
 20
42.0137
 30
0.000000
  70
    32
  0
VERTEX
  8
0
  5
CDE
 10
9.35602
 20
42.1763
 30
0.000000
  70
    32
  0
VERTEX
  8
0
  5
CDF
 10
9.18854
 20
42.3295
 30
0.000000
  70
    32
  0
VERTEX
  8
0
  5
CE0
 10
9.01485
 20
42.4728
 30
0.000000
  70
    32
  0
VERTEX
  8
0
  5
CE1
 10
8.83537
 20
42.6060
 30
0.000000
  70
    32
  0
VERTEX
  8
0
  5
CE2
 10
8.65053
 20
42.7287
 30
0.000000
  70
    32
  0
VERTEX
  8
0
  5
CE3
 10
8.46078
 20
42.8406
 30
0.000000
  70
    32
  0
VERTEX
  8
0
  5
CE4
 10
8.26656
 20
42.9414
 30
0.000000
  70
    32
  0
VERTEX
  8
0
  5
CE5
 10
8.06836
 20
43.0310
 30
0.000000
  70
    32
  0
VERTEX
  8
0
  5
CE6
 10
7.86664
 20
43.1091
 30
0.000000
  70
    32
  0
VERTEX
  8
0
  5
CE7
 10
7.66190
 20
43.1755
 30
0.000000
  70
    32
  0
VERTEX
  8
0
  5
CE8
 10
7.45462
 20
43.2300
 30
0.000000
  70
    32
  0
VERTEX
  8
0
  5
CE9
 10
7.24530
 20
43.2726
 30
0.000000
  70
    32
  0
VERTEX
  8
0
  5
CEA
 10
7.03446
 20
43.3031
 30
0.000000
  70
    32
  0
VERTEX
  8
0
  5
CEB
 10
6.82260
 20
43.3214
 30
0.000000
  70
    32
  0
VERTEX
  8
0
  5
CEC
 10
6.61022
 20
43.3275
 30
0.000000
  70
    32
  0
SEQEND
  8
0
  5
CED
  0
CIRCLE
  5
8DD
  8
0
 10
6.6102227627387506
 20
46.147124252799991
 30
0.0
 40
0.9699999999999988
  0
CIRCLE
  5
8DE
  8
0
 10
6.6102227627387506
 20
46.147124252799991
 30
0.0
 40
0.2849999999999966
  0
ARC
  5
8DF
  8
0
 10
-0.7109313286118723
 20
43.256554745453677
 30
0.0
 40
0.1888462844247341
 50
105.05456890678801
 51
180.1144266724383
  0
LINE
  5
8E0
  8
0
 10
-0.7599820514334227
 20
43.438919615238717
 30
0.0
 11
-0.5619128669000001
 21
43.4631555343
 31
0.0
  0
LINE
  5
8E1
  8
0
 10
-0.5619128669000001
 20
43.4631555343
 30
0.0
 11
-0.4377444805157812
 21
43.488695451180007
 31
0.0
  0
LINE
  5
8E2
  8
0
 10
-0.4377444805157812
 20
43.488695451180007
 30
0.0
 11
1.8825413034
 21
43.994958687199997
 31
0.0
  0
LINE
  5
8E3
  8
0
 10
1.8825413034
 20
43.994958687199997
 30
0.0
 11
4.2376604486999989
 21
44.300171521700001
 31
0.0
  0
LINE
  5
8E4
  8
0
 10
4.2376604486999989
 20
44.300171521700001
 30
0.0
 11
6.610222762415936
 21
44.402160754371273
 31
0.0
  0
LINE
  5
8E5
  8
0
 10
6.610222762415936
 20
44.402160754371273
 30
0.0
 11
8.9827850876999982
 21
44.30017161779999
 31
0.0
  0
LINE
  5
8E6
  8
0
 10
8.9827850876999982
 20
44.30017161779999
 30
0.0
 11
11.337904227999999
 21
43.994958706099993
 31
0.0
  0
LINE
  5
8E7
  8
0
 10
11.337904227999999
 20
43.994958706099993
 30
0.0
 11
13.658189950200001
 21
43.488695403500003
 31
0.0
  0
LINE
  5
8E8
  8
0
 10
13.658189950200001
 20
43.488695403500003
 30
0.0
 11
13.7779839197
 21
43.463821519699998
 31
0.0
  0
LINE
  5
8E9
  8
0
 10
13.7779839197
 20
43.463821519699998
 30
0.0
 11
13.98042585236173
 21
43.438913157987692
 31
0.0
  0
ARC
  5
8EA
  8
0
 10
13.93139260161421
 20
43.2565598835535
 30
0.0
 40
0.1888305492556517
 50
359.88400476486669
 51
74.949637012629253
  0
ATTDEF
  5
A12
  8
DEFPOINTS
 10
6.6061911035835417
 20
48.407501362600939
 30
0.0
 40
0.001
  1
K-5244-ET
  3

  2
MODELNUMBER
 70
     0
1001
ACDBATTR
1070
     0
1070
     1
  0
ATTDEF
  5
A13
  8
DEFPOINTS
 10
6.6061911035835417
 20
48.405834695934281
 30
0.0
 40
0.001
  1
STEWARD
  3

  2
TRADENAME
 70
     0
1001
ACDBATTR
1070
     0
1070
     1
  0
ATTDEF
  5
A14
  8
DEFPOINTS
 10
6.6061911035835417
 20
48.404168029267609
 30
0.0
 40
0.001
  1
URINAL
  3

  2
PRODUCT
 70
     0
1001
ACDBATTR
1070
     0
1070
     1
  0
ATTDEF
  5
A15
  8
DEFPOINTS
 10
6.6061911035835417
 20
48.402501362600951
 30
0.0
 40
0.001
  1
VITREOUS CHINA
  3

  2
MATERIAL
 70
     0
1001
ACDBATTR
1070
     0
1070
     1
  0
ENDSEC
  0
EOF
