  0
SECTION
  2
HEADER
  9
$ACADVER
  1
AC1009
  9
$INSBASE
 10
221.27448292941779
 20
8.8138404595688513
 30
0.0
  9
$EXTMIN
 10
209.4490272601526
 20
-9.5027387904312306
 30
0.0
  9
$EXTMAX
 10
233.09993859868311
 20
8.8204410219825746
 30
0.0
  9
$LIMMIN
 10
0.0
 20
0.0
  9
$LIMMAX
 10
11.692913385800001
 20
8.2677165353999982
  9
$ORTHOMODE
 70
     1
  9
$REGENMODE
 70
     1
  9
$FILLMODE
 70
     1
  9
$QTEXTMODE
 70
     0
  9
$MIRRTEXT
 70
     0
  9
$DRAGMODE
 70
     2
  9
$LTSCALE
 40
0.6431102362
  9
$OSMODE
 70
  3071
  9
$ATTMODE
 70
     1
  9
$TEXTSIZE
 40
0.2
  9
$TRACEWID
 40
0.05
  9
$TEXTSTYLE
  7
STANDARD
  9
$CLAYER
  8
0
  9
$CELTYPE
  6
BYLAYER
  9
$CECOLOR
 62
   256
  9
$DIMSCALE
 40
1.0
  9
$DIMASZ
 40
0.1875
  9
$DIMEXO
 40
0.0625
  9
$DIMDLI
 40
0.4443307087
  9
$DIMRND
 40
0.0
  9
$DIMDLE
 40
0.0
  9
$DIMEXE
 40
0.125
  9
$DIMTP
 40
0.01
  9
$DIMTM
 40
0.01
  9
$DIMTXT
 40
1.0
  9
$DIMCEN
 40
0.1052362205
  9
$DIMTSZ
 40
0.0
  9
$DIMTOL
 70
     1
  9
$DIMLIM
 70
     0
  9
$DIMTIH
 70
     1
  9
$DIMTOH
 70
     1
  9
$DIMSE1
 70
     0
  9
$DIMSE2
 70
     0
  9
$DIMTAD
 70
     0
  9
$DIMZIN
 70
     0
  9
$DIMBLK
  1

  9
$DIMASO
 70
     1
  9
$DIMSHO
 70
     1
  9
$DIMPOST
  1
\X
  9
$DIMAPOST
  1

  9
$DIMALT
 70
     1
  9
$DIMALTD
 70
     2
  9
$DIMALTF
 40
25.399999999999999
  9
$DIMLFAC
 40
1.0
  9
$DIMTOFL
 70
     0
  9
$DIMTVP
 40
0.0
  9
$DIMTIX
 70
     0
  9
$DIMSOXD
 70
     0
  9
$DIMSAH
 70
     0
  9
$DIMBLK1
  1

  9
$DIMBLK2
  1

  9
$DIMSTYLE
  2
STANDARD
  9
$DIMCLRD
 70
     0
  9
$DIMCLRE
 70
     0
  9
$DIMCLRT
 70
     0
  9
$DIMTFAC
 40
1.0
  9
$DIMGAP
 40
0.09
  9
$LUNITS
 70
     2
  9
$LUPREC
 70
     4
  9
$SKETCHINC
 40
0.1
  9
$FILLETRAD
 40
0.0
  9
$AUNITS
 70
     0
  9
$AUPREC
 70
     0
  9
$MENU
  1
.
  9
$ELEVATION
 40
0.0
  9
$PELEVATION
 40
0.0
  9
$THICKNESS
 40
0.0
  9
$LIMCHECK
 70
     0
  9
$BLIPMODE
 70
     0
  9
$CHAMFERA
 40
0.0
  9
$CHAMFERB
 40
0.0
  9
$SKPOLY
 70
     0
  9
$TDCREATE
 40
2458283.7341070599
  9
$TDUPDATE
 40
2458284.4810573962
  9
$TDINDWG
 40
0.0944660532
  9
$TDUSRTIMER
 40
0.0944660532
  9
$USRTIMER
 70
     1
  9
$ANGBASE
 50
0.0
  9
$ANGDIR
 70
     0
  9
$PDMODE
 70
     0
  9
$PDSIZE
 40
0.3125
  9
$PLINEWID
 40
0.0
  9
$COORDS
 70
     1
  9
$SPLFRAME
 70
     0
  9
$SPLINETYPE
 70
     6
  9
$SPLINESEGS
 70
     8
  9
$ATTDIA
 70
     1
  9
$ATTREQ
 70
     1
  9
$HANDLING
 70
     1
  9
$HANDSEED
  5
1C27
  9
$SURFTAB1
 70
     6
  9
$SURFTAB2
 70
     6
  9
$SURFTYPE
 70
     6
  9
$SURFU
 70
     6
  9
$SURFV
 70
     6
  9
$UCSNAME
  2

  9
$UCSORG
 10
0.0
 20
0.0
 30
0.0
  9
$UCSXDIR
 10
1.0
 20
0.0
 30
0.0
  9
$UCSYDIR
 10
0.0
 20
1.0
 30
0.0
  9
$PUCSNAME
  2

  9
$PUCSORG
 10
0.0
 20
0.0
 30
0.0
  9
$PUCSXDIR
 10
1.0
 20
0.0
 30
0.0
  9
$PUCSYDIR
 10
0.0
 20
1.0
 30
0.0
  9
$USERI1
 70
     0
  9
$USERI2
 70
     0
  9
$USERI3
 70
     0
  9
$USERI4
 70
     0
  9
$USERI5
 70
     0
  9
$USERR1
 40
0.0
  9
$USERR2
 40
0.0
  9
$USERR3
 40
0.0
  9
$USERR4
 40
0.0
  9
$USERR5
 40
0.0
  9
$WORLDVIEW
 70
     1
  9
$SHADEDGE
 70
     3
  9
$SHADEDIF
 70
    70
  9
$TILEMODE
 70
     1
  9
$MAXACTVP
 70
    64
  9
$PLIMCHECK
 70
     0
  9
$PEXTMIN
 10
1.0000000000000000E+020
 20
1.0000000000000000E+020
 30
1.0000000000000000E+020
  9
$PEXTMAX
 10
-1.0000000000000000E+020
 20
-1.0000000000000000E+020
 30
-1.0000000000000000E+020
  9
$PLIMMIN
 10
0.0
 20
0.0
  9
$PLIMMAX
 10
12.0
 20
9.0
  9
$UNITMODE
 70
     0
  9
$VISRETAIN
 70
     1
  9
$PLINEGEN
 70
     0
  9
$PSLTSCALE
 70
     1
  0
ENDSEC
  0
SECTION
  2
TABLES
  0
TABLE
  2
VPORT
 70
     1
  0
VPORT
  2
*ACTIVE
 70
     0
 10
0.0
 20
0.0
 11
1.0
 21
1.0
 12
0.0
 22
0.0
 13
0.0
 23
0.0
 14
1.0
 24
1.0
 15
0.0
 25
0.0
 16
-0.0000000000000284
 26
0.0
 36
83.658755896071625
 17
221.27448292941779
 27
-0.3411488842243289
 37
0.0
 40
29.92237791040273
 41
2.0834248079034019
 42
50.0
 43
0.0
 44
0.0
 50
0.0
 51
0.0
 71
     0
 72
   100
 73
     1
 74
     1
 75
     0
 76
     0
 77
     0
 78
     0
  0
ENDTAB
  0
TABLE
  2
LTYPE
 70
     2
  0
LTYPE
  2
CONTINUOUS
 70
     0
  3
Solid line
 72
    65
 73
     0
 40
0.0
  0
LTYPE
  2
PHANTOM2
 70
     0
  3
___ _ _ ___ _ _ ___ _ _ ___ _ _
 72
    65
 73
     6
 40
1.25
 49
0.625
 49
-0.125
 49
0.125
 49
-0.125
 49
0.125
 49
-0.125
  0
ENDTAB
  0
TABLE
  2
LAYER
 70
     2
  0
LAYER
  2
0
 70
     0
 62
   255
  6
CONTINUOUS
  0
LAYER
  2
DEFPOINTS
 70
     0
 62
     7
  6
CONTINUOUS
  0
ENDTAB
  0
TABLE
  2
STYLE
 70
     1
  0
STYLE
  2
STANDARD
 70
     0
 40
0.0
 41
0.8
 50
0.0
 71
     0
 42
0.2
  3
txt
  4

  0
ENDTAB
  0
TABLE
  2
VIEW
 70
     0
  0
ENDTAB
  0
TABLE
  2
UCS
 70
     0
  0
ENDTAB
  0
TABLE
  2
APPID
 70
     9
  0
APPID
  2
ACAD
 70
     0
  0
APPID
  2
ACAD_MLEADERVER
 70
     0
  0
APPID
  2
ACAD_EXEMPT_FROM_CAD_STANDARDS
 70
     0
  0
APPID
  2
ACAD_DSTYLE_DIMJAG
 70
     0
  0
APPID
  2
ACAD_DSTYLE_DIMTALN
 70
     0
  0
APPID
  2
ACAD_NAV_VCDISPLAY
 70
     0
  0
APPID
  2
ACAECLAYERSTANDARD
 70
     0
  0
APPID
  2
ACCMTRANSPARENCY
 70
     0
  0
APPID
  2
ACDBATTR
 70
     0
  0
ENDTAB
  0
TABLE
  2
DIMSTYLE
 70
     1
  0
DIMSTYLE
  2
STANDARD
 70
     0
  3

  4

  5

  6

  7

 40
1.0
 41
0.1875
 42
0.0625
 43
0.38
 44
0.125
 45
0.0
 46
0.0
 47
0.01
 48
0.01
140
0.15625
141
0.09
142
0.0
143
25.399999999999999
144
1.0
145
0.0
146
1.0
147
0.09
 71
     1
 72
     0
 73
     1
 74
     1
 75
     0
 76
     0
 77
     0
 78
     4
170
     0
171
     2
172
     0
173
     0
174
     0
175
     0
176
     0
177
     0
178
     0
  0
ENDTAB
  0
ENDSEC
  0
SECTION
  2
BLOCKS
  0
BLOCK
  8
0
  2
$MODEL_SPACE
 70
     0
 10
0.0
 20
0.0
 30
0.0
  3
$MODEL_SPACE
  1

  0
ENDBLK
  5
21
  8
0
  0
BLOCK
 67
     1
  8
0
  2
$PAPER_SPACE
 70
     0
 10
0.0
 20
0.0
 30
0.0
  3
$PAPER_SPACE
  1

  0
ENDBLK
  5
1D
 67
     1
  8
0
  0
ENDSEC
  0
SECTION
  2
ENTITIES
  0
LINE
  5
111D
  8
0
 10
232.32747024132959
 20
-9.5027387904311542
 30
0.0
 11
210.22149597102961
 21
-9.5027387904311542
 31
0.0
  0
LINE
  5
111E
  8
0
 10
210.2649019344816
 20
-8.7926372972311562
 30
0.0
 11
232.27936935837749
 21
-8.7926372972311562
 31
0.0
  0
LINE
  5
111F
  8
0
 10
209.48840283172939
 20
8.8138404595688513
 30
0.0
 11
233.0605649371717
 21
8.8138404595687998
 31
0.0
  0
ARC
  5
1135
  8
0
 10
209.48866199391591
 20
8.7742057895068086
 30
0.0
 40
0.0396355173545888
 50
90.374638866803835
 51
179.6397194094734
  0
ARC
  5
1137
  8
0
 10
233.06041136899489
 20
8.774313268914641
 30
0.0
 40
0.0395274889690265
 50
0.2075264761957318
 51
89.777399709413658
  0
LINE
  5
1141
  8
0
 10
233.099938598683
 20
8.7744564379688441
 30
0.0
 11
233.099938598683
 21
-8.7119561138311692
 31
0.0
  0
LINE
  5
1142
  8
0
 10
209.4490272601526
 20
8.7744550192688493
 30
0.0
 11
209.4490272601526
 21
-8.7119562546311116
 31
0.0
  0
ARC
  5
1143
  8
0
 10
210.25114893894869
 20
-8.7010917821726146
 30
0.0
 40
0.8021952532621991
 50
180.77600490338861
 51
267.88159172206679
  0
ARC
  5
1144
  8
0
 10
210.2777348484754
 20
-8.5067357156656982
 30
0.0
 40
0.2861894442903217
 50
180.4499818480341
 51
267.4299596012267
  0
ARC
  5
1145
  8
0
 10
232.3045869784475
 20
-8.7077050631445285
 30
0.0
 40
0.7953629808102704
 50
271.6486753410947
 51
359.69376444668768
  0
CIRCLE
  5
1146
  8
0
 10
221.27456780182959
 20
-1.343638500931156
 30
0.0
 40
0.7705397301000012
  0
CIRCLE
  5
1147
  8
0
 10
221.27456780182959
 20
-1.343638500931156
 30
0.0
 40
1.062500000002305
  0
LINE
  5
1148
  8
0
 10
211.1598787388296
 20
2.904206547168847
 30
0.0
 11
211.1598787388296
 21
8.8138404595688495
 31
0.0
  0
LINE
  5
1149
  8
0
 10
231.3890909917296
 20
2.9042122783688451
 30
0.0
 11
231.3890909917296
 21
8.8138404595688034
 31
0.0
  0
ARC
  5
114A
  8
0
 10
211.64445354016161
 20
2.93371338748819
 30
0.0
 40
0.4854723387708181
 50
183.48456527752251
 51
266.09974739358438
  0
LINE
  5
114B
  8
0
 10
211.61143186252951
 20
2.44936541286885
 30
0.0
 11
230.9375344116296
 21
2.4493656146688418
 31
0.0
  0
ARC
  5
114C
  8
0
 10
230.90440266176731
 20
2.9338261889716151
 30
0.0
 40
0.4855921754957883
 50
273.91230642455611
 51
356.5036388578784
  0
LINE
  5
114D
  8
0
 10
209.99155423022961
 20
-8.5089833285310643
 30
0.0
 11
209.99155423022961
 21
8.8138404595688513
 31
0.0
  0
LINE
  5
114E
  8
0
 10
232.5527170626296
 20
-8.5089833285301246
 30
0.0
 11
232.5527170626296
 21
8.8138404595688016
 31
0.0
  0
ARC
  5
114F
  8
0
 10
232.26653644438369
 20
-8.5067357156656982
 30
0.0
 40
0.2861894442903217
 50
272.57004039877171
 51
359.5500181519659
  0
ARC
  5
1150
  8
0
 10
221.2758859031147
 20
0.8662764712249126
 30
0.0
 40
1.3495227070063689
 50
76.922603113644158
 51
103.7787970564849
  0
ARC
  5
1151
  8
0
 10
221.27450369163569
 20
3.2981789877419931
 30
0.0
 40
1.3208946179888541
 50
255.57835382435621
 51
284.41222615430871
  0
ARC
  5
1152
  8
0
 10
220.96033894672169
 20
2.1447256675645541
 30
0.0
 40
0.1266876067384249
 50
200.46316565758491
 51
263.28589206226093
  0
ARC
  5
1153
  8
0
 10
220.9817397155046
 20
2.0153302865505598
 30
0.0
 40
0.1639181289143028
 50
99.578268419564779
 51
148.72202959147981
  0
ARC
  5
1154
  8
0
 10
221.5649171905574
 20
2.0195204599159968
 30
0.0
 40
0.1621029990848137
 50
28.36799071132274
 51
84.22141691289066
  0
ARC
  5
1155
  8
0
 10
221.5815184138086
 20
2.1568872768996439
 30
0.0
 40
0.1397377287350142
 50
278.95500762877271
 51
334.41468468526381
  0
ARC
  5
1156
  8
0
 10
262.76625029611569
 20
-112.4296939803065
 30
0.0
 40
116.3419435527384
 50
112.6032175708678
 51
116.93170490751559
  0
ARC
  5
1157
  8
0
 10
221.27314255978979
 20
-11.855279081188909
 30
0.0
 40
7.5531199831471723
 50
65.151282502082339
 51
115.25556739432599
  0
ARC
  5
1158
  8
0
 10
176.01249117657571
 20
-120.49434403349311
 30
0.0
 40
125.2378948025342
 50
63.203502261047959
 51
67.248122081961228
  0
ARC
  5
1159
  8
0
 10
221.53065628990461
 20
42.933200840295832
 30
0.0
 40
41.68131408863718
 50
256.2327850881934
 51
264.56775174797758
  0
ARC
  5
115A
  8
0
 10
221.3783192847296
 20
39.119290691861259
 30
0.0
 40
37.870690240531843
 50
264.25093483807802
 51
275.38388038274928
  0
ARC
  5
115B
  8
0
 10
220.49054335096241
 20
45.18324812917399
 30
0.0
 40
43.992321341174851
 50
275.79399674339618
 51
283.73744602544679
  0
CIRCLE
  5
15E7
  8
0
 10
221.27472631092959
 20
5.2842327410688412
 30
0.0
 40
0.7434963551
  0
POINT
  5
1629
  8
DEFPOINTS
 10
221.27472631092959
 20
5.2842327410688412
 30
0.0
  0
ATTDEF
  5
1909
  8
DEFPOINTS
 10
221.27200469096621
 20
8.8194410219825734
 30
0.0
 40
0.001
  1
K-5150-1
  3

  2
MODELNUMBER
 70
     0
1001
ACDBATTR
1070
     0
1070
     1
  0
ATTDEF
  5
190A
  8
DEFPOINTS
 10
221.27200469096621
 20
8.8177743553159083
 30
0.0
 40
0.001
  1
REVE
  3

  2
TRADENAME
 70
     0
1001
ACDBATTR
1070
     0
1070
     1
  0
ATTDEF
  5
190B
  8
DEFPOINTS
 10
221.27200469096621
 20
8.8161076886492431
 30
0.0
 40
0.001
  1
BATHROOM SINK
  3

  2
PRODUCT
 70
     0
1001
ACDBATTR
1070
     0
1070
     1
  0
ATTDEF
  5
190C
  8
DEFPOINTS
 10
221.27200469096621
 20
8.8144410219825762
 30
0.0
 40
0.001
  1
FIRECLAY
  3

  2
MATERIAL
 70
     0
1001
ACDBATTR
1070
     0
1070
     1
  0
ENDSEC
  0
EOF
