  0
SECTION
  2
HEADER
  9
$ACADVER
  1
AC1009
  9
$INSBASE
 10
272.10281374438068
 20
-53.336111923625928
 30
0.0
  9
$EXTMIN
 10
260.2788795040924
 20
-53.342743271863498
 30
0.0
  9
$EXTMAX
 10
283.92674820109249
 20
-17.8569403461596
 30
0.0
  9
$LIMMIN
 10
0.0
 20
0.0
  9
$LIMMAX
 10
11.692913385800001
 20
8.2677165353999982
  9
$ORTHOMODE
 70
     1
  9
$REGENMODE
 70
     1
  9
$FILLMODE
 70
     1
  9
$QTEXTMODE
 70
     0
  9
$MIRRTEXT
 70
     0
  9
$DRAGMODE
 70
     2
  9
$LTSCALE
 40
0.6431102362
  9
$OSMODE
 70
  3071
  9
$ATTMODE
 70
     1
  9
$TEXTSIZE
 40
0.2
  9
$TRACEWID
 40
0.05
  9
$TEXTSTYLE
  7
STANDARD
  9
$CLAYER
  8
0
  9
$CELTYPE
  6
BYLAYER
  9
$CECOLOR
 62
   256
  9
$DIMSCALE
 40
1.0
  9
$DIMASZ
 40
0.1875
  9
$DIMEXO
 40
0.0625
  9
$DIMDLI
 40
0.4443307087
  9
$DIMRND
 40
0.0
  9
$DIMDLE
 40
0.0
  9
$DIMEXE
 40
0.125
  9
$DIMTP
 40
0.01
  9
$DIMTM
 40
0.01
  9
$DIMTXT
 40
1.0
  9
$DIMCEN
 40
0.1052362205
  9
$DIMTSZ
 40
0.0
  9
$DIMTOL
 70
     1
  9
$DIMLIM
 70
     0
  9
$DIMTIH
 70
     1
  9
$DIMTOH
 70
     1
  9
$DIMSE1
 70
     0
  9
$DIMSE2
 70
     0
  9
$DIMTAD
 70
     0
  9
$DIMZIN
 70
     0
  9
$DIMBLK
  1

  9
$DIMASO
 70
     1
  9
$DIMSHO
 70
     1
  9
$DIMPOST
  1
\X
  9
$DIMAPOST
  1

  9
$DIMALT
 70
     1
  9
$DIMALTD
 70
     2
  9
$DIMALTF
 40
25.399999999999999
  9
$DIMLFAC
 40
1.0
  9
$DIMTOFL
 70
     0
  9
$DIMTVP
 40
0.0
  9
$DIMTIX
 70
     0
  9
$DIMSOXD
 70
     0
  9
$DIMSAH
 70
     0
  9
$DIMBLK1
  1

  9
$DIMBLK2
  1

  9
$DIMSTYLE
  2
STANDARD
  9
$DIMCLRD
 70
     0
  9
$DIMCLRE
 70
     0
  9
$DIMCLRT
 70
     0
  9
$DIMTFAC
 40
1.0
  9
$DIMGAP
 40
0.09
  9
$LUNITS
 70
     2
  9
$LUPREC
 70
     4
  9
$SKETCHINC
 40
0.1
  9
$FILLETRAD
 40
0.0
  9
$AUNITS
 70
     0
  9
$AUPREC
 70
     0
  9
$MENU
  1
.
  9
$ELEVATION
 40
0.0
  9
$PELEVATION
 40
0.0
  9
$THICKNESS
 40
0.0
  9
$LIMCHECK
 70
     0
  9
$BLIPMODE
 70
     0
  9
$CHAMFERA
 40
0.0
  9
$CHAMFERB
 40
0.0
  9
$SKPOLY
 70
     0
  9
$TDCREATE
 40
2458283.7341070599
  9
$TDUPDATE
 40
2458284.4969364009
  9
$TDINDWG
 40
0.0940964468
  9
$TDUSRTIMER
 40
0.0940964468
  9
$USRTIMER
 70
     1
  9
$ANGBASE
 50
0.0
  9
$ANGDIR
 70
     0
  9
$PDMODE
 70
     0
  9
$PDSIZE
 40
0.3125
  9
$PLINEWID
 40
0.0
  9
$COORDS
 70
     1
  9
$SPLFRAME
 70
     0
  9
$SPLINETYPE
 70
     6
  9
$SPLINESEGS
 70
     8
  9
$ATTDIA
 70
     1
  9
$ATTREQ
 70
     1
  9
$HANDLING
 70
     1
  9
$HANDSEED
  5
1C7F
  9
$SURFTAB1
 70
     6
  9
$SURFTAB2
 70
     6
  9
$SURFTYPE
 70
     6
  9
$SURFU
 70
     6
  9
$SURFV
 70
     6
  9
$UCSNAME
  2

  9
$UCSORG
 10
0.0
 20
0.0
 30
0.0
  9
$UCSXDIR
 10
1.0
 20
0.0
 30
0.0
  9
$UCSYDIR
 10
0.0
 20
1.0
 30
0.0
  9
$PUCSNAME
  2

  9
$PUCSORG
 10
0.0
 20
0.0
 30
0.0
  9
$PUCSXDIR
 10
1.0
 20
0.0
 30
0.0
  9
$PUCSYDIR
 10
0.0
 20
1.0
 30
0.0
  9
$USERI1
 70
     0
  9
$USERI2
 70
     0
  9
$USERI3
 70
     0
  9
$USERI4
 70
     0
  9
$USERI5
 70
     0
  9
$USERR1
 40
0.0
  9
$USERR2
 40
0.0
  9
$USERR3
 40
0.0
  9
$USERR4
 40
0.0
  9
$USERR5
 40
0.0
  9
$WORLDVIEW
 70
     1
  9
$SHADEDGE
 70
     3
  9
$SHADEDIF
 70
    70
  9
$TILEMODE
 70
     1
  9
$MAXACTVP
 70
    64
  9
$PLIMCHECK
 70
     0
  9
$PEXTMIN
 10
1.0000000000000000E+020
 20
1.0000000000000000E+020
 30
1.0000000000000000E+020
  9
$PEXTMAX
 10
-1.0000000000000000E+020
 20
-1.0000000000000000E+020
 30
-1.0000000000000000E+020
  9
$PLIMMIN
 10
0.0
 20
0.0
  9
$PLIMMAX
 10
12.0
 20
9.0
  9
$UNITMODE
 70
     0
  9
$VISRETAIN
 70
     1
  9
$PLINEGEN
 70
     0
  9
$PSLTSCALE
 70
     1
  0
ENDSEC
  0
SECTION
  2
TABLES
  0
TABLE
  2
VPORT
 70
     1
  0
VPORT
  2
*ACTIVE
 70
     0
 10
0.0
 20
0.0
 11
1.0
 21
1.0
 12
0.0
 22
0.0
 13
0.0
 23
0.0
 14
1.0
 24
1.0
 15
0.0
 25
0.0
 16
0.0
 26
0.0
 36
119.2945149565458
 17
272.10281373826052
 27
-35.589427597744688
 37
0.0
 40
42.662465523457442
 41
2.0834248079034019
 42
50.0
 43
0.0
 44
0.0
 50
0.0
 51
0.0
 71
     0
 72
   100
 73
     1
 74
     1
 75
     0
 76
     0
 77
     0
 78
     0
  0
ENDTAB
  0
TABLE
  2
LTYPE
 70
     2
  0
LTYPE
  2
CONTINUOUS
 70
     0
  3
Solid line
 72
    65
 73
     0
 40
0.0
  0
LTYPE
  2
PHANTOM2
 70
     0
  3
___ _ _ ___ _ _ ___ _ _ ___ _ _
 72
    65
 73
     6
 40
1.25
 49
0.625
 49
-0.125
 49
0.125
 49
-0.125
 49
0.125
 49
-0.125
  0
ENDTAB
  0
TABLE
  2
LAYER
 70
     2
  0
LAYER
  2
0
 70
     0
 62
   255
  6
CONTINUOUS
  0
LAYER
  2
DEFPOINTS
 70
     0
 62
     7
  6
CONTINUOUS
  0
ENDTAB
  0
TABLE
  2
STYLE
 70
     1
  0
STYLE
  2
STANDARD
 70
     0
 40
0.0
 41
0.8
 50
0.0
 71
     0
 42
0.2
  3
txt
  4

  0
ENDTAB
  0
TABLE
  2
VIEW
 70
     0
  0
ENDTAB
  0
TABLE
  2
UCS
 70
     0
  0
ENDTAB
  0
TABLE
  2
APPID
 70
     9
  0
APPID
  2
ACAD
 70
     0
  0
APPID
  2
ACAD_MLEADERVER
 70
     0
  0
APPID
  2
ACAD_EXEMPT_FROM_CAD_STANDARDS
 70
     0
  0
APPID
  2
ACAD_DSTYLE_DIMJAG
 70
     0
  0
APPID
  2
ACAD_DSTYLE_DIMTALN
 70
     0
  0
APPID
  2
ACAD_NAV_VCDISPLAY
 70
     0
  0
APPID
  2
ACAECLAYERSTANDARD
 70
     0
  0
APPID
  2
ACCMTRANSPARENCY
 70
     0
  0
APPID
  2
ACDBATTR
 70
     0
  0
ENDTAB
  0
TABLE
  2
DIMSTYLE
 70
     1
  0
DIMSTYLE
  2
STANDARD
 70
     0
  3

  4

  5

  6

  7

 40
1.0
 41
0.1875
 42
0.0625
 43
0.38
 44
0.125
 45
0.0
 46
0.0
 47
0.01
 48
0.01
140
0.15625
141
0.09
142
0.0
143
25.399999999999999
144
1.0
145
0.0
146
1.0
147
0.09
 71
     1
 72
     0
 73
     1
 74
     1
 75
     0
 76
     0
 77
     0
 78
     4
170
     0
171
     2
172
     0
173
     0
174
     0
175
     0
176
     0
177
     0
178
     0
  0
ENDTAB
  0
ENDSEC
  0
SECTION
  2
BLOCKS
  0
BLOCK
  8
0
  2
$MODEL_SPACE
 70
     0
 10
0.0
 20
0.0
 30
0.0
  3
$MODEL_SPACE
  1

  0
ENDBLK
  5
21
  8
0
  0
BLOCK
 67
     1
  8
0
  2
$PAPER_SPACE
 70
     0
 10
0.0
 20
0.0
 30
0.0
  3
$PAPER_SPACE
  1

  0
ENDBLK
  5
1D
 67
     1
  8
0
  0
ENDSEC
  0
SECTION
  2
ENTITIES
  0
ATTDEF
  5
1968
  8
DEFPOINTS
 10
272.09706661951162
 20
-53.337743271863502
 30
0.0
 40
0.001
  1
K-5150-1
  3

  2
MODELNUMBER
 70
     0
1001
ACDBATTR
1070
     0
1070
     1
  0
ATTDEF
  5
1969
  8
DEFPOINTS
 10
272.09706661951162
 20
-53.33940993853016
 30
0.0
 40
0.001
  1
REVE
  3

  2
TRADENAME
 70
     0
1001
ACDBATTR
1070
     0
1070
     1
  0
ATTDEF
  5
196A
  8
DEFPOINTS
 10
272.09706661951162
 20
-53.341076605196832
 30
0.0
 40
0.001
  1
BATHROOM SINK
  3

  2
PRODUCT
 70
     0
1001
ACDBATTR
1070
     0
1070
     1
  0
ATTDEF
  5
196B
  8
DEFPOINTS
 10
272.09706661951162
 20
-53.34274327186349
 30
0.0
 40
0.001
  1
FIRECLAY
  3

  2
MATERIAL
 70
     0
1001
ACDBATTR
1070
     0
1070
     1
  0
LINE
  5
1B9F
  8
0
 10
260.2788795040924
 20
-18.429011578968812
 30
0.0
 11
260.75177975639252
 21
-22.011589247568821
 31
0.0
  0
LINE
  5
1BA0
  8
0
 10
268.80931374438069
 20
-34.96084547836881
 30
0.0
 11
275.39631374438079
 21
-34.96084547836881
 31
0.0
  0
LINE
  5
1BA1
  8
0
 10
262.91196095505279
 20
-22.165569887768811
 30
0.0
 11
263.13723543579249
 21
-23.86073956346883
 31
0.0
  0
LINE
  5
1BA2
  8
0
 10
268.55931386229253
 20
-24.134073824768819
 30
0.0
 11
268.55931386229253
 21
-34.71084547836881
 31
0.0
  0
LINE
  5
1BA3
  8
0
 10
263.4494331997924
 20
-24.134073824768819
 30
0.0
 11
280.75619452479248
 21
-24.134073824768819
 31
0.0
  0
LINE
  5
1BA4
  8
0
 10
275.64631386229252
 20
-34.71084547836881
 30
0.0
 11
275.6463138622924
 21
-24.134073824768819
 31
0.0
  0
LINE
  5
1BA5
  8
0
 10
260.92742152759251
 20
-22.165569887768811
 30
0.0
 11
283.27820619699253
 21
-22.165569887768811
 31
0.0
  0
LINE
  5
1BA6
  8
0
 10
281.06839227209241
 20
-23.86073968836882
 30
0.0
 11
281.29441491219239
 21
-22.165569887768811
 31
0.0
  0
LINE
  5
1BA7
  8
0
 10
283.75101835729248
 20
-18.228562013768819
 30
0.0
 11
260.45460821419238
 21
-18.228562013768819
 31
0.0
  0
LINE
  5
1BA8
  8
0
 10
283.45384796769252
 20
-22.01158925126882
 30
0.0
 11
283.92674820109249
 21
-18.42901172536882
 31
0.0
  0
ARC
  5
1BA9
  8
0
 10
263.4494331997924
 20
-23.81911319486882
 30
0.0
 40
0.3149606299
 50
187.5946433731994
 51
270.0
  0
ARC
  5
1BAA
  8
0
 10
262.28695365159251
 20
-18.338211676168811
 30
0.0
 40
0.3148728552
 50
92.17662348359967
 51
159.62061898707759
  0
ARC
  5
1BAB
  8
0
 10
268.80931386229258
 20
-34.710845478368761
 30
0.0
 40
0.2500000000001137
 50
180.0000000000114
 51
269.99997297659718
  0
ARC
  5
1BAC
  8
0
 10
260.92742152759251
 20
-21.98840453346882
 30
0.0
 40
0.1771653543
 50
187.5195704179007
 51
270.0
  0
ARC
  5
1BAD
  8
0
 10
272.1029620354617
 20
-275.56344514628728
 30
0.0
 40
257.72733322268988
 50
87.81465271608478
 51
92.185401139153186
  0
ARC
  5
1BAE
  8
0
 10
280.75619452469249
 20
-23.81911319486882
 30
0.0
 40
0.3149606299
 50
270.0
 51
352.40533369079952
  0
ARC
  5
1BAF
  8
0
 10
281.9186458135074
 20
-18.338231170798359
 30
0.0
 40
0.3149047118429241
 50
20.381011624163509
 51
87.808569702316234
  0
ARC
  5
1BB0
  8
0
 10
275.38134891935772
 20
-34.695880528375987
 30
0.0
 40
0.2653872090223357
 50
273.2325459730568
 51
356.76742700358528
  0
ARC
  5
1BB1
  8
0
 10
283.27820619699253
 20
-21.98840453346882
 30
0.0
 40
0.1771653543
 50
270.0
 51
352.48042837970053
  0
ARC
  5
1BB2
  8
0
 10
260.4546321164616
 20
-18.405836053503521
 30
0.0
 40
0.1772740413460793
 50
90.007725322542342
 51
187.51193800251519
  0
ARC
  5
1BB3
  8
0
 10
283.75099369460878
 20
-18.405837731090511
 30
0.0
 40
0.1772757190371664
 50
352.48863266424951
 51
89.992028983430217
  0
LINE
  5
1BB4
  8
0
 10
262.27499474608823
 20
-18.023566003195331
 30
0.0
 11
281.93068724990269
 21
-18.02355676549908
 31
0.0
  0
ARC
  5
1BB5
  8
0
 10
272.20031835699001
 20
-31.737999160850929
 30
0.0
 40
13.81579749419403
 50
87.308648092900995
 51
93.478512436707462
  0
ARC
  5
1BB6
  8
0
 10
272.00606416879282
 20
-3.459726420481025
 30
0.0
 40
14.50223561561155
 50
267.4547993758091
 51
273.33236115380259
  0
ENDSEC
  0
EOF
