  0
SECTION
  2
HEADER
  9
$ACADVER
  1
AC1009
  9
$INSBASE
 10
0.0
 20
0.0
 30
0.0
  9
$EXTMIN
 10
-6.906029
 20
-14.86141
 30
0.0
  9
$EXTMAX
 10
6.906029
 20
0.007649
 30
0.0
  9
$LIMMIN
 10
0.0
 20
0.0
  9
$LIMMAX
 10
12.0
 20
9.0
  9
$ORTHOMODE
 70
     0
  9
$REGENMODE
 70
     1
  9
$FILLMODE
 70
     1
  9
$QTEXTMODE
 70
     0
  9
$MIRRTEXT
 70
     1
  9
$DRAGMODE
 70
     2
  9
$LTSCALE
 40
1.0
  9
$OSMODE
 70
     0
  9
$ATTMODE
 70
     1
  9
$TEXTSIZE
 40
0.001
  9
$TRACEWID
 40
0.05
  9
$TEXTSTYLE
  7
STANDARD
  9
$CLAYER
  8
0
  9
$CELTYPE
  6
BYLAYER
  9
$CECOLOR
 62
   256
  9
$DIMSCALE
 40
1.0
  9
$DIMASZ
 40
0.18
  9
$DIMEXO
 40
0.0625
  9
$DIMDLI
 40
0.38
  9
$DIMRND
 40
0.0
  9
$DIMDLE
 40
0.0
  9
$DIMEXE
 40
0.18
  9
$DIMTP
 40
0.0
  9
$DIMTM
 40
0.0
  9
$DIMTXT
 40
0.18
  9
$DIMCEN
 40
0.09
  9
$DIMTSZ
 40
0.0
  9
$DIMTOL
 70
     0
  9
$DIMLIM
 70
     0
  9
$DIMTIH
 70
     1
  9
$DIMTOH
 70
     1
  9
$DIMSE1
 70
     0
  9
$DIMSE2
 70
     0
  9
$DIMTAD
 70
     0
  9
$DIMZIN
 70
     0
  9
$DIMBLK
  1

  9
$DIMASO
 70
     1
  9
$DIMSHO
 70
     1
  9
$DIMPOST
  1

  9
$DIMAPOST
  1

  9
$DIMALT
 70
     0
  9
$DIMALTD
 70
     2
  9
$DIMALTF
 40
25.4
  9
$DIMLFAC
 40
1.0
  9
$DIMTOFL
 70
     0
  9
$DIMTVP
 40
0.0
  9
$DIMTIX
 70
     0
  9
$DIMSOXD
 70
     0
  9
$DIMSAH
 70
     0
  9
$DIMBLK1
  1

  9
$DIMBLK2
  1

  9
$DIMSTYLE
  2
*UNNAMED
  9
$DIMCLRD
 70
     0
  9
$DIMCLRE
 70
     0
  9
$DIMCLRT
 70
     0
  9
$DIMTFAC
 40
1.0
  9
$DIMGAP
 40
0.09
  9
$LUNITS
 70
     2
  9
$LUPREC
 70
     4
  9
$SKETCHINC
 40
0.1
  9
$FILLETRAD
 40
1.75
  9
$AUNITS
 70
     0
  9
$AUPREC
 70
     0
  9
$MENU
  1
acad
  9
$ELEVATION
 40
0.0
  9
$PELEVATION
 40
0.0
  9
$THICKNESS
 40
0.0
  9
$LIMCHECK
 70
     0
  9
$BLIPMODE
 70
     0
  9
$CHAMFERA
 40
0.5
  9
$CHAMFERB
 40
0.5
  9
$SKPOLY
 70
     0
  9
$TDCREATE
 40
2451106.693715856
  9
$TDUPDATE
 40
2451109.482479051
  9
$TDINDWG
 40
0.0007310185
  9
$TDUSRTIMER
 40
0.0007310185
  9
$USRTIMER
 70
     1
  9
$ANGBASE
 50
0.0
  9
$ANGDIR
 70
     0
  9
$PDMODE
 70
     0
  9
$PDSIZE
 40
0.0
  9
$PLINEWID
 40
0.0
  9
$COORDS
 70
     2
  9
$SPLFRAME
 70
     0
  9
$SPLINETYPE
 70
     6
  9
$SPLINESEGS
 70
     8
  9
$ATTDIA
 70
     0
  9
$ATTREQ
 70
     1
  9
$HANDLING
 70
     1
  9
$HANDSEED
  5
1C363
  9
$SURFTAB1
 70
     6
  9
$SURFTAB2
 70
     6
  9
$SURFTYPE
 70
     6
  9
$SURFU
 70
     6
  9
$SURFV
 70
     6
  9
$UCSNAME
  2

  9
$UCSORG
 10
0.0
 20
0.0
 30
0.0
  9
$UCSXDIR
 10
1.0
 20
0.0
 30
0.0
  9
$UCSYDIR
 10
0.0
 20
1.0
 30
0.0
  9
$PUCSNAME
  2

  9
$PUCSORG
 10
0.0
 20
0.0
 30
0.0
  9
$PUCSXDIR
 10
1.0
 20
0.0
 30
0.0
  9
$PUCSYDIR
 10
0.0
 20
1.0
 30
0.0
  9
$USERI1
 70
     0
  9
$USERI2
 70
     0
  9
$USERI3
 70
     0
  9
$USERI4
 70
     0
  9
$USERI5
 70
     0
  9
$USERR1
 40
0.0
  9
$USERR2
 40
0.0
  9
$USERR3
 40
0.0
  9
$USERR4
 40
0.0
  9
$USERR5
 40
0.0
  9
$WORLDVIEW
 70
     1
  9
$SHADEDGE
 70
     3
  9
$SHADEDIF
 70
    70
  9
$TILEMODE
 70
     1
  9
$MAXACTVP
 70
    16
  9
$PINSBASE
 10
0.0
 20
0.0
 30
0.0
  9
$PLIMCHECK
 70
     0
  9
$PEXTMIN
 10
1.000000E+20
 20
1.000000E+20
 30
1.000000E+20
  9
$PEXTMAX
 10
-1.000000E+20
 20
-1.000000E+20
 30
-1.000000E+20
  9
$PLIMMIN
 10
0.0
 20
0.0
  9
$PLIMMAX
 10
12.0
 20
9.0
  9
$UNITMODE
 70
     0
  9
$VISRETAIN
 70
     1
  9
$PLINEGEN
 70
     0
  9
$PSLTSCALE
 70
     1
  9
$TREEDEPTH
 70
  3020
  9
$DWGCODEPAGE
  3
dummy
  0
ENDSEC
  0
SECTION
  2
TABLES
  0
TABLE
  2
VPORT
 70
     2
  0
VPORT
  2
*ACTIVE
 70
     0
 10
0.0
 20
0.0
 11
1.0
 21
1.0
 12
6.091293
 22
-6.542577
 13
0.0
 23
0.0
 14
0.5
 24
0.5
 15
0.5
 25
0.5
 16
0.0
 26
0.0
 36
1.0
 17
0.0
 27
0.0
 37
0.0
 40
18.032735
 41
1.573846
 42
50.0
 43
0.0
 44
0.0
 50
0.0
 51
0.0
 71
     0
 72
   100
 73
     1
 74
     1
 75
     0
 76
     0
 77
     0
 78
     0
  0
ENDTAB
  0
TABLE
  2
LTYPE
 70
     1
  0
LTYPE
  2
CONTINUOUS
 70
    64
  3
Solid line
 72
    65
 73
     0
 40
0.0
  0
ENDTAB
  0
TABLE
  2
LAYER
 70
     1
  0
LAYER
  2
0
 70
    64
 62
     7
  6
CONTINUOUS
  0
ENDTAB
  0
TABLE
  2
STYLE
 70
     1
  0
STYLE
  2
STANDARD
 70
    64
 40
0.0
 41
1.0
 50
0.0
 71
     0
 42
0.001
  3
txt
  4

  0
ENDTAB
  0
TABLE
  2
VIEW
 70
     0
  0
ENDTAB
  0
TABLE
  2
UCS
 70
     0
  0
ENDTAB
  0
TABLE
  2
APPID
 70
     1
  0
APPID
  2
ACAD
 70
    64
  0
ENDTAB
  0
TABLE
  2
DIMSTYLE
 70
     0
  0
ENDTAB
  0
ENDSEC
  0
SECTION
  2
BLOCKS
  0
ENDSEC
  0
SECTION
  2
ENTITIES
  0
ARC
  8
0
  5
1C355
 10
0.0
 20
-36.11
 30
0.0
 40
32.0
 50
90.0
 51
97.360589
  0
LINE
  8
0
  5
1C35A
 10
-6.75
 20
0.0
 30
0.0
 11
6.75
 21
0.0
 31
0.0
  0
ARC
  8
0
  5
1C34A
 10
10.51934
 20
-1.07546
 30
0.0
 40
17.47947
 50
205.619575
 51
227.659179
  0
ARC
  8
0
  5
1C34B
 10
7.726042
 20
-4.10742
 30
0.0
 40
13.357068
 50
190.05857
 51
227.755801
  0
ARC
  8
0
  5
1C349
 10
8.44379
 20
-4.072107
 30
0.0
 40
13.314756
 50
189.574961
 51
225.460022
  0
ARC
  8
0
 62
     1
  5
1C351
 10
-4.962614
 20
-4.095847
 30
0.0
 40
11.167665
 50
336.026223
 51
16.060591
210
0.0
220
0.0
230
-1.0
1001
ACAD
1000
R13OBJECT
1002
{
1005
1C256
1002
}
  0
ARC
  8
0
  5
1C350
 10
4.962614
 20
-4.095847
 30
0.0
 40
11.167665
 50
163.939409
 51
203.973777
  0
ARC
  8
0
  5
1C35D
 10
7.738646
 20
-0.275493
 30
0.0
 40
14.491265
 50
178.910686
 51
195.811528
  0
LINE
  8
0
  5
1C352
 10
-5.245961
 20
0.0
 30
0.0
 11
-4.431724
 21
-4.137517
 31
0.0
  0
ARC
  8
0
  5
1C354
 10
-2.94
 20
-6.14
 30
0.0
 40
2.5
 50
126.652277
 51
186.888417
  0
ARC
  8
0
  5
1C353
 10
-2.958322
 20
-6.005003
 30
0.0
 40
1.75
 50
95.612256
 51
189.268292
  0
ARC
  8
0
  5
1C356
 10
-4.138064
 20
-4.076168
 30
0.0
 40
0.3
 50
191.800044
 51
277.360589
  0
ARC
  8
0
  5
1C358
 10
-7.75
 20
-0.73
 30
0.0
 40
2.0
 50
352.060049
 51
21.407583
  0
ARC
  8
0
  5
1C359
 10
-7.75
 20
-0.73
 30
0.0
 40
2.0
 50
352.060049
 51
21.407583
1001
ACAD
1000
R13OBJECT
1002
{
1005
1C256
1002
}
  0
ARC
  8
0
  5
1C32E
 10
-7.726042
 20
-4.10742
 30
0.0
 40
13.357068
 50
312.244199
 51
349.94143
  0
ARC
  8
0
  5
1C32D
 10
-8.44379
 20
-4.072107
 30
0.0
 40
13.314756
 50
314.539978
 51
350.425039
  0
ARC
  8
0
 62
     1
  5
1C264
 10
4.962614
 20
-4.095847
 30
0.0
 40
11.167665
 50
163.939409
 51
203.973777
210
0.0
220
0.0
230
-1.0
1001
ACAD
1000
R13OBJECT
1002
{
1005
1C256
1002
}
  0
ARC
  8
0
  5
1C341
 10
-4.962614
 20
-4.095847
 30
0.0
 40
11.167665
 50
336.026223
 51
16.060591
  0
ARC
  8
0
  5
1C32F
 10
-10.51934
 20
-1.07546
 30
0.0
 40
17.47947
 50
312.340821
 51
334.380425
  0
ARC
  8
0
  5
1C34F
 10
0.0
 20
-12.69
 30
0.0
 40
1.25
 50
224.257056
 51
270.0
  0
ARC
  8
0
  5
1C34D
 10
0.0
 20
-12.69
 30
0.0
 40
1.81
 50
226.156526
 51
270.0
  0
ARC
  8
0
  5
1C337
 10
0.0
 20
-12.69
 30
0.0
 40
1.25
 50
270.0
 51
315.742944
  0
ARC
  8
0
  5
1C336
 10
0.0
 20
-12.69
 30
0.0
 40
1.81
 50
270.0
 51
313.843474
  0
ARC
  8
0
  5
1C35C
 10
-7.738646
 20
-0.275493
 30
0.0
 40
14.491265
 50
344.188472
 51
1.089314
  0
LINE
  8
0
  5
1C343
 10
5.245961
 20
0.0
 30
0.0
 11
4.431724
 21
-4.137517
 31
0.0
  0
ARC
  8
0
  5
1C330
 10
0.0
 20
-36.11
 30
0.0
 40
32.0
 50
82.639411
 51
90.0
  0
ARC
  8
0
  5
1C33E
 10
2.94
 20
-6.14
 30
0.0
 40
2.5
 50
353.111583
 51
53.347723
  0
ARC
  8
0
  5
1C348
 10
2.958322
 20
-6.005003
 30
0.0
 40
1.75
 50
350.731708
 51
84.387744
  0
ARC
  8
0
  5
1C346
 10
4.138064
 20
-4.076168
 30
0.0
 40
0.3
 50
262.639411
 51
348.199956
  0
ARC
  8
0
  5
1C2F7
 10
7.75
 20
-0.73
 30
0.0
 40
2.0
 50
158.592417
 51
187.939951
1001
ACAD
1000
R13OBJECT
1002
{
1005
1C256
1002
}
  0
ARC
  8
0
  5
1C344
 10
7.75
 20
-0.73
 30
0.0
 40
2.0
 50
158.592417
 51
187.939951
  0
ATTDEF
  8
0
  5
1C35F
 10
0.0
 20
0.0
 30
0.0
 40
0.001
  1
K-5016-ET
  3

  2
MODELNUMBER
 70
     8
  0
ATTDEF
  8
0
  5
1C360
 10
0.0
 20
-0.0017
 30
0.0
 40
0.001
  1
DEXTER
  3

  2
TRADENAME
 70
     8
  0
ATTDEF
  8
0
  5
1C361
 10
0.0
 20
-0.0034
 30
0.0
 40
0.001
  1
C_URINALS
  3

  2
PRODUCT
 70
     8
  0
ATTDEF
  8
0
  5
1C362
 10
0.0
 20
-0.0051
 30
0.0
 40
0.001
  1
VITREOUS CHINA
  3

  2
MATERIAL
 70
     8
  0
ENDSEC
  0
EOF
