  0
SECTION
  2
HEADER
  9
$ACADVER
  1
AC1009
  9
$INSBASE
 10
9.7770759076000022
 20
-27.547121095000449
 30
0.0
  9
$EXTMIN
 10
-6.4194866217790878
 20
-27.557964579327258
 30
0.0
  9
$EXTMAX
 10
19.024696301593959
 20
16.503237867100001
 30
0.0
  9
$LIMMIN
 10
0.0
 20
0.0
  9
$LIMMAX
 10
22.0
 20
17.0
  9
$ORTHOMODE
 70
     0
  9
$REGENMODE
 70
     1
  9
$FILLMODE
 70
     1
  9
$QTEXTMODE
 70
     0
  9
$MIRRTEXT
 70
     0
  9
$DRAGMODE
 70
     2
  9
$LTSCALE
 40
1.2099999999999991
  9
$OSMODE
 70
    47
  9
$ATTMODE
 70
     1
  9
$TEXTSIZE
 40
0.001
  9
$TRACEWID
 40
0.05
  9
$TEXTSTYLE
  7
STANDARD
  9
$CLAYER
  8
0
  9
$CELTYPE
  6
BYLAYER
  9
$CECOLOR
 62
   256
  9
$DIMSCALE
 40
1.0
  9
$DIMASZ
 40
0.1875
  9
$DIMEXO
 40
0.0625
  9
$DIMDLI
 40
0.8359999999999999
  9
$DIMRND
 40
0.0
  9
$DIMDLE
 40
0.0
  9
$DIMEXE
 40
0.125
  9
$DIMTP
 40
0.0
  9
$DIMTM
 40
0.0
  9
$DIMTXT
 40
0.15625
  9
$DIMCEN
 40
0.198
  9
$DIMTSZ
 40
0.0
  9
$DIMTOL
 70
     0
  9
$DIMLIM
 70
     0
  9
$DIMTIH
 70
     1
  9
$DIMTOH
 70
     1
  9
$DIMSE1
 70
     0
  9
$DIMSE2
 70
     0
  9
$DIMTAD
 70
     0
  9
$DIMZIN
 70
     0
  9
$DIMBLK
  1

  9
$DIMASO
 70
     1
  9
$DIMSHO
 70
     1
  9
$DIMPOST
  1

  9
$DIMAPOST
  1

  9
$DIMALT
 70
     0
  9
$DIMALTD
 70
     2
  9
$DIMALTF
 40
25.399999999999999
  9
$DIMLFAC
 40
1.0
  9
$DIMTOFL
 70
     0
  9
$DIMTVP
 40
0.0
  9
$DIMTIX
 70
     0
  9
$DIMSOXD
 70
     0
  9
$DIMSAH
 70
     0
  9
$DIMBLK1
  1

  9
$DIMBLK2
  1

  9
$DIMSTYLE
  2
STANDARD
  9
$DIMCLRD
 70
     0
  9
$DIMCLRE
 70
     0
  9
$DIMCLRT
 70
     0
  9
$DIMTFAC
 40
1.0
  9
$DIMGAP
 40
0.09
  9
$LUNITS
 70
     2
  9
$LUPREC
 70
     4
  9
$SKETCHINC
 40
0.1
  9
$FILLETRAD
 40
0.05
  9
$AUNITS
 70
     0
  9
$AUPREC
 70
     0
  9
$MENU
  1
.
  9
$ELEVATION
 40
0.0
  9
$PELEVATION
 40
0.0
  9
$THICKNESS
 40
0.0
  9
$LIMCHECK
 70
     0
  9
$BLIPMODE
 70
     0
  9
$CHAMFERA
 40
0.0
  9
$CHAMFERB
 40
0.0
  9
$SKPOLY
 70
     0
  9
$TDCREATE
 40
2457322.4015256939
  9
$TDUPDATE
 40
2457323.7368233572
  9
$TDINDWG
 40
0.1680306944
  9
$TDUSRTIMER
 40
0.1680306944
  9
$USRTIMER
 70
     1
  9
$ANGBASE
 50
0.0
  9
$ANGDIR
 70
     0
  9
$PDMODE
 70
     0
  9
$PDSIZE
 40
0.3125
  9
$PLINEWID
 40
0.0
  9
$COORDS
 70
     1
  9
$SPLFRAME
 70
     0
  9
$SPLINETYPE
 70
     6
  9
$SPLINESEGS
 70
     8
  9
$ATTDIA
 70
     0
  9
$ATTREQ
 70
     1
  9
$HANDLING
 70
     1
  9
$HANDSEED
  5
C39
  9
$SURFTAB1
 70
     6
  9
$SURFTAB2
 70
     6
  9
$SURFTYPE
 70
     6
  9
$SURFU
 70
     6
  9
$SURFV
 70
     6
  9
$UCSNAME
  2

  9
$UCSORG
 10
0.0
 20
0.0
 30
0.0
  9
$UCSXDIR
 10
1.0
 20
0.0
 30
0.0
  9
$UCSYDIR
 10
0.0
 20
1.0
 30
0.0
  9
$PUCSNAME
  2

  9
$PUCSORG
 10
0.0
 20
0.0
 30
0.0
  9
$PUCSXDIR
 10
1.0
 20
0.0
 30
0.0
  9
$PUCSYDIR
 10
0.0
 20
1.0
 30
0.0
  9
$USERI1
 70
     0
  9
$USERI2
 70
     0
  9
$USERI3
 70
     0
  9
$USERI4
 70
     0
  9
$USERI5
 70
     0
  9
$USERR1
 40
0.0
  9
$USERR2
 40
0.0
  9
$USERR3
 40
0.0
  9
$USERR4
 40
0.0
  9
$USERR5
 40
0.0
  9
$WORLDVIEW
 70
     1
  9
$SHADEDGE
 70
     3
  9
$SHADEDIF
 70
    70
  9
$TILEMODE
 70
     1
  9
$MAXACTVP
 70
    48
  9
$PLIMCHECK
 70
     0
  9
$PEXTMIN
 10
1.0000000000000000E+020
 20
1.0000000000000000E+020
 30
1.0000000000000000E+020
  9
$PEXTMAX
 10
-1.0000000000000000E+020
 20
-1.0000000000000000E+020
 30
-1.0000000000000000E+020
  9
$PLIMMIN
 10
0.0
 20
0.0
  9
$PLIMMAX
 10
12.0
 20
9.0
  9
$UNITMODE
 70
     0
  9
$VISRETAIN
 70
     1
  9
$PLINEGEN
 70
     0
  9
$PSLTSCALE
 70
     1
  0
ENDSEC
  0
SECTION
  2
TABLES
  0
TABLE
  2
VPORT
 70
     1
  0
VPORT
  2
*ACTIVE
 70
     0
 10
0.0
 20
0.0
 11
1.0
 21
1.0
 12
16.161066239358231
 22
2.3786850145093998
 13
0.0
 23
0.0
 14
1.0
 24
1.0
 15
0.0
 25
0.0
 16
0.0
 26
0.0
 36
1.0
 17
0.0
 27
0.0
 37
0.0
 40
65.217568265560459
 41
2.0329087048832268
 42
50.0
 43
0.0
 44
0.0
 50
0.0
 51
0.0
 71
     0
 72
   100
 73
     1
 74
     1
 75
     0
 76
     0
 77
     0
 78
     0
  0
ENDTAB
  0
TABLE
  2
LTYPE
 70
     2
  0
LTYPE
  2
CONTINUOUS
 70
     0
  3
Solid line
 72
    65
 73
     0
 40
0.0
  0
ENDTAB
  0
TABLE
  2
LAYER
 70
     2
  0
LAYER
  2
0
 70
     0
 62
     7
  6
CONTINUOUS
  0
LAYER
  2
DEFPOINTS
 70
     0
 62
     7
  6
CONTINUOUS
  0
ENDTAB
  0
TABLE
  2
STYLE
 70
     1
  0
STYLE
  2
STANDARD
 70
     0
 40
0.0
 41
0.8
 50
0.0
 71
     0
 42
0.001
  3
txt
  4

  0
ENDTAB
  0
TABLE
  2
VIEW
 70
     0
  0
ENDTAB
  0
TABLE
  2
UCS
 70
     0
  0
ENDTAB
  0
TABLE
  2
APPID
 70
     5
  0
APPID
  2
ACAD
 70
     0
  0
APPID
  2
ACAD_MLEADERVER
 70
     0
  0
APPID
  2
ACAD_NAV_VCDISPLAY
 70
     0
  0
APPID
  2
ACAD_EXEMPT_FROM_CAD_STANDARDS
 70
     0
  0
APPID
  2
AcDbAttr
 70
     0
  0
ENDTAB
  0
TABLE
  2
DIMSTYLE
 70
     2
  0
DIMSTYLE
  2
STANDARD
 70
     0
  3

  4

  5

  6

  7

 40
1.0
 41
0.1875
 42
0.0625
 43
0.38
 44
0.125
 45
0.0
 46
0.0
 47
0.1
 48
0.1
140
0.15625
141
0.09
142
0.0
143
25.399999999999999
144
1.0
145
0.0
146
1.0
147
0.09
 71
     0
 72
     0
 73
     1
 74
     1
 75
     0
 76
     0
 77
     0
 78
     4
170
     0
171
     2
172
     0
173
     0
174
     0
175
     0
176
     0
177
     0
178
     0
  0
ENDTAB
  0
ENDSEC
  0
SECTION
  2
BLOCKS
  0
BLOCK
  8
0
  2
$MODEL_SPACE
 70
     2
 10
0.0
 20
0.0
 30
0.0
  3
$MODEL_SPACE
  1

  0
ENDBLK
  5
21
  8
0
  0
BLOCK
 67
     1
  8
0
  2
$PAPER_SPACE
 70
     0
 10
0.0
 20
0.0
 30
0.0
  3
$PAPER_SPACE
  1

  0
ENDBLK
  5
1D
 67
     1
  8
0
  0
ENDSEC
  0
SECTION
  2
ENTITIES
  0
LINE
  5
21C
  8
0
 10
9.2625667840999988
 20
16.450737867099999
 30
0.0
 11
9.3150667840999972
 21
16.503237867100001
 31
0.0
  0
LINE
  5
235
  8
0
 10
0.8975268398
 20
-1.1971840987999991
 30
0.0
 11
6.043734775199999
 21
-8.5846964863000004
 31
0.0
  0
LINE
  5
243
  8
0
 10
4.8827854743000003
 20
-1.6783947571999991
 30
0.0
 11
8.2324294082999998
 21
-3.2404116065999999
 31
0.0
  0
LINE
  5
259
  8
0
 10
8.8070667840999999
 20
15.4278034847
 30
0.0
 11
8.8070667840999999
 21
15.5732378671
 31
0.0
  0
LINE
  5
25A
  8
0
 10
9.0156589414707131
 20
15.88499786693168
 30
0.0
 11
9.0067169061200687
 21
15.663237867099999
 31
0.0
  0
LINE
  5
25F
  8
0
 10
9.2625667840999988
 20
15.884997867099999
 30
0.0
 11
9.2625667840999988
 21
16.450737867099999
 31
0.0
  0
LINE
  5
263
  8
0
 10
10.2915667841
 20
15.884997867099999
 30
0.0
 11
10.2915667841
 21
16.450737867099999
 31
0.0
  0
LINE
  5
266
  8
0
 10
10.747066784099999
 20
15.4278034845
 30
0.0
 11
10.747066784099999
 21
15.5732378671
 31
0.0
  0
LINE
  5
267
  8
0
 10
10.52673789852704
 20
15.884997880168321
 30
0.0
 11
10.535644595788741
 21
15.663237867099999
 31
0.0
  0
LINE
  5
29E
  8
0
 10
13.5103987929
 20
-8.5846964863000004
 30
0.0
 11
18.656606728299991
 21
-1.1971840987999991
 31
0.0
  0
LINE
  5
318
  8
0
 10
10.2915667841
 20
16.450737867099999
 30
0.0
 11
10.2390667841
 21
16.503237867100001
 31
0.0
  0
LINE
  5
32B
  8
0
 10
2.9884094981954061
 20
14.982061677104531
 30
0.0
 11
0.8854865501999999
 21
14.831852895100001
 31
0.0
  0
LINE
  5
330
  8
0
 10
10.657061264199999
 20
15.663237867099999
 30
0.0
 11
8.8970693935000007
 21
15.663237867099999
 31
0.0
  0
LINE
  5
331
  8
0
 10
9.0156589414707131
 20
15.88499786693168
 30
0.0
 11
10.52673789852704
 21
15.884997880168321
 31
0.0
  0
LINE
  5
334
  8
0
 10
16.565724055059061
 20
14.982061678180941
 30
0.0
 11
18.668647018600002
 21
14.831852895100001
 31
0.0
  0
LINE
  5
33E
  8
0
 10
10.2390667841
 20
16.503237867100001
 30
0.0
 11
9.3150667840999972
 21
16.503237867100001
 31
0.0
  0
ARC
  5
823
  8
0
 10
238.5525252896
 20
6.9378746373000002
 30
0.0
 40
238.02313030959999
 50
178.15761788259999
 51
181.77407610180001
  0
ARC
  5
824
  8
0
 10
-218.99839172150001
 20
6.9378746375000002
 30
0.0
 40
238.02313030959999
 50
358.22592389819999
 51
1.842382117299999
  0
ARC
  5
825
  8
0
 10
9.7770667841000005
 20
5.815180054699999
 30
0.0
 40
15.0
 50
256.75138891649999
 51
265.94307962458862
  0
ARC
  5
826
  8
0
 10
9.7770667841000005
 20
5.815180054699999
 30
0.0
 40
15.0
 50
274.05692039651848
 51
283.24861108350001
  0
ARC
  5
828
  8
0
 10
2.0603608996
 20
-0.3864004793
 30
0.0
 40
1.417565700099999
 50
181.8017015593
 51
214.8859261856
  0
ARC
  5
829
  8
0
 10
9.7770759076000004
 20
-10.439819202200001
 30
0.0
 40
0.9349934058
 50
179.99999113659999
 51
0.0000088634
  0
ARC
  5
82A
  8
0
 10
13.100130311699999
 20
-8.2988997521000005
 30
0.0
 40
0.5
 50
283.24861108340002
 51
325.1385819404
  0
ARC
  5
82C
  8
0
 10
6.4540032565000001
 20
-8.2988997521000005
 30
0.0
 40
0.5
 50
214.8614180596
 51
256.75138891659998
  0
ARC
  5
82F
  8
0
 10
10.6570667841
 20
15.5732378671
 30
0.0
 40
0.09
 50
0.0
 51
90.000000077199999
  0
ARC
  5
830
  8
0
 10
8.8970667840999997
 20
15.5732378671
 30
0.0
 40
0.09
 50
89.999999922800015
 51
180.0
  0
ARC
  5
9F1
  8
0
 10
5.1406696451139648
 20
11.126041073473839
 30
0.0
 40
1.0010977962843219
 50
95.909435544951648
 51
163.63943310842171
  0
LINE
  5
9F2
  8
0
 10
4.1801082353999996
 20
11.4080314561
 30
0.0
 11
4.6561752778000001
 21
-1.444287399799999
 31
0.0
  0
ARC
  5
9F5
  8
0
 10
5.0873170361649427
 20
-1.253682964703567
 30
0.0
 40
0.4713950217009566
 50
203.8498507752127
 51
244.28558919532131
  0
ARC
  5
9F7
  8
0
 10
9.7770667898225199
 20
0.4957524456993771
 30
0.0
 40
4.042873540699838
 50
247.53839520731881
 51
292.46160328298168
  0
ARC
  5
9FD
  8
0
 10
10.17414573514418
 20
-111.8969808215675
 30
0.0
 40
124.12512552461151
 50
90.183290733035037
 51
92.371690960788996
  0
LINE
  5
9FE
  8
0
 10
14.671348093900001
 20
-1.6783947571999991
 30
0.0
 11
11.321704159899999
 21
-3.2404116065999999
 31
0.0
  0
ARC
  5
9FF
  8
0
 10
14.413463923086031
 20
11.126041073473839
 30
0.0
 40
1.0010977962843219
 50
16.360566891578259
 51
84.090564455048408
  0
LINE
  5
A00
  8
0
 10
15.3740253328
 20
11.4080314561
 30
0.0
 11
14.8979582904
 21
-1.444287399799999
 31
0.0
  0
ARC
  5
A01
  8
0
 10
14.466816532035059
 20
-1.253682964703567
 30
0.0
 40
0.4713950217009566
 50
295.71441080467861
 51
336.15014922478741
  0
ARC
  5
A02
  8
0
 10
9.3799878139952781
 20
-111.89698146808119
 30
0.0
 40
124.12512617136009
 50
87.628309042769843
 51
89.816709233541644
  0
ARC
  5
A06
  8
0
 10
-1.1859196464070281
 20
-10.77021900375594
 30
0.0
 40
10.03390340936167
 50
1.966796194058789
 51
14.02894432101416
  0
ARC
  5
A07
  8
0
 10
-1.54469545296514
 20
-11.457301582037189
 30
0.0
 40
10.564447558694461
 50
17.174052404059282
 51
22.961346457534411
  0
ARC
  5
A08
  8
0
 10
8.0434809679408623
 20
-7.3964647106109744
 30
0.0
 40
0.1517920120728753
 50
23.47252580134441
 51
67.131517933115219
  0
ARC
  5
A12
  8
0
 10
502.39077932291519
 20
1217.124617230985
 30
0.0
 40
1320.390210066884
 50
247.9905128831154
 51
248.0158444681345
  0
ARC
  5
A13
  8
0
 10
12.97291888391824
 20
3.7646533572268499
 30
0.0
 40
12.082341617788931
 50
236.7668687401659
 51
243.3907438341889
  0
ARC
  5
A14
  8
0
 10
10.030277971629131
 20
-0.627012264849848
 30
0.0
 40
6.7964569156524473
 50
228.45703693999261
 51
237.22653803931621
  0
ARC
  5
A15
  8
0
 10
20.189849445611259
 20
11.725002991244221
 30
0.0
 40
22.786646729769579
 50
227.27318252658441
 51
229.9347101043804
  0
ARC
  5
A16
  8
0
 10
36.278595675015133
 20
28.959003766517579
 30
0.0
 40
46.363135175607169
 50
223.79072893154861
 51
227.11819366123061
  0
ARC
  5
A17
  8
0
 10
-19.11114162651905
 20
-22.95774014070404
 30
0.0
 40
29.56126879969662
 50
42.135457703379721
 51
47.401695728186219
  0
LINE
  5
A18
  8
0
 10
18.65660673877283
 20
-1.1971841044237961
 30
0.0
 11
13.510398798694
 21
-8.5846964886644805
 31
0.0
  0
ARC
  5
A19
  8
0
 10
9.7770667989140634
 20
5.815180054699999
 30
0.0
 40
15.0
 50
274.05692033912362
 51
283.24861104721208
  0
ARC
  5
A1A
  8
0
 10
17.49377267948633
 20
-0.3864004841873236
 30
0.0
 40
1.417565700099999
 50
325.11407377811207
 51
358.19829840441213
  0
ARC
  5
A1B
  8
0
 10
13.100130317574999
 20
-8.2988997542046405
 30
0.0
 40
0.5
 50
283.24861104711209
 51
325.13858190411207
  0
ARC
  5
A1C
  8
0
 10
20.740053218916842
 20
-10.770219010699281
 30
0.0
 40
10.03390340936167
 50
165.97105564269791
 51
178.03320376965331
  0
ARC
  5
A1D
  8
0
 10
21.098829025039791
 20
-11.457301589207759
 30
0.0
 40
10.564447558694461
 50
157.03865350617761
 51
162.8259475596528
  0
ARC
  5
A1E
  8
0
 10
11.51065260670569
 20
-7.3964647117089291
 30
0.0
 40
0.1517920120728753
 50
112.86848203059689
 51
156.52747416236761
  0
ARC
  5
A1F
  8
0
 10
-482.8366449727265
 20
1217.124617542979
 30
0.0
 40
1320.390210066884
 50
291.98415549557751
 51
292.00948708059678
  0
ARC
  5
A20
  8
0
 10
6.5812146977971357
 20
3.764653359250921
 30
0.0
 40
12.082341617788931
 50
296.60925612952309
 51
303.2331312235462
  0
ARC
  5
A21
  8
0
 10
9.5238556073048155
 20
-0.6270122646894785
 30
0.0
 40
6.7964569156524473
 50
302.7734619243958
 51
311.54296302371949
  0
ARC
  5
A22
  8
0
 10
-0.6357158588542476
 20
11.725002997839081
 30
0.0
 40
22.786646729769579
 50
310.06528985933181
 51
312.72681743712758
  0
ARC
  5
A23
  8
0
 10
-16.72446207734308
 20
28.959003783302151
 30
0.0
 40
46.363135175607169
 50
312.88180630248149
 51
316.20927103216349
  0
ARC
  5
A24
  8
0
 10
38.665275191309981
 20
-22.957740159000188
 30
0.0
 40
29.56126879969662
 50
132.59830423552589
 51
137.86454226033231
  0
ARC
  5
A25
  8
0
 10
18.641132649649681
 20
14.57210864823575
 30
0.0
 40
0.2611974622346289
 50
4.0025351235632201
 51
83.953282117322019
  0
ARC
  5
A26
  8
0
 10
0.9130944293730514
 20
14.57200434554786
 30
0.0
 40
0.2613104538230334
 50
96.061298831275792
 51
175.97618628278761
  0
ARC
  5
A29
  8
0
 10
2.9789285412765869
 20
15.11370096900801
 30
0.0
 40
0.1319802701806169
 50
274.05177606545931
 51
315.03189718017097
  0
ARC
  5
A2A
  8
0
 10
3.3235910963041499
 20
14.927294848901409
 30
0.0
 40
0.2679903397309125
 50
116.3927165825536
 51
159.66385509957701
  0
ARC
  5
A2B
  8
0
 10
3.2991681086147562
 20
14.939394410874231
 30
0.0
 40
0.246847390093061
 50
99.431705026428531
 51
112.56031527238591
  0
ARC
  5
A2C
  8
0
 10
5.1821086046452569
 20
4.0318462151190886
 30
0.0
 40
11.315721132956631
 50
97.768134141847597
 51
99.786395060007891
  0
ARC
  5
A2D
  8
0
 10
4.98319957981965
 20
6.1353540118536696
 30
0.0
 40
9.2050448056162555
 50
95.849089645927407
 51
98.311132937730733
  0
ARC
  5
A2E
  8
0
 10
4.7678472035775474
 20
10.00402562006631
 30
0.0
 40
5.3376047603243011
 50
88.952608227436741
 51
97.781854881114924
  0
ARC
  5
A2F
  8
0
 10
8.8528697347116321
 20
-85.819030967919275
 30
0.0
 40
101.238326547694
 50
90.980655455841571
 51
92.257281580928009
  0
ARC
  5
A30
  8
0
 10
15.507569529106
 20
-467.5766563924717
 30
0.0
 40
483.05394511351579
 50
90.679719784475779
 51
90.994889778025239
  0
ARC
  5
A33
  8
0
 10
16.57520502692341
 20
15.11370096900801
 30
0.0
 40
0.1319802701806169
 50
224.968102819829
 51
265.94822393454069
  0
ARC
  5
A34
  8
0
 10
16.230542471895848
 20
14.927294848901409
 30
0.0
 40
0.2679903397309125
 50
20.33614490042298
 51
63.607283417446382
  0
ARC
  5
A35
  8
0
 10
16.25496545958524
 20
14.939394410874231
 30
0.0
 40
0.246847390093061
 50
67.439684727614036
 51
80.568294973571497
  0
ARC
  5
A36
  8
0
 10
14.37202496355474
 20
4.0318462151190886
 30
0.0
 40
11.315721132956631
 50
80.213604939992166
 51
82.231865858152446
  0
ARC
  5
A37
  8
0
 10
14.57093398838035
 20
6.1353540118536696
 30
0.0
 40
9.2050448056162555
 50
81.688867062269324
 51
84.150910354072636
  0
ARC
  5
A38
  8
0
 10
14.78628636462245
 20
10.00402562006631
 30
0.0
 40
5.3376047603243011
 50
82.218145118885133
 51
91.047391772563216
  0
ARC
  5
A39
  8
0
 10
10.701263833488371
 20
-85.819030967919275
 30
0.0
 40
101.238326547694
 50
87.742718419072077
 51
89.019344544158344
  0
ARC
  5
A3A
  8
0
 10
4.0465640390940001
 20
-467.5766563924717
 30
0.0
 40
483.05394511351579
 50
89.005110221974675
 51
89.320280215524164
  0
ATTDEF
  5
A5F
  8
DEFPOINTS
 10
9.7727400031312062
 20
-27.552964579327249
 30
0.0
 40
0.001
  1
K-4991-ET
  3

  2
MODELNUMBER
 70
     0
1001
AcDbAttr
1070
     0
1070
     1
  0
ATTDEF
  5
A60
  8
DEFPOINTS
 10
9.7727400031312062
 20
-27.554631245993921
 30
0.0
 40
0.001
  1
BARDON
  3

  2
TRADENAME
 70
     0
1001
AcDbAttr
1070
     0
1070
     1
  0
ATTDEF
  5
A61
  8
DEFPOINTS
 10
9.7727400031312062
 20
-27.55629791266059
 30
0.0
 40
0.001
  1
URINAL
  3

  2
PRODUCT
 70
     0
1001
AcDbAttr
1070
     0
1070
     1
  0
ATTDEF
  5
A62
  8
DEFPOINTS
 10
9.7727400031312062
 20
-27.557964579327258
 30
0.0
 40
0.001
  1
VITREOUS CHINA
  3

  2
MATERIAL
 70
     0
1001
AcDbAttr
1070
     0
1070
     1
  0
ENDSEC
  0
EOF
