  0
SECTION
  2
HEADER
  9
$ACADVER
  1
AC1009
  9
$INSBASE
 10
0.0
 20
0.0
 30
0.0
  9
$EXTMIN
 10
-9.054603
 20
-7.567591
 30
0.0
  9
$EXTMAX
 10
9.054602
 20
8.551777
 30
0.0
  9
$LIMMIN
 10
0.0
 20
0.0
  9
$LIMMAX
 10
12.0
 20
9.0
  9
$ORTHOMODE
 70
     0
  9
$REGENMODE
 70
     1
  9
$FILLMODE
 70
     1
  9
$QTEXTMODE
 70
     0
  9
$MIRRTEXT
 70
     1
  9
$DRAGMODE
 70
     2
  9
$LTSCALE
 40
1.0
  9
$OSMODE
 70
     0
  9
$ATTMODE
 70
     1
  9
$TEXTSIZE
 40
0.001
  9
$TRACEWID
 40
0.05
  9
$TEXTSTYLE
  7
STANDARD
  9
$CLAYER
  8
0
  9
$CELTYPE
  6
BYLAYER
  9
$CECOLOR
 62
   256
  9
$DIMSCALE
 40
1.0
  9
$DIMASZ
 40
0.18
  9
$DIMEXO
 40
0.0625
  9
$DIMDLI
 40
0.38
  9
$DIMRND
 40
0.0
  9
$DIMDLE
 40
0.0
  9
$DIMEXE
 40
0.18
  9
$DIMTP
 40
0.0
  9
$DIMTM
 40
0.0
  9
$DIMTXT
 40
0.18
  9
$DIMCEN
 40
0.09
  9
$DIMTSZ
 40
0.0
  9
$DIMTOL
 70
     0
  9
$DIMLIM
 70
     0
  9
$DIMTIH
 70
     1
  9
$DIMTOH
 70
     1
  9
$DIMSE1
 70
     0
  9
$DIMSE2
 70
     0
  9
$DIMTAD
 70
     0
  9
$DIMZIN
 70
     0
  9
$DIMBLK
  1

  9
$DIMASO
 70
     1
  9
$DIMSHO
 70
     0
  9
$DIMPOST
  1

  9
$DIMAPOST
  1

  9
$DIMALT
 70
     0
  9
$DIMALTD
 70
     2
  9
$DIMALTF
 40
25.4
  9
$DIMLFAC
 40
1.0
  9
$DIMTOFL
 70
     0
  9
$DIMTVP
 40
0.0
  9
$DIMTIX
 70
     0
  9
$DIMSOXD
 70
     0
  9
$DIMSAH
 70
     0
  9
$DIMBLK1
  1

  9
$DIMBLK2
  1

  9
$DIMSTYLE
  2
*UNNAMED
  9
$DIMCLRD
 70
     0
  9
$DIMCLRE
 70
     0
  9
$DIMCLRT
 70
     0
  9
$DIMTFAC
 40
1.0
  9
$DIMGAP
 40
0.09
  9
$LUNITS
 70
     2
  9
$LUPREC
 70
     4
  9
$SKETCHINC
 40
0.1
  9
$FILLETRAD
 40
0.0
  9
$AUNITS
 70
     0
  9
$AUPREC
 70
     0
  9
$MENU
  1
acad
  9
$ELEVATION
 40
0.0
  9
$PELEVATION
 40
0.0
  9
$THICKNESS
 40
0.0
  9
$LIMCHECK
 70
     0
  9
$BLIPMODE
 70
     1
  9
$CHAMFERA
 40
0.0
  9
$CHAMFERB
 40
0.0
  9
$SKPOLY
 70
     0
  9
$TDCREATE
 40
2451104.880059606
  9
$TDUPDATE
 40
2451104.880936805
  9
$TDINDWG
 40
0.0002065972
  9
$TDUSRTIMER
 40
0.0002065972
  9
$USRTIMER
 70
     1
  9
$ANGBASE
 50
0.0
  9
$ANGDIR
 70
     0
  9
$PDMODE
 70
     0
  9
$PDSIZE
 40
0.0
  9
$PLINEWID
 40
0.0
  9
$COORDS
 70
     0
  9
$SPLFRAME
 70
     0
  9
$SPLINETYPE
 70
     6
  9
$SPLINESEGS
 70
     8
  9
$ATTDIA
 70
     0
  9
$ATTREQ
 70
     1
  9
$HANDLING
 70
     0
  9
$HANDSEED
  5
0
  9
$SURFTAB1
 70
     6
  9
$SURFTAB2
 70
     6
  9
$SURFTYPE
 70
     6
  9
$SURFU
 70
     6
  9
$SURFV
 70
     6
  9
$UCSNAME
  2

  9
$UCSORG
 10
0.0
 20
0.0
 30
0.0
  9
$UCSXDIR
 10
1.0
 20
0.0
 30
0.0
  9
$UCSYDIR
 10
0.0
 20
1.0
 30
0.0
  9
$PUCSNAME
  2

  9
$PUCSORG
 10
0.0
 20
0.0
 30
0.0
  9
$PUCSXDIR
 10
1.0
 20
0.0
 30
0.0
  9
$PUCSYDIR
 10
0.0
 20
1.0
 30
0.0
  9
$USERI1
 70
     0
  9
$USERI2
 70
     0
  9
$USERI3
 70
     0
  9
$USERI4
 70
     0
  9
$USERI5
 70
     0
  9
$USERR1
 40
0.0
  9
$USERR2
 40
0.0
  9
$USERR3
 40
0.0
  9
$USERR4
 40
0.0
  9
$USERR5
 40
0.0
  9
$WORLDVIEW
 70
     1
  9
$SHADEDGE
 70
     3
  9
$SHADEDIF
 70
    70
  9
$TILEMODE
 70
     1
  9
$MAXACTVP
 70
    16
  9
$PINSBASE
 10
0.0
 20
0.0
 30
0.0
  9
$PLIMCHECK
 70
     0
  9
$PEXTMIN
 10
1.000000E+20
 20
1.000000E+20
 30
1.000000E+20
  9
$PEXTMAX
 10
-1.000000E+20
 20
-1.000000E+20
 30
-1.000000E+20
  9
$PLIMMIN
 10
0.0
 20
0.0
  9
$PLIMMAX
 10
12.0
 20
9.0
  9
$UNITMODE
 70
     0
  9
$VISRETAIN
 70
     0
  9
$PLINEGEN
 70
     0
  9
$PSLTSCALE
 70
     0
  9
$TREEDEPTH
 70
  3020
  9
$DWGCODEPAGE
  3
undefined
  0
ENDSEC
  0
SECTION
  2
TABLES
  0
TABLE
  2
VPORT
 70
     2
  0
VPORT
  2
*ACTIVE
 70
     0
 10
0.0
 20
0.0
 11
1.0
 21
1.0
 12
4.178745
 22
0.915101
 13
0.0
 23
0.0
 14
1.0
 24
1.0
 15
0.0
 25
0.0
 16
0.0
 26
0.0
 36
1.0
 17
0.0
 27
0.0
 37
0.0
 40
18.60798
 41
1.573846
 42
50.0
 43
0.0
 44
0.0
 50
0.0
 51
0.0
 71
     0
 72
   100
 73
     1
 74
     1
 75
     0
 76
     0
 77
     0
 78
     0
  0
ENDTAB
  0
TABLE
  2
LTYPE
 70
     1
  0
LTYPE
  2
CONTINUOUS
 70
    64
  3
Solid line
 72
    65
 73
     0
 40
0.0
  0
ENDTAB
  0
TABLE
  2
LAYER
 70
     1
  0
LAYER
  2
0
 70
    64
 62
     7
  6
CONTINUOUS
  0
ENDTAB
  0
TABLE
  2
STYLE
 70
     1
  0
STYLE
  2
STANDARD
 70
    64
 40
0.0
 41
1.0
 50
0.0
 71
     0
 42
0.001
  3
txt
  4

  0
ENDTAB
  0
TABLE
  2
VIEW
 70
     0
  0
ENDTAB
  0
TABLE
  2
UCS
 70
     0
  0
ENDTAB
  0
TABLE
  2
APPID
 70
     1
  0
APPID
  2
ACAD
 70
    64
  0
ENDTAB
  0
TABLE
  2
DIMSTYLE
 70
     0
  0
ENDTAB
  0
ENDSEC
  0
SECTION
  2
BLOCKS
  0
ENDSEC
  0
SECTION
  2
ENTITIES
  0
ARC
  8
0
 10
-1.725109
 20
-3.58771
 30
0.0
 40
1.75
 50
204.0373
 51
259.2515
  0
ARC
  8
0
 10
1.725097
 20
-3.58771
 30
0.0
 40
1.75
 50
280.7484
 51
335.9628
  0
ARC
  8
0
 10
0.0
 20
5.5
 30
0.0
 40
11.0
 50
259.2515
 51
280.7484
  0
LINE
  8
0
 10
-6.241719
 20
2.24279
 30
0.0
 11
-3.323349
 21
-4.30054
 31
0.0
  0
LINE
  8
0
 10
6.24172
 20
2.24279
 30
0.0
 11
3.323339
 21
-4.30054
 31
0.0
  0
CIRCLE
  8
0
 10
0.0
 20
0.0
 30
0.0
 40
1.75
  0
ARC
  8
0
 10
0.037001
 20
-28.785001
 30
0.0
 40
32.0
 50
80.857407
 51
99.290657
  0
ARC
  8
0
 10
-8.749999
 20
0.77125
 30
0.0
 40
0.25
 50
180.0
 51
274.6684
  0
ARC
  8
0
 10
8.749998
 20
0.77125
 30
0.0
 40
0.25
 50
265.3311
 51
0.0
  0
ARC
  8
0
 10
-7.749849
 20
0.10044
 30
0.0
 40
0.5
 50
24.03735
 51
94.66894
  0
ARC
  8
0
 10
7.749849
 20
0.10043
 30
0.0
 40
0.499999
 50
85.33106
 51
155.9629
  0
ARC
  8
0
 10
-3.488029
 20
-7.0
 30
0.0
 40
0.5
 50
204.0373
 51
270.0
  0
ARC
  8
0
 10
3.488027
 20
-7.0
 30
0.0
 40
0.5
 50
270.0
 51
335.9627
  0
LINE
  8
0
 10
7.438955
 20
0.627482
 30
0.0
 11
8.729649
 21
0.52208
 31
0.0
  0
LINE
  8
0
 10
3.944667
 20
-7.20367
 30
0.0
 11
7.293209
 21
0.3041
 31
0.0
  0
LINE
  8
0
 10
-3.944669
 20
-7.20367
 30
0.0
 11
-7.293209
 21
0.3041
 31
0.0
  0
LINE
  8
0
 10
-7.438945
 20
0.627497
 30
0.0
 11
-8.729649
 21
0.52208
 31
0.0
  0
ARC
  8
0
 10
-8.749999
 20
8.25
 30
0.0
 40
0.25
 50
90.0
 51
180.0
  0
LINE
  8
0
 10
8.999998
 20
8.25
 30
0.0
 11
8.999998
 21
0.77125
 31
0.0
  0
LINE
  8
0
 10
-8.999999
 20
8.25
 30
0.0
 11
-8.999999
 21
0.77125
 31
0.0
  0
LINE
  8
0
 10
-3.488029
 20
-7.5
 30
0.0
 11
3.488027
 21
-7.5
 31
0.0
  0
LINE
  8
0
 10
-8.749999
 20
8.5
 30
0.0
 11
8.749998
 21
8.5
 31
0.0
  0
ARC
  8
0
 10
8.749998
 20
8.25
 30
0.0
 40
0.25
 50
0.0
 51
90.0
  0
ARC
  8
0
 10
4.803762
 20
0.833878
 30
0.0
 40
2.0
 50
11.348101
 51
80.857407
  0
ARC
  8
0
 10
-4.806286
 20
0.821461
 30
0.0
 40
2.0
 50
99.290657
 51
168.387612
  0
ARC
  8
0
 10
-7.499997
 20
1.375007
 30
0.0
 40
0.75
 50
274.669208
 51
348.387612
  0
ARC
  8
0
 10
7.499999
 20
1.374993
 30
0.0
 40
0.75
 50
191.348101
 51
265.331399
  0
ATTDEF
  8
0
 10
0.0
 20
0.0
 30
0.0
 40
0.001
  1
K-4920-T
  3

  2
MODELNUMBER
 70
     8
  0
ATTDEF
  8
0
 10
0.0
 20
-0.0017
 30
0.0
 40
0.001
  1
BRANHAM
  3

  2
TRADENAME
 70
     8
  0
ATTDEF
  8
0
 10
0.0
 20
-0.0034
 30
0.0
 40
0.001
  1
C_URINALS
  3

  2
PRODUCT
 70
     8
  0
ATTDEF
  8
0
 10
0.0
 20
-0.0051
 30
0.0
 40
0.001
  1
VITREOUS CHINA
  3

  2
MATERIAL
 70
     8
  0
ENDSEC
  0
EOF
