  0
SECTION
  2
HEADER
  9
$ACADVER
  1
AC1009
  9
$INSBASE
 10
0.0
 20
0.0
 30
0.0
  9
$EXTMIN
 10
-5.4504171634108634
 20
-10.3390690352
 30
0.0
  9
$EXTMAX
 10
5.382467382399998
 20
4.6515583114373538
 30
0.0
  9
$LIMMIN
 10
0.0
 20
0.0
  9
$LIMMAX
 10
34.0
 20
22.0
  9
$ORTHOMODE
 70
     1
  9
$REGENMODE
 70
     1
  9
$FILLMODE
 70
     1
  9
$QTEXTMODE
 70
     0
  9
$MIRRTEXT
 70
     0
  9
$DRAGMODE
 70
     2
  9
$LTSCALE
 40
1.8700000000000001
  9
$OSMODE
 70
  2711
  9
$ATTMODE
 70
     1
  9
$TEXTSIZE
 40
0.2
  9
$TRACEWID
 40
0.05
  9
$TEXTSTYLE
  7
STANDARD
  9
$CLAYER
  8
0
  9
$CELTYPE
  6
BYLAYER
  9
$CECOLOR
 62
   256
  9
$DIMSCALE
 40
1.0
  9
$DIMASZ
 40
0.1875
  9
$DIMEXO
 40
0.2125
  9
$DIMDLI
 40
1.291999999999998
  9
$DIMRND
 40
0.0
  9
$DIMDLE
 40
0.0
  9
$DIMEXE
 40
0.612
  9
$DIMTP
 40
0.01
  9
$DIMTM
 40
0.01
  9
$DIMTXT
 40
0.15625
  9
$DIMCEN
 40
0.306
  9
$DIMTSZ
 40
0.0
  9
$DIMTOL
 70
     1
  9
$DIMLIM
 70
     0
  9
$DIMTIH
 70
     1
  9
$DIMTOH
 70
     1
  9
$DIMSE1
 70
     0
  9
$DIMSE2
 70
     0
  9
$DIMTAD
 70
     0
  9
$DIMZIN
 70
     0
  9
$DIMBLK
  1

  9
$DIMASO
 70
     1
  9
$DIMSHO
 70
     1
  9
$DIMPOST
  1

  9
$DIMAPOST
  1

  9
$DIMALT
 70
     0
  9
$DIMALTD
 70
     2
  9
$DIMALTF
 40
25.399999999999999
  9
$DIMLFAC
 40
1.0
  9
$DIMTOFL
 70
     0
  9
$DIMTVP
 40
0.0
  9
$DIMTIX
 70
     0
  9
$DIMSOXD
 70
     0
  9
$DIMSAH
 70
     0
  9
$DIMBLK1
  1

  9
$DIMBLK2
  1

  9
$DIMSTYLE
  2
STANDARD
  9
$DIMCLRD
 70
     0
  9
$DIMCLRE
 70
     0
  9
$DIMCLRT
 70
     0
  9
$DIMTFAC
 40
1.0
  9
$DIMGAP
 40
0.09
  9
$LUNITS
 70
     2
  9
$LUPREC
 70
     4
  9
$SKETCHINC
 40
0.1
  9
$FILLETRAD
 40
0.0
  9
$AUNITS
 70
     0
  9
$AUPREC
 70
     0
  9
$MENU
  1
.
  9
$ELEVATION
 40
0.0
  9
$PELEVATION
 40
0.0
  9
$THICKNESS
 40
0.0
  9
$LIMCHECK
 70
     0
  9
$BLIPMODE
 70
     0
  9
$CHAMFERA
 40
0.0
  9
$CHAMFERB
 40
0.0
  9
$SKPOLY
 70
     0
  9
$TDCREATE
 40
2453963.3555813781
  9
$TDUPDATE
 40
2453964.362882813
  9
$TDINDWG
 40
0.0397372338
  9
$TDUSRTIMER
 40
0.0397370602
  9
$USRTIMER
 70
     1
  9
$ANGBASE
 50
0.0
  9
$ANGDIR
 70
     0
  9
$PDMODE
 70
     3
  9
$PDSIZE
 40
0.3125
  9
$PLINEWID
 40
0.0
  9
$COORDS
 70
     1
  9
$SPLFRAME
 70
     0
  9
$SPLINETYPE
 70
     6
  9
$SPLINESEGS
 70
     8
  9
$ATTDIA
 70
     0
  9
$ATTREQ
 70
     1
  9
$HANDLING
 70
     1
  9
$HANDSEED
  5
615F
  9
$SURFTAB1
 70
     6
  9
$SURFTAB2
 70
     6
  9
$SURFTYPE
 70
     6
  9
$SURFU
 70
     6
  9
$SURFV
 70
     6
  9
$UCSNAME
  2

  9
$UCSORG
 10
0.0
 20
0.0
 30
0.0
  9
$UCSXDIR
 10
1.0
 20
0.0
 30
0.0
  9
$UCSYDIR
 10
0.0
 20
1.0
 30
0.0
  9
$PUCSNAME
  2

  9
$PUCSORG
 10
0.0
 20
0.0
 30
0.0
  9
$PUCSXDIR
 10
1.0
 20
0.0
 30
0.0
  9
$PUCSYDIR
 10
0.0
 20
1.0
 30
0.0
  9
$USERI1
 70
     0
  9
$USERI2
 70
     0
  9
$USERI3
 70
     0
  9
$USERI4
 70
     0
  9
$USERI5
 70
     0
  9
$USERR1
 40
0.0
  9
$USERR2
 40
0.0
  9
$USERR3
 40
0.0
  9
$USERR4
 40
0.0
  9
$USERR5
 40
0.0
  9
$WORLDVIEW
 70
     1
  9
$SHADEDGE
 70
     3
  9
$SHADEDIF
 70
    70
  9
$TILEMODE
 70
     1
  9
$MAXACTVP
 70
    64
  9
$PLIMCHECK
 70
     0
  9
$PEXTMIN
 10
1.0000000000000000E+020
 20
1.0000000000000000E+020
 30
1.0000000000000000E+020
  9
$PEXTMAX
 10
-1.0000000000000000E+020
 20
-1.0000000000000000E+020
 30
-1.0000000000000000E+020
  9
$PLIMMIN
 10
0.0
 20
0.0
  9
$PLIMMAX
 10
12.0
 20
9.0
  9
$UNITMODE
 70
     0
  9
$VISRETAIN
 70
     1
  9
$PLINEGEN
 70
     0
  9
$PSLTSCALE
 70
     1
  0
ENDSEC
  0
SECTION
  2
TABLES
  0
TABLE
  2
VPORT
 70
     2
  0
VPORT
  2
*ACTIVE
 70
     0
 10
0.0
 20
0.0
 11
1.0
 21
1.0
 12
-1.313762512646468
 22
-2.0295854756528882
 13
0.0
 23
0.0
 14
1.0
 24
1.0
 15
0.0
 25
0.0
 16
0.0
 26
0.0
 36
1.0
 17
0.0
 27
0.0
 37
0.0
 40
16.88361294531266
 41
1.607282184655396
 42
50.0
 43
0.0
 44
0.0
 50
0.0
 51
0.0
 71
     0
 72
   100
 73
     1
 74
     1
 75
     0
 76
     0
 77
     0
 78
     0
  0
ENDTAB
  0
TABLE
  2
LTYPE
 70
     1
  0
LTYPE
  2
CONTINUOUS
 70
     0
  3
Solid line
 72
    65
 73
     0
 40
0.0
  0
ENDTAB
  0
TABLE
  2
LAYER
 70
     1
  0
LAYER
  2
0
 70
     0
 62
     7
  6
CONTINUOUS
  0
ENDTAB
  0
TABLE
  2
STYLE
 70
     1
  0
STYLE
  2
STANDARD
 70
     0
 40
0.0
 41
0.8
 50
0.0
 71
     0
 42
0.2
  3
txt
  4

  0
ENDTAB
  0
TABLE
  2
VIEW
 70
     0
  0
ENDTAB
  0
TABLE
  2
UCS
 70
     0
  0
ENDTAB
  0
TABLE
  2
APPID
 70
     1
  0
APPID
  2
ACAD
 70
     0
  0
ENDTAB
  0
TABLE
  2
DIMSTYLE
 70
     1
  0
DIMSTYLE
  2
STANDARD
 70
     0
  3

  4

  5

  6

  7

 40
1.0
 41
0.1875
 42
0.0625
 43
0.38
 44
0.18
 45
0.0
 46
0.0
 47
0.01
 48
0.01
140
0.15625
141
0.09
142
0.0
143
25.399999999999999
144
1.0
145
0.0
146
1.0
147
0.09
 71
     1
 72
     0
 73
     1
 74
     1
 75
     0
 76
     0
 77
     0
 78
     4
170
     0
171
     2
172
     0
173
     0
174
     0
175
     0
176
     0
177
     0
178
     0
  0
ENDTAB
  0
ENDSEC
  0
SECTION
  2
BLOCKS
  0
BLOCK
  8
0
  2
$MODEL_SPACE
 70
     0
 10
0.0
 20
0.0
 30
0.0
  3
$MODEL_SPACE
  1

  0
ENDBLK
  5
5C53
  8
0
  0
BLOCK
 67
     1
  8
0
  2
$PAPER_SPACE
 70
     0
 10
0.0
 20
0.0
 30
0.0
  3
$PAPER_SPACE
  1

  0
ENDBLK
  5
5C4F
 67
     1
  8
0
  0
ENDSEC
  0
SECTION
  2
ENTITIES
  0
ATTDEF
  5
41C
  8
0
 10
-0.1344555732068038
 20
2.7692907892045922
 30
0.0
 40
0.01
  1
WATERLESS URINAL
  3

  2
PRODUCT
 70
     8
  0
ATTDEF
  5
41D
  8
0
 10
-0.1344555732068038
 20
2.7526241225378678
 30
0.0
 40
0.01
  1
VITREOUS CHINA
  3

  2
MATERIAL
 70
     8
  0
ATTDEF
  5
41E
  8
0
 10
-0.1344555732068038
 20
2.8026241225378952
 30
0.0
 40
0.01
  1
K-4917
  3

  2
MODELNUMBER
 70
     8
  0
ATTDEF
  5
41F
  8
0
 10
-0.1344555732068038
 20
2.7859574558712432
 30
0.0
 40
0.01
  1
STEWARD
  3

  2
TRADENAME
 70
     8
  0
POLYLINE
  5
5534
  8
0
 66
     1
 10
0.0
 20
0.0
 30
0.0
  0
VERTEX
  5
5C62
  8
0
 10
-0.0125035082000018
 20
-10.3390690349
 30
0.0
  0
VERTEX
  5
5C63
  8
0
 10
0.0398619317999973
 20
-10.338669342599999
 30
0.0
  0
VERTEX
  5
5C64
  8
0
 10
0.0972808339999993
 20
-10.3373135825
 30
0.0
  0
VERTEX
  5
5C65
  8
0
 10
0.1547536033999997
 20
-10.334996282200001
 30
0.0
  0
VERTEX
  5
5C66
  8
0
 10
0.2122281479999977
 20
-10.3317176296
 30
0.0
  0
VERTEX
  5
5C67
  8
0
 10
0.269712338599998
 20
-10.3274761219
 30
0.0
  0
VERTEX
  5
5C68
  8
0
 10
0.3272712632000001
 20
-10.3222631114
 30
0.0
  0
VERTEX
  5
5C69
  8
0
 10
0.3848839548999976
 20
-10.316074412100001
 30
0.0
  0
VERTEX
  5
5C6A
  8
0
 10
0.4425279601999998
 20
-10.3089073272
 30
0.0
  0
VERTEX
  5
5C6B
  8
0
 10
0.5002642902999988
 20
-10.3007470682
 30
0.0
  0
VERTEX
  5
5C6C
  8
0
 10
0.5580682482999997
 20
-10.291587934600001
 30
0.0
  0
VERTEX
  5
5C6D
  8
0
 10
0.6159169962999976
 20
-10.281427327999999
 30
0.0
  0
VERTEX
  5
5C6E
  8
0
 10
0.6738716670999985
 20
-10.2702470484
 30
0.0
  0
VERTEX
  5
5C6F
  8
0
 10
0.7319092777999999
 20
-10.2580417
 30
0.0
  0
VERTEX
  5
5C70
  8
0
 10
0.7900056481999978
 20
-10.2448070407
 30
0.0
  0
VERTEX
  5
5C71
  8
0
 10
0.8482168074000001
 20
-10.2305190121
 30
0.0
  0
VERTEX
  5
5C72
  8
0
 10
0.9065183493999987
 20
-10.2151702088
 30
0.0
  0
VERTEX
  5
5C73
  8
0
 10
0.9648846136999972
 20
-10.1987552984
 30
0.0
  0
VERTEX
  5
5C74
  8
0
 10
1.0233657015999951
 20
-10.181246464699999
 30
0.0
  0
VERTEX
  5
5C75
  8
0
 10
1.081933210299997
 20
-10.1626365512
 30
0.0
  0
VERTEX
  5
5C76
  8
0
 10
1.1405614455999991
 20
-10.1429204094
 30
0.0
  0
VERTEX
  5
5C77
  8
0
 10
1.199300097599997
 20
-10.1220669799
 30
0.0
  0
VERTEX
  5
5C78
  8
0
 10
1.2581207390999971
 20
-10.100069960700001
 30
0.0
  0
VERTEX
  5
5C79
  8
0
 10
1.3169971606999971
 20
-10.076923083900001
 30
0.0
  0
VERTEX
  5
5C7A
  8
0
 10
1.3759773728999991
 20
-10.052589406999999
 30
0.0
  0
VERTEX
  5
5C7B
  8
0
 10
1.435024460999996
 20
-10.0270643895
 30
0.0
  0
VERTEX
  5
5C7C
  8
0
 10
1.494116833799999
 20
-10.000339565199999
 30
0.0
  0
VERTEX
  5
5C7D
  8
0
 10
1.553319318299998
 20
-9.9723658765999961
 30
0.0
  0
VERTEX
  5
5C7E
  8
0
 10
1.6125931173999981
 20
-9.9431396442000022
 30
0.0
  0
VERTEX
  5
5C7F
  8
0
 10
1.6719143656999971
 20
-9.9126524329000016
 30
0.0
  0
VERTEX
  5
5C80
  8
0
 10
1.7313628380999959
 20
-9.8808407084999992
 30
0.0
  0
VERTEX
  5
5C81
  8
0
 10
1.790904815399996
 20
-9.8476970793000032
 30
0.0
  0
VERTEX
  5
5C82
  8
0
 10
1.8505088065999959
 20
-9.8132142400000006
 30
0.0
  0
VERTEX
  5
5C83
  8
0
 10
1.9102495647999991
 20
-9.7773212472999997
 30
0.0
  0
VERTEX
  5
5C84
  8
0
 10
1.9700920380999969
 20
-9.7400085308000008
 30
0.0
  0
VERTEX
  5
5C85
  8
0
 10
2.030000345799996
 20
-9.7012677480999994
 30
0.0
  0
VERTEX
  5
5C86
  8
0
 10
2.090039360799997
 20
-9.6610229152000002
 30
0.0
  0
VERTEX
  5
5C87
  8
0
 10
2.1501733875000002
 20
-9.6192609651999987
 30
0.0
  0
VERTEX
  5
5C88
  8
0
 10
2.2103599185999969
 20
-9.5759745611999971
 30
0.0
  0
VERTEX
  5
5C89
  8
0
 10
2.2706452955999961
 20
-9.5310907378000032
 30
0.0
  0
VERTEX
  5
5C8A
  8
0
 10
2.3309876644999949
 20
-9.4845986202999981
 30
0.0
  0
VERTEX
  5
5C8B
  8
0
 10
2.3913446288999962
 20
-9.4364898055000008
 30
0.0
  0
VERTEX
  5
5C8C
  8
0
 10
2.4517541246999981
 20
-9.3866909176000028
 30
0.0
  0
VERTEX
  5
5C8D
  8
0
 10
2.5121705615999961
 20
-9.3351943850999994
 30
0.0
  0
VERTEX
  5
5C8E
  8
0
 10
2.5725514731999959
 20
-9.2819917847000024
 30
0.0
  0
VERTEX
  5
5C8F
  8
0
 10
2.6329322377999982
 20
-9.2270044148999997
 30
0.0
  0
VERTEX
  5
5C90
  8
0
 10
2.6932668026000002
 20
-9.1702246704999997
 30
0.0
  0
VERTEX
  5
5C91
  8
0
 10
2.753510260199997
 20
-9.1116455256000002
 30
0.0
  0
VERTEX
  5
5C92
  8
0
 10
2.8136920691999969
 20
-9.0511853185999982
 30
0.0
  0
VERTEX
  5
5C93
  8
0
 10
2.873781862199996
 20
-8.988818601800002
 30
0.0
  0
VERTEX
  5
5C94
  8
0
 10
2.9337138433999992
 20
-8.9245580572000023
 30
0.0
  0
VERTEX
  5
5C95
  8
0
 10
2.993460029199996
 20
-8.8583775645000031
 30
0.0
  0
VERTEX
  5
5C96
  8
0
 10
3.0529921984999961
 20
-8.7902520164000002
 30
0.0
  0
VERTEX
  5
5C97
  8
0
 10
3.1122452361999979
 20
-8.7201999080999961
 30
0.0
  0
VERTEX
  5
5C98
  8
0
 10
3.1711381483999959
 20
-8.6482628422999976
 30
0.0
  0
VERTEX
  5
5C99
  8
0
 10
3.2296300917999958
 20
-8.5744404205000038
 30
0.0
  0
VERTEX
  5
5C9A
  8
0
 10
3.2876789209999959
 20
-8.4987362328000025
 30
0.0
  0
VERTEX
  5
5C9B
  8
0
 10
3.3452077926000001
 20
-8.4212015584999982
 30
0.0
  0
VERTEX
  5
5C9C
  8
0
 10
3.4021767512999959
 20
-8.3418456392000024
 30
0.0
  0
VERTEX
  5
5C9D
  8
0
 10
3.4585532965999981
 20
-8.2606703655999976
 30
0.0
  0
VERTEX
  5
5C9E
  8
0
 10
3.514277439499998
 20
-8.1777182826000026
 30
0.0
  0
VERTEX
  5
5C9F
  8
0
 10
3.5692937234999991
 20
-8.0930331727000002
 30
0.0
  0
VERTEX
  5
5CA0
  8
0
 10
3.6235954560999981
 20
-8.0065881037000004
 30
0.0
  0
VERTEX
  5
5CA1
  8
0
 10
3.6771944360000002
 20
-7.9183174240000014
 30
0.0
  0
VERTEX
  5
5CA2
  8
0
 10
3.7300464420999959
 20
-7.8282439668000006
 30
0.0
  0
VERTEX
  5
5CA3
  8
0
 10
3.782128614999996
 20
-7.7363585238000034
 30
0.0
  0
VERTEX
  5
5CA4
  8
0
 10
3.8334742563999971
 20
-7.6425416527000003
 30
0.0
  0
VERTEX
  5
5CA5
  8
0
 10
3.884040847799997
 20
-7.5468002882000009
 30
0.0
  0
VERTEX
  5
5CA6
  8
0
 10
3.933790407
 20
-7.4491370053000008
 30
0.0
  0
VERTEX
  5
5CA7
  8
0
 10
3.9827492643999971
 20
-7.3494198357
 30
0.0
  0
VERTEX
  5
5CA8
  8
0
 10
4.0308484516999981
 20
-7.2476978961999983
 30
0.0
  0
VERTEX
  5
5CA9
  8
0
 10
4.0780643521999984
 20
-7.1439300197999991
 30
0.0
  0
VERTEX
  5
5CAA
  8
0
 10
4.1244707060999968
 20
-7.0378415802000012
 30
0.0
  0
VERTEX
  5
5CAB
  8
0
 10
4.1699923172999949
 20
-6.9294668698000006
 30
0.0
  0
VERTEX
  5
5CAC
  8
0
 10
4.2145833114999949
 20
-6.818774287700001
 30
0.0
  0
VERTEX
  5
5CAD
  8
0
 10
4.2583295315000003
 20
-6.7053812069000003
 30
0.0
  0
VERTEX
  5
5CAE
  8
0
 10
4.3011668344999983
 20
-6.5892492334999968
 30
0.0
  0
VERTEX
  5
5CAF
  8
0
 10
4.3430026575999987
 20
-6.470418716900002
 30
0.0
  0
VERTEX
  5
5CB0
  8
0
 10
4.3838503600999967
 20
-6.3486194599000019
 30
0.0
  0
VERTEX
  5
5CB1
  8
0
 10
4.4236932674
 20
-6.223618527000002
 30
0.0
  0
VERTEX
  5
5CB2
  8
0
 10
4.462362560099999
 20
-6.095649540100001
 30
0.0
  0
VERTEX
  5
5CB3
  8
0
 10
4.4996512103999962
 20
-5.9651450934000021
 30
0.0
  0
VERTEX
  5
5CB4
  8
0
 10
4.5355086024999984
 20
-5.8320292885000002
 30
0.0
  0
VERTEX
  5
5CB5
  8
0
 10
4.569833350999998
 20
-5.6963936976999987
 30
0.0
  0
VERTEX
  5
5CB6
  8
0
 10
4.602392107
 20
-5.5589342358999989
 30
0.0
  0
VERTEX
  5
5CB7
  8
0
 10
4.6331231489999993
 20
-5.4197435142000003
 30
0.0
  0
VERTEX
  5
5CB8
  8
0
 10
4.6619979130999951
 20
-5.2787645397000009
 30
0.0
  0
VERTEX
  5
5CB9
  8
0
 10
4.6888860952999991
 20
-5.136479962300001
 30
0.0
  0
VERTEX
  5
5CBA
  8
0
 10
4.7137488631999993
 20
-4.9929910670000011
 30
0.0
  0
VERTEX
  5
5CBB
  8
0
 10
4.7365749587000003
 20
-4.8482398378999987
 30
0.0
  0
VERTEX
  5
5CBC
  8
0
 10
4.7573074182999928
 20
-4.702475108099998
 30
0.0
  0
VERTEX
  5
5CBD
  8
0
 10
4.7759282882000003
 20
-4.5557231771000009
 30
0.0
  0
VERTEX
  5
5CBE
  8
0
 10
4.7924179541999958
 20
-4.408003089900002
 30
0.0
  0
VERTEX
  5
5CBF
  8
0
 10
4.8067369799999948
 20
-4.2595556451000043
 30
0.0
  0
VERTEX
  5
5CC0
  8
0
 10
4.818872559299999
 20
-4.1104047777000012
 30
0.0
  0
VERTEX
  5
5CC1
  8
0
 10
4.8230452524
 20
-4.0515283359000014
 30
0.0
  0
SEQEND
  5
5CC2
  8
0
  0
POLYLINE
  5
5535
  8
0
 66
     1
 10
0.0
 20
0.0
 30
0.0
  0
VERTEX
  5
5CC3
  8
0
 10
-5.3434780565000013
 20
3.4238333064999962
 30
0.0
  0
VERTEX
  5
5CC4
  8
0
 10
-5.3432116614999998
 20
3.4247960106999971
 30
0.0
  0
VERTEX
  5
5CC5
  8
0
 10
-5.3410047585000013
 20
3.4265270383999971
 30
0.0
  0
VERTEX
  5
5CC6
  8
0
 10
-5.336560887600001
 20
3.4282199407999969
 30
0.0
  0
SEQEND
  5
5CC7
  8
0
  0
POLYLINE
  5
5538
  8
0
 66
     1
 10
0.0
 20
0.0
 30
0.0
  0
VERTEX
  5
5CC8
  8
0
 10
-4.8438860896999998
 20
-4.110306755599999
 30
0.0
  0
VERTEX
  5
5CC9
  8
0
 10
-4.8317531485000007
 20
-4.2594443803000033
 30
0.0
  0
VERTEX
  5
5CCA
  8
0
 10
-4.8174371618
 20
-4.407878747899999
 30
0.0
  0
VERTEX
  5
5CCB
  8
0
 10
-4.8009509181999999
 20
-4.5555859243000043
 30
0.0
  0
VERTEX
  5
5CCC
  8
0
 10
-4.7823337529000032
 20
-4.7023258588000001
 30
0.0
  0
VERTEX
  5
5CCD
  8
0
 10
-4.7616052412999998
 20
-4.8480795342
 30
0.0
  0
VERTEX
  5
5CCE
  8
0
 10
-4.7387832964000012
 20
-4.992820629099997
 30
0.0
  0
VERTEX
  5
5CCF
  8
0
 10
-4.7139247283000012
 20
-5.1363009822999981
 30
0.0
  0
VERTEX
  5
5CD0
  8
0
 10
-4.6870406703
 20
-5.278578935199997
 30
0.0
  0
VERTEX
  5
5CD1
  8
0
 10
-4.6581699343
 20
-5.4195528595999987
 30
0.0
  0
VERTEX
  5
5CD2
  8
0
 10
-4.6274428146000011
 20
-5.5587397830000018
 30
0.0
  0
VERTEX
  5
5CD3
  8
0
 10
-4.5948877605000007
 20
-5.6961969311000011
 30
0.0
  0
VERTEX
  5
5CD4
  8
0
 10
-4.5605664839000006
 20
-5.8318314468000008
 30
0.0
  0
VERTEX
  5
5CD5
  8
0
 10
-4.524712558200001
 20
-5.964946387200003
 30
0.0
  0
VERTEX
  5
5CD6
  8
0
 10
-4.4874274189000012
 20
-6.0954500028999998
 30
0.0
  0
VERTEX
  5
5CD7
  8
0
 10
-4.4487616144000013
 20
-6.2234183602000002
 30
0.0
  0
VERTEX
  5
5CD8
  8
0
 10
-4.4089223189000011
 20
-6.3484183841000004
 30
0.0
  0
VERTEX
  5
5CD9
  8
0
 10
-4.3680784518999989
 20
-6.4702162244000014
 30
0.0
  0
VERTEX
  5
5CDA
  8
0
 10
-4.326246631800001
 20
-6.5890450532999996
 30
0.0
  0
VERTEX
  5
5CDB
  8
0
 10
-4.2834134270000011
 20
-6.7051753058000001
 30
0.0
  0
VERTEX
  5
5CDC
  8
0
 10
-4.2396713947000002
 20
-6.8185666455999989
 30
0.0
  0
VERTEX
  5
5CDD
  8
0
 10
-4.1950846788000007
 20
-6.9292574587000004
 30
0.0
  0
VERTEX
  5
5CDE
  8
0
 10
-4.1495673651000011
 20
-7.0376305835000004
 30
0.0
  0
VERTEX
  5
5CDF
  8
0
 10
-4.1031653031000008
 20
-7.1437176790999981
 30
0.0
  0
VERTEX
  5
5CE0
  8
0
 10
-4.055953703300001
 20
-7.2474843937999989
 30
0.0
  0
VERTEX
  5
5CE1
  8
0
 10
-4.0078588046000014
 20
-7.3492053914999982
 30
0.0
  0
VERTEX
  5
5CE2
  8
0
 10
-3.958904206100001
 20
-7.4489218754999991
 30
0.0
  0
VERTEX
  5
5CE3
  8
0
 10
-3.9091588827999981
 20
-7.5465846976000019
 30
0.0
  0
VERTEX
  5
5CE4
  8
0
 10
-3.8585965261999999
 20
-7.6423257682000028
 30
0.0
  0
VERTEX
  5
5CE5
  8
0
 10
-3.807255118800001
 20
-7.7361425148
 30
0.0
  0
VERTEX
  5
5CE6
  8
0
 10
-3.7551771767000002
 20
-7.8280280083999978
 30
0.0
  0
VERTEX
  5
5CE7
  8
0
 10
-3.702329420600003
 20
-7.9181016404999989
 30
0.0
  0
VERTEX
  5
5CE8
  8
0
 10
-3.648734703900002
 20
-8.0063726328000016
 30
0.0
  0
VERTEX
  5
5CE9
  8
0
 10
-3.5944372524000001
 20
-8.0928181501000012
 30
0.0
  0
VERTEX
  5
5CEA
  8
0
 10
-3.5394253126000002
 20
-8.1775037709000031
 30
0.0
  0
VERTEX
  5
5CEB
  8
0
 10
-3.4837055893
 20
-8.2604564121000017
 30
0.0
  0
VERTEX
  5
5CEC
  8
0
 10
-3.4273335259
 20
-8.3416323170000002
 30
0.0
  0
VERTEX
  5
5CED
  8
0
 10
-3.3703691199999999
 20
-8.4209889259000015
 30
0.0
  0
VERTEX
  5
5CEE
  8
0
 10
-3.3128448776999981
 20
-8.4985243409999978
 30
0.0
  0
VERTEX
  5
5CEF
  8
0
 10
-3.254800748600001
 20
-8.5742293357000037
 30
0.0
  0
VERTEX
  5
5CF0
  8
0
 10
-3.1963135666000011
 20
-8.6480526403000013
 30
0.0
  0
VERTEX
  5
5CF1
  8
0
 10
-3.1374254766999989
 20
-8.7199906615000025
 30
0.0
  0
VERTEX
  5
5CF2
  8
0
 10
-3.0781773187999999
 20
-8.7900438063000017
 30
0.0
  0
VERTEX
  5
5CF3
  8
0
 10
-3.0186500696
 20
-8.8581704877000007
 30
0.0
  0
VERTEX
  5
5CF4
  8
0
 10
-2.9589088469
 20
-8.9243521993000012
 30
0.0
  0
VERTEX
  5
5CF5
  8
0
 10
-2.8989818619999999
 20
-8.9886140618000034
 30
0.0
  0
VERTEX
  5
5CF6
  8
0
 10
-2.838897059100002
 20
-9.0509822361999994
 30
0.0
  0
VERTEX
  5
5CF7
  8
0
 10
-2.7787202172000001
 20
-9.1114440455999972
 30
0.0
  0
VERTEX
  5
5CF8
  8
0
 10
-2.7184817078000001
 20
-9.1700249282999984
 30
0.0
  0
VERTEX
  5
5CF9
  8
0
 10
-2.6581520646999999
 20
-9.2268065547999996
 30
0.0
  0
VERTEX
  5
5CFA
  8
0
 10
-2.5977761844999989
 20
-9.2817959518999995
 30
0.0
  0
VERTEX
  5
5CFB
  8
0
 10
-2.5374001179000021
 20
-9.3350007206000001
 30
0.0
  0
VERTEX
  5
5CFC
  8
0
 10
-2.476988495400001
 20
-9.3864995578000023
 30
0.0
  0
VERTEX
  5
5CFD
  8
0
 10
-2.4165837746999999
 20
-9.4363008849999996
 30
0.0
  0
VERTEX
  5
5CFE
  8
0
 10
-2.3562315394
 20
-9.4844122688000034
 30
0.0
  0
VERTEX
  5
5CFF
  8
0
 10
-2.29589387
 20
-9.5309070715999962
 30
0.0
  0
VERTEX
  5
5D00
  8
0
 10
-2.2356131609999998
 20
-9.575793691500003
 30
0.0
  0
VERTEX
  5
5D01
  8
0
 10
-2.1754312585000002
 20
-9.6190830034000037
 30
0.0
  0
VERTEX
  5
5D02
  8
0
 10
-2.115301835199999
 20
-9.6608479665000004
 30
0.0
  0
VERTEX
  5
5D03
  8
0
 10
-2.0552673971000002
 20
-9.7010959136000032
 30
0.0
  0
VERTEX
  5
5D04
  8
0
 10
-1.9953636344000021
 20
-9.7398399124000026
 30
0.0
  0
VERTEX
  5
5D05
  8
0
 10
-1.9355256834000001
 20
-9.7771559480999972
 30
0.0
  0
VERTEX
  5
5D06
  8
0
 10
-1.8757894205000021
 20
-9.8130523630000024
 30
0.0
  0
VERTEX
  5
5D07
  8
0
 10
-1.816189892900002
 20
-9.8475387268999999
 30
0.0
  0
VERTEX
  5
5D08
  8
0
 10
-1.7566523592000001
 20
-9.8806859852999995
 30
0.0
  0
VERTEX
  5
5D09
  8
0
 10
-1.6972083053000011
 20
-9.9125014438999983
 30
0.0
  0
VERTEX
  5
5D0A
  8
0
 10
-1.6378914442000001
 20
-9.942992493200002
 30
0.0
  0
VERTEX
  5
5D0B
  8
0
 10
-1.578622012599999
 20
-9.9722226697000025
 30
0.0
  0
VERTEX
  5
5D0C
  8
0
 10
-1.519423865900001
 20
-10.0002004089
 30
0.0
  0
VERTEX
  5
5D0D
  8
0
 10
-1.4603357972999991
 20
-10.026929383400001
 30
0.0
  0
VERTEX
  5
5D0E
  8
0
 10
-1.4012930014000009
 20
-10.0524586433
 30
0.0
  0
VERTEX
  5
5D0F
  8
0
 10
-1.3423170669000011
 20
-10.076796652100001
 30
0.0
  0
VERTEX
  5
5D10
  8
0
 10
-1.2834449064000031
 20
-10.099947949100001
 30
0.0
  0
VERTEX
  5
5D11
  8
0
 10
-1.224628532599999
 20
-10.121949476099999
 30
0.0
  0
VERTEX
  5
5D12
  8
0
 10
-1.165894153200002
 20
-10.1428075019
 30
0.0
  0
VERTEX
  5
5D13
  8
0
 10
-1.1072701878000011
 20
-10.162528330900001
 30
0.0
  0
VERTEX
  5
5D14
  8
0
 10
-1.0487069599000021
 20
-10.181143025900001
 30
0.0
  0
VERTEX
  5
5D15
  8
0
 10
-0.9902301565000007
 20
-10.1986567354
 30
0.0
  0
VERTEX
  5
5D16
  8
0
 10
-0.9318681768000017
 20
-10.215076612700001
 30
0.0
  0
VERTEX
  5
5D17
  8
0
 10
-0.8735709387000021
 20
-10.2304304736
 30
0.0
  0
VERTEX
  5
5D18
  8
0
 10
-0.8153641064000003
 20
-10.244723647900001
 30
0.0
  0
VERTEX
  5
5D19
  8
0
 10
-0.7572720816000002
 20
-10.257963545200001
 30
0.0
  0
VERTEX
  5
5D1A
  8
0
 10
-0.6992388421000017
 20
-10.270174235800001
 30
0.0
  0
VERTEX
  5
5D1B
  8
0
 10
-0.6412885665000019
 20
-10.2813599649
 30
0.0
  0
VERTEX
  5
5D1C
  8
0
 10
-0.5834442243000027
 20
-10.291526131099999
 30
0.0
  0
VERTEX
  5
5D1D
  8
0
 10
-0.5256446675000001
 20
-10.3006909469
 30
0.0
  0
VERTEX
  5
5D1E
  8
0
 10
-0.4679127284000019
 20
-10.3088570066
 30
0.0
  0
VERTEX
  5
5D1F
  8
0
 10
-0.4102730984000013
 20
-10.3160300068
 30
0.0
  0
VERTEX
  5
5D20
  8
0
 10
-0.3526647471000004
 20
-10.3222247459
 30
0.0
  0
VERTEX
  5
5D21
  8
0
 10
-0.2951101271000027
 20
-10.3274439169
 30
0.0
  0
VERTEX
  5
5D22
  8
0
 10
-0.2376302080000023
 20
-10.331691706499999
 30
0.0
  0
VERTEX
  5
5D23
  8
0
 10
-0.1801598880000021
 20
-10.3349767767
 30
0.0
  0
VERTEX
  5
5D24
  8
0
 10
-0.1226912818000017
 20
-10.3373006342
 30
0.0
  0
VERTEX
  5
5D25
  8
0
 10
-0.0652764721000025
 20
-10.3386630871
 30
0.0
  0
VERTEX
  5
5D26
  8
0
 10
-0.0125035082000018
 20
-10.3390690352
 30
0.0
  0
SEQEND
  5
5D27
  8
0
  0
LINE
  5
5539
  8
0
 10
-5.3271446684000008
 20
3.3411630661999969
 30
0.0
 11
-5.3282346568000012
 21
3.356707512499999
 31
0.0
  0
LINE
  5
553A
  8
0
 10
-4.8481760667999989
 20
-4.049671202899999
 30
0.0
 11
-4.8438860896999998
 21
-4.110306755599999
 31
0.0
  0
LINE
  5
553B
  8
0
 10
-4.8959698682999999
 20
-3.342352512299998
 30
0.0
 11
-4.8481760443999988
 21
-4.0496715345000034
 31
0.0
  0
LINE
  5
553C
  8
0
 10
-5.3277967718000001
 20
3.3477722768999958
 30
0.0
 11
-5.3266982273000014
 21
3.3319113027
 31
0.0
  0
LINE
  5
553D
  8
0
 10
-4.9524931411999997
 20
-2.5018061246999981
 30
0.0
 11
-4.8959698682999999
 21
-3.342352512299998
 31
0.0
  0
LINE
  5
553E
  8
0
 10
-5.0130216279000006
 20
-1.597160847800001
 30
0.0
 11
-4.9524931411999997
 21
-2.5018061246999981
 31
0.0
  0
LINE
  5
553F
  8
0
 10
-5.0744835548999987
 20
-0.6739669670000015
 30
0.0
 11
-5.0130216279000006
 21
-1.597160847800001
 31
0.0
  0
LINE
  5
5540
  8
0
 10
-5.1341181018000013
 20
0.2261502267999984
 30
0.0
 11
-5.0744835548999987
 21
-0.6739669670000015
 31
0.0
  0
LINE
  5
5541
  8
0
 10
-5.2179296982000007
 20
1.498701830999998
 30
0.0
 11
-5.1341181018000013
 21
0.2261502267999984
 31
0.0
  0
LINE
  5
5542
  8
0
 10
-5.2834905782000012
 20
2.5008368833999981
 30
0.0
 11
-5.2179296982000007
 21
1.498701830999998
 31
0.0
  0
POLYLINE
  5
5543
  8
0
 66
     1
 10
0.0
 20
0.0
 30
0.0
  0
VERTEX
  5
5D28
  8
0
 10
-5.4070997312000006
 20
4.4109035785999957
 30
0.0
  0
VERTEX
  5
5D29
  8
0
 10
-5.3899425999000012
 20
4.1437210034999961
 30
0.0
  0
VERTEX
  5
5D2A
  8
0
 10
-5.3434784568999998
 20
3.4238394884999992
 30
0.0
  0
SEQEND
  5
5D2B
  8
0
  0
LINE
  5
5544
  8
0
 10
-5.3259508451000004
 20
3.3228889443999958
 30
0.0
 11
-5.3271446684000008
 21
3.3411630661999969
 31
0.0
  0
LINE
  5
5545
  8
0
 10
-5.3266982273000014
 20
3.3319113027
 30
0.0
 11
-5.3255289607999998
 21
3.3137772667999958
 31
0.0
  0
LINE
  5
5546
  8
0
 10
-5.3241999205000017
 20
3.2938090732999981
 30
0.0
 11
-5.3259508451000004
 21
3.3228889443999958
 31
0.0
  0
LINE
  5
5547
  8
0
 10
-5.3255289607999998
 20
3.3137772667999958
 30
0.0
 11
-5.3240402844999988
 21
3.2889092935999971
 31
0.0
  0
POLYLINE
  5
5548
  8
0
 66
     1
 10
0.0
 20
0.0
 30
0.0
  0
VERTEX
  5
5D2C
  8
0
 10
-5.3036742536000014
 20
2.850852936699996
 30
0.0
  0
VERTEX
  5
5D2D
  8
0
 10
-5.2924463977
 20
2.6452719008999992
 30
0.0
  0
VERTEX
  5
5D2E
  8
0
 10
-5.2834904425999998
 20
2.5008371788999981
 30
0.0
  0
SEQEND
  5
5D2F
  8
0
  0
LINE
  5
5549
  8
0
 10
-5.3240402844999988
 20
3.2889092935999971
 30
0.0
 11
-5.3221920952000001
 21
3.2553984541999981
 31
0.0
  0
LINE
  5
554A
  8
0
 10
-5.3222825070999988
 20
3.259006402199998
 30
0.0
 11
-5.3241999205000017
 21
3.2938090732999981
 31
0.0
  0
POLYLINE
  5
554B
  8
0
 66
     1
 10
0.0
 20
0.0
 30
0.0
  0
VERTEX
  5
5D30
  8
0
 10
-5.3077212441999997
 20
2.9349354077999981
 30
0.0
  0
VERTEX
  5
5D31
  8
0
 10
-5.3020052517999989
 20
2.8183814807999981
 30
0.0
  0
VERTEX
  5
5D32
  8
0
 10
-5.2957052917
 20
2.7017896797999992
 30
0.0
  0
VERTEX
  5
5D33
  8
0
 10
-5.288830948500002
 20
2.5852655724999991
 30
0.0
  0
VERTEX
  5
5D34
  8
0
 10
-5.2834905782000012
 20
2.5008368833999981
 30
0.0
  0
SEQEND
  5
5D35
  8
0
  0
LINE
  5
554C
  8
0
 10
-5.3222825070999988
 20
3.259006402199998
 30
0.0
 11
-5.3196465401999991
 21
3.204804939999998
 31
0.0
  0
LINE
  5
554D
  8
0
 10
-5.3152950304000033
 20
3.1096234704999981
 30
0.0
 11
-5.319770801999999
 21
3.2090275676000002
 31
0.0
  0
POLYLINE
  5
554E
  8
0
 66
     1
 10
0.0
 20
0.0
 30
0.0
  0
VERTEX
  5
5D36
  8
0
 10
-5.3156272093000014
 20
3.116093686099997
 30
0.0
  0
VERTEX
  5
5D37
  8
0
 10
-5.312935168700001
 20
3.052479769399997
 30
0.0
  0
VERTEX
  5
5D38
  8
0
 10
-5.3077212441999997
 20
2.9349354077999981
 30
0.0
  0
SEQEND
  5
5D39
  8
0
  0
POLYLINE
  5
554F
  8
0
 66
     1
 10
0.0
 20
0.0
 30
0.0
  0
VERTEX
  5
5D3A
  8
0
 10
-5.3036742536000014
 20
2.850852936699996
 30
0.0
  0
VERTEX
  5
5D3B
  8
0
 10
-5.3133368307000008
 20
3.0631748404999981
 30
0.0
  0
VERTEX
  5
5D3C
  8
0
 10
-5.3138253861999996
 20
3.0748734504999971
 30
0.0
  0
SEQEND
  5
5D3D
  8
0
  0
POLYLINE
  5
5551
  8
0
 66
     1
 10
0.0
 20
0.0
 30
0.0
  0
VERTEX
  5
5D3E
  8
0
 10
-2.8433917509000022
 20
1.5090222129999971
 30
0.0
  0
VERTEX
  5
5D3F
  8
0
 10
-2.8882705481000031
 20
1.4525975321999991
 30
0.0
  0
VERTEX
  5
5D40
  8
0
 10
-2.944825073800001
 20
1.379266544999999
 30
0.0
  0
VERTEX
  5
5D41
  8
0
 10
-2.9619711635999999
 20
1.356516971199998
 30
0.0
  0
SEQEND
  5
5D42
  8
0
  0
POLYLINE
  5
5552
  8
0
 66
     1
 10
0.0
 20
0.0
 30
0.0
  0
VERTEX
  5
5D43
  8
0
 10
-2.8434547580000031
 20
1.5089442805
 30
0.0
  0
VERTEX
  5
5D44
  8
0
 10
-2.7963463623
 20
1.5665549428999981
 30
0.0
  0
VERTEX
  5
5D45
  8
0
 10
-2.7409162115000001
 20
1.6322951669999981
 30
0.0
  0
VERTEX
  5
5D46
  8
0
 10
-2.6851731808000019
 20
1.696254800799998
 30
0.0
  0
VERTEX
  5
5D47
  8
0
 10
-2.629157256300001
 20
1.7584322021999981
 30
0.0
  0
VERTEX
  5
5D48
  8
0
 10
-2.5729407242000022
 20
1.818794818299998
 30
0.0
  0
VERTEX
  5
5D49
  8
0
 10
-2.516570730400002
 20
1.877340866699998
 30
0.0
  0
VERTEX
  5
5D4A
  8
0
 10
-2.4600828860000021
 20
1.934081544699999
 30
0.0
  0
VERTEX
  5
5D4B
  8
0
 10
-2.403535283900001
 20
1.9890089689999959
 30
0.0
  0
VERTEX
  5
5D4C
  8
0
 10
-2.3469907571999991
 20
2.0421161728000001
 30
0.0
  0
VERTEX
  5
5D4D
  8
0
 10
-2.2904786202
 20
2.0934312940999962
 30
0.0
  0
VERTEX
  5
5D4E
  8
0
 10
-2.2340066970999999
 20
2.1430014251
 30
0.0
  0
VERTEX
  5
5D4F
  8
0
 10
-2.1776279367000022
 20
2.1908324541999979
 30
0.0
  0
VERTEX
  5
5D50
  8
0
 10
-2.1213810535000022
 20
2.2369432193999961
 30
0.0
  0
VERTEX
  5
5D51
  8
0
 10
-2.0652474897999991
 20
2.2813986247999982
 30
0.0
  0
VERTEX
  5
5D52
  8
0
 10
-2.009280303900002
 20
2.3242043239999961
 30
0.0
  0
VERTEX
  5
5D53
  8
0
 10
-1.9535135202
 20
2.3653819067999962
 30
0.0
  0
VERTEX
  5
5D54
  8
0
 10
-1.8978924959000021
 20
2.4050160843999961
 30
0.0
  0
VERTEX
  5
5D55
  8
0
 10
-1.842457162699999
 20
2.4431191894999991
 30
0.0
  0
VERTEX
  5
5D56
  8
0
 10
-1.787246708700003
 20
2.4797048575999989
 30
0.0
  0
VERTEX
  5
5D57
  8
0
 10
-1.7321966066000021
 20
2.5148535257999982
 30
0.0
  0
VERTEX
  5
5D58
  8
0
 10
-1.6773405087000011
 20
2.5485791298999989
 30
0.0
  0
VERTEX
  5
5D59
  8
0
 10
-1.622716019899999
 20
2.580895614899998
 30
0.0
  0
VERTEX
  5
5D5A
  8
0
 10
-1.5682561866000011
 20
2.611876924699998
 30
0.0
  0
VERTEX
  5
5D5B
  8
0
 10
-1.5139940572999979
 20
2.641536139799999
 30
0.0
  0
VERTEX
  5
5D5C
  8
0
 10
-1.4599645558000021
 20
2.6698871127000001
 30
0.0
  0
VERTEX
  5
5D5D
  8
0
 10
-1.4060958747000001
 20
2.6969974383999991
 30
0.0
  0
VERTEX
  5
5D5E
  8
0
 10
-1.352418611900001
 20
2.7228787111999981
 30
0.0
  0
VERTEX
  5
5D5F
  8
0
 10
-1.2989644753
 20
2.747543136299996
 30
0.0
  0
VERTEX
  5
5D60
  8
0
 10
-1.245655664899999
 20
2.7710510900999981
 30
0.0
  0
VERTEX
  5
5D61
  8
0
 10
-1.192513477400001
 20
2.793414792699997
 30
0.0
  0
VERTEX
  5
5D62
  8
0
 10
-1.139572642699999
 20
2.8146420975000002
 30
0.0
  0
VERTEX
  5
5D63
  8
0
 10
-1.086768969499998
 20
2.8347789373999981
 30
0.0
  0
VERTEX
  5
5D64
  8
0
 10
-1.034124049200001
 20
2.8538349402999992
 30
0.0
  0
VERTEX
  5
5D65
  8
0
 10
-0.9816680865000007
 20
2.8718177718999982
 30
0.0
  0
VERTEX
  5
5D66
  8
0
 10
-0.9293445291000031
 20
2.8887633647999991
 30
0.0
  0
VERTEX
  5
5D67
  8
0
 10
-0.8771770496000002
 20
2.904679187799998
 30
0.0
  0
VERTEX
  5
5D68
  8
0
 10
-0.825188682300002
 20
2.9195752715999959
 30
0.0
  0
VERTEX
  5
5D69
  8
0
 10
-0.7733173951999997
 20
2.9334843364999958
 30
0.0
  0
VERTEX
  5
5D6A
  8
0
 10
-0.7215849257000038
 20
2.9464139087999981
 30
0.0
  0
SEQEND
  5
5D6B
  8
0
  0
LINE
  5
5553
  8
0
 10
-5.3316543247999988
 20
3.3930491936999969
 30
0.0
 11
-5.3314232663999999
 21
3.3908965961999962
 31
0.0
  0
LINE
  5
5554
  8
0
 10
-5.332072763500002
 20
3.4019858213999981
 30
0.0
 11
-5.3325821958000006
 21
3.406744798699997
 31
0.0
  0
LINE
  5
5555
  8
0
 10
-5.3314232663999999
 20
3.3908965961999962
 30
0.0
 11
-5.331029786300002
 21
3.3870252619999981
 31
0.0
  0
LINE
  5
5556
  8
0
 10
-5.331546982699999
 20
3.396734555599997
 30
0.0
 11
-5.332072763500002
 21
3.4019858213999981
 31
0.0
  0
LINE
  5
5557
  8
0
 10
-5.331029786300002
 20
3.3870252619999981
 30
0.0
 11
-5.3305864881000034
 21
3.382388238999996
 31
0.0
  0
LINE
  5
5558
  8
0
 10
-5.331003388200001
 20
3.3909646250999992
 30
0.0
 11
-5.331546982699999
 21
3.396734555599997
 31
0.0
  0
LINE
  5
5559
  8
0
 10
-5.3305864881000034
 20
3.382388238999996
 30
0.0
 11
-5.330099036
 21
3.3769860281999979
 31
0.0
  0
LINE
  5
555A
  8
0
 10
-5.3304392706000012
 20
3.384630721199998
 30
0.0
 11
-5.331003388200001
 21
3.3909646250999992
 31
0.0
  0
LINE
  5
555B
  8
0
 10
-5.330099036
 20
3.3769860281999979
 30
0.0
 11
-5.329572667199999
 21
3.3708241458999981
 31
0.0
  0
LINE
  5
555C
  8
0
 10
-5.3295441136000008
 20
3.373883621699997
 30
0.0
 11
-5.3304392706000012
 21
3.384630721199998
 31
0.0
  0
LINE
  5
555D
  8
0
 10
-5.329572667199999
 20
3.3708241458999981
 30
0.0
 11
-5.3288177258000013
 21
3.361434415599998
 31
0.0
  0
POLYLINE
  5
555E
  8
0
 66
     1
 10
0.0
 20
0.0
 30
0.0
  0
VERTEX
  5
5D6C
  8
0
 10
-5.3288177258000013
 20
3.361434415599998
 30
0.0
  0
VERTEX
  5
5D6D
  8
0
 10
-5.3280074229000007
 20
3.350678332599998
 30
0.0
  0
VERTEX
  5
5D6E
  8
0
 10
-5.3277967718000001
 20
3.3477722768999958
 30
0.0
  0
SEQEND
  5
5D6F
  8
0
  0
POLYLINE
  5
555F
  8
0
 66
     1
 10
0.0
 20
0.0
 30
0.0
  0
VERTEX
  5
5D70
  8
0
 10
-5.3282346568000012
 20
3.356707512499999
 30
0.0
  0
VERTEX
  5
5D71
  8
0
 10
-5.3285763927999987
 20
3.3613543209999981
 30
0.0
  0
VERTEX
  5
5D72
  8
0
 10
-5.3295441136000008
 20
3.373883621699997
 30
0.0
  0
SEQEND
  5
5D73
  8
0
  0
POLYLINE
  5
5560
  8
0
 66
     1
 10
0.0
 20
0.0
 30
0.0
  0
VERTEX
  5
5D74
  8
0
 10
-3.3590628113999998
 20
0.7036193978000012
 30
0.0
  0
VERTEX
  5
5D75
  8
0
 10
-3.3917411603000001
 20
0.6303917068999964
 30
0.0
  0
VERTEX
  5
5D76
  8
0
 10
-3.4231706425000001
 20
0.5565434674999997
 30
0.0
  0
VERTEX
  5
5D77
  8
0
 10
-3.4533042102999989
 20
0.4821693607999973
 30
0.0
  0
VERTEX
  5
5D78
  8
0
 10
-3.4821383194000002
 20
0.4072623150999993
 30
0.0
  0
VERTEX
  5
5D79
  8
0
 10
-3.5096410816999999
 20
0.3318931192999988
 30
0.0
  0
VERTEX
  5
5D7A
  8
0
 10
-3.5357365571999999
 20
0.256277942400001
 30
0.0
  0
VERTEX
  5
5D7B
  8
0
 10
-3.5604263784000021
 20
0.1804325217999971
 30
0.0
  0
VERTEX
  5
5D7C
  8
0
 10
-3.5836986732000011
 20
0.1044128650000009
 30
0.0
  0
VERTEX
  5
5D7D
  8
0
 10
-3.6054805173000002
 20
0.0285008180999999
 30
0.0
  0
VERTEX
  5
5D7E
  8
0
 10
-3.6257391975000002
 20
-0.0471049621000002
 30
0.0
  0
VERTEX
  5
5D7F
  8
0
 10
-3.6445315614999991
 20
-0.1225288275999996
 30
0.0
  0
VERTEX
  5
5D80
  8
0
 10
-3.6619198445999999
 20
-0.1979739227000006
 30
0.0
  0
VERTEX
  5
5D81
  8
0
 10
-3.6779219729000019
 20
-0.2735116879000006
 30
0.0
  0
VERTEX
  5
5D82
  8
0
 10
-3.6925100563000002
 20
-0.3490058156000013
 30
0.0
  0
VERTEX
  5
5D83
  8
0
 10
-3.705670683300001
 20
-0.4243495184000028
 30
0.0
  0
VERTEX
  5
5D84
  8
0
 10
-3.7174242584000021
 20
-0.499617322400002
 30
0.0
  0
VERTEX
  5
5D85
  8
0
 10
-3.727755886500002
 20
-0.5746698868000021
 30
0.0
  0
VERTEX
  5
5D86
  8
0
 10
-3.7366269603000002
 20
-0.6490798023000007
 30
0.0
  0
VERTEX
  5
5D87
  8
0
 10
-3.7440426089000001
 20
-0.7225788199000003
 30
0.0
  0
VERTEX
  5
5D88
  8
0
 10
-3.7500604711999999
 20
-0.7953770995999993
 30
0.0
  0
VERTEX
  5
5D89
  8
0
 10
-3.7547252648999998
 20
-0.8677659830000013
 30
0.0
  0
VERTEX
  5
5D8A
  8
0
 10
-3.7580506190000009
 20
-0.939824086300003
 30
0.0
  0
VERTEX
  5
5D8B
  8
0
 10
-3.76003854
 20
-1.0114185816000001
 30
0.0
  0
VERTEX
  5
5D8C
  8
0
 10
-3.7606989562000011
 20
-1.0825235666999991
 30
0.0
  0
SEQEND
  5
5D8D
  8
0
  0
LINE
  5
5561
  8
0
 10
-3.3502712146000002
 20
0.7227551561000003
 30
0.0
 11
-3.3590628113999998
 21
0.7036193978000012
 31
0.0
  0
POLYLINE
  5
5562
  8
0
 66
     1
 10
0.0
 20
0.0
 30
0.0
  0
VERTEX
  5
5D8E
  8
0
 10
-3.3503610916
 20
0.7225606842999964
 30
0.0
  0
VERTEX
  5
5D8F
  8
0
 10
-3.3466184072999998
 20
0.7305863272000015
 30
0.0
  0
VERTEX
  5
5D90
  8
0
 10
-3.341447075
 20
0.7414788858999981
 30
0.0
  0
VERTEX
  5
5D91
  8
0
 10
-3.334796279599999
 20
0.7552247646000017
 30
0.0
  0
VERTEX
  5
5D92
  8
0
 10
-3.3264148575000001
 20
0.7722047251999986
 30
0.0
  0
VERTEX
  5
5D93
  8
0
 10
-3.3162508292999999
 20
0.7923672434999998
 30
0.0
  0
VERTEX
  5
5D94
  8
0
 10
-3.3045363734000031
 20
0.8151070016999963
 30
0.0
  0
VERTEX
  5
5D95
  8
0
 10
-3.2911965397
 20
0.8404361418999965
 30
0.0
  0
VERTEX
  5
5D96
  8
0
 10
-3.2761440389000001
 20
0.8683777551999977
 30
0.0
  0
VERTEX
  5
5D97
  8
0
 10
-3.2597413386
 20
0.8981358104999978
 30
0.0
  0
VERTEX
  5
5D98
  8
0
 10
-3.2419337351999991
 20
0.9297113322000004
 30
0.0
  0
VERTEX
  5
5D99
  8
0
 10
-3.2227597067999998
 20
0.9629382747000012
 30
0.0
  0
VERTEX
  5
5D9A
  8
0
 10
-3.2028793516
 20
0.9966159656000003
 30
0.0
  0
VERTEX
  5
5D9B
  8
0
 10
-3.182417025400003
 20
1.0305199099000011
 30
0.0
  0
VERTEX
  5
5D9C
  8
0
 10
-3.1613999223999998
 20
1.0645954525000001
 30
0.0
  0
VERTEX
  5
5D9D
  8
0
 10
-3.1404728279000031
 20
1.0978179452999961
 30
0.0
  0
VERTEX
  5
5D9E
  8
0
 10
-3.119860549999999
 20
1.129887812499998
 30
0.0
  0
VERTEX
  5
5D9F
  8
0
 10
-3.099578144300001
 20
1.1608415337999991
 30
0.0
  0
VERTEX
  5
5DA0
  8
0
 10
-3.0800211034
 20
1.190144675399998
 30
0.0
  0
VERTEX
  5
5DA1
  8
0
 10
-3.0614369844000011
 20
1.2175123263999981
 30
0.0
  0
VERTEX
  5
5DA2
  8
0
 10
-3.0438303276999989
 20
1.2430230282000001
 30
0.0
  0
VERTEX
  5
5DA3
  8
0
 10
-3.0272447934000031
 20
1.2666907510999961
 30
0.0
  0
VERTEX
  5
5DA4
  8
0
 10
-3.0118521394000002
 20
1.2883460971
 30
0.0
  0
VERTEX
  5
5DA5
  8
0
 10
-2.9977017503000001
 20
1.3079944328999991
 30
0.0
  0
VERTEX
  5
5DA6
  8
0
 10
-2.984640053400001
 20
1.3259130454000001
 30
0.0
  0
SEQEND
  5
5DA7
  8
0
  0
LINE
  5
5563
  8
0
 10
-5.3323292347000004
 20
3.3986454948000002
 30
0.0
 11
-5.3322998331000013
 21
3.3984369790999982
 31
0.0
  0
LINE
  5
5564
  8
0
 10
-5.3322998331000013
 20
3.3984369790999982
 30
0.0
 11
-5.3322222113000004
 21
3.3978574075000001
 31
0.0
  0
LINE
  5
5565
  8
0
 10
-5.3322222113000004
 20
3.3978574075000001
 30
0.0
 11
-5.3321029297999996
 21
3.3969183551999991
 31
0.0
  0
LINE
  5
5566
  8
0
 10
-5.3321029297999996
 20
3.3969183551999991
 30
0.0
 11
-5.3319475023000003
 21
3.3956309164999969
 31
0.0
  0
POLYLINE
  5
5567
  8
0
 66
     1
 10
0.0
 20
0.0
 30
0.0
  0
VERTEX
  5
5DA8
  8
0
 10
-5.3319475023000003
 20
3.3956309164999969
 30
0.0
  0
VERTEX
  5
5DA9
  8
0
 10
-5.3317594294999999
 20
3.3939953707999981
 30
0.0
  0
VERTEX
  5
5DAA
  8
0
 10
-5.3316543247999988
 20
3.3930491936999969
 30
0.0
  0
SEQEND
  5
5DAB
  8
0
  0
POLYLINE
  5
5568
  8
0
 66
     1
 10
0.0
 20
0.0
 30
0.0
  0
VERTEX
  5
5DAC
  8
0
 10
-5.3325821958000006
 20
3.406744798699997
 30
0.0
  0
VERTEX
  5
5DAD
  8
0
 10
-5.3328315184000008
 20
3.4089508863999982
 30
0.0
  0
VERTEX
  5
5DAE
  8
0
 10
-5.3330771142
 20
3.4110402156999982
 30
0.0
  0
VERTEX
  5
5DAF
  8
0
 10
-5.333319540199998
 20
3.4130168926999991
 30
0.0
  0
VERTEX
  5
5DB0
  8
0
 10
-5.3335587616999991
 20
3.4148826153999989
 30
0.0
  0
VERTEX
  5
5DB1
  8
0
 10
-5.3337946358000012
 20
3.4166356596999981
 30
0.0
  0
VERTEX
  5
5DB2
  8
0
 10
-5.3340275344999988
 20
3.418275006799997
 30
0.0
  0
VERTEX
  5
5DB3
  8
0
 10
-5.334257408700001
 20
3.4198024374
 30
0.0
  0
VERTEX
  5
5DB4
  8
0
 10
-5.3344840822000004
 20
3.4212161173000002
 30
0.0
  0
VERTEX
  5
5DB5
  8
0
 10
-5.3347077034000012
 20
3.422509606199998
 30
0.0
  0
VERTEX
  5
5DB6
  8
0
 10
-5.3349282015000012
 20
3.4236848024999991
 30
0.0
  0
VERTEX
  5
5DB7
  8
0
 10
-5.3351453568
 20
3.424739711899996
 30
0.0
  0
VERTEX
  5
5DB8
  8
0
 10
-5.335359047099999
 20
3.4256620419999959
 30
0.0
  0
VERTEX
  5
5DB9
  8
0
 10
-5.335568933100002
 20
3.4264536459999979
 30
0.0
  0
VERTEX
  5
5DBA
  8
0
 10
-5.335774979
 20
3.427112505699998
 30
0.0
  0
VERTEX
  5
5DBB
  8
0
 10
-5.3359774315999999
 20
3.4276204968999981
 30
0.0
  0
VERTEX
  5
5DBC
  8
0
 10
-5.3361761677999979
 20
3.4279714903999992
 30
0.0
  0
VERTEX
  5
5DBD
  8
0
 10
-5.3363707511000014
 20
3.4281713562999969
 30
0.0
  0
VERTEX
  5
5DBE
  8
0
 10
-5.336560887600001
 20
3.4282199407999969
 30
0.0
  0
SEQEND
  5
5DBF
  8
0
  0
POLYLINE
  5
5569
  8
0
 66
     1
 10
0.0
 20
0.0
 30
0.0
  0
VERTEX
  5
5DC0
  8
0
 10
-3.7606989562000011
 20
-1.0825235666999991
 30
0.0
  0
VERTEX
  5
5DC1
  8
0
 10
-3.7600233583999998
 20
-1.154228602500001
 30
0.0
  0
VERTEX
  5
5DC2
  8
0
 10
-3.758009402499999
 20
-1.2254854777999991
 30
0.0
  0
VERTEX
  5
5DC3
  8
0
 10
-3.7546762213000009
 20
-1.296277957899997
 30
0.0
  0
VERTEX
  5
5DC4
  8
0
 10
-3.7500376233000008
 20
-1.3666586432000001
 30
0.0
  0
VERTEX
  5
5DC5
  8
0
 10
-3.7441150475999998
 20
-1.436542860600001
 30
0.0
  0
VERTEX
  5
5DC6
  8
0
 10
-3.7369502046999998
 20
-1.505711523300002
 30
0.0
  0
VERTEX
  5
5DC7
  8
0
 10
-3.7286004787000011
 20
-1.5739422397000009
 30
0.0
  0
VERTEX
  5
5DC8
  8
0
 10
-3.7190750401999981
 20
-1.6414357916000011
 30
0.0
  0
VERTEX
  5
5DC9
  8
0
 10
-3.708330923500001
 20
-1.708605020900001
 30
0.0
  0
VERTEX
  5
5DCA
  8
0
 10
-3.6963649393000009
 20
-1.7754797381999989
 30
0.0
  0
VERTEX
  5
5DCB
  8
0
 10
-3.6831899113
 20
-1.8419953036000001
 30
0.0
  0
VERTEX
  5
5DCC
  8
0
 10
-3.6687492275000002
 20
-1.9084118803999981
 30
0.0
  0
VERTEX
  5
5DCD
  8
0
 10
-3.6529668672
 20
-1.974987829999999
 30
0.0
  0
VERTEX
  5
5DCE
  8
0
 10
-3.635895482900001
 20
-2.0414169462
 30
0.0
  0
VERTEX
  5
5DCF
  8
0
 10
-3.617689153000001
 20
-2.1071188320999981
 30
0.0
  0
VERTEX
  5
5DD0
  8
0
 10
-3.5984414516999998
 20
-2.1718579963
 30
0.0
  0
VERTEX
  5
5DD1
  8
0
 10
-3.5781157306000022
 20
-2.2358514267
 30
0.0
  0
VERTEX
  5
5DD2
  8
0
 10
-3.556694782200001
 20
-2.2992067155
 30
0.0
  0
VERTEX
  5
5DD3
  8
0
 10
-3.5342074590000001
 20
-2.3618797665999991
 30
0.0
  0
VERTEX
  5
5DD4
  8
0
 10
-3.5106603902999991
 20
-2.423890035299999
 30
0.0
  0
VERTEX
  5
5DD5
  8
0
 10
-3.4859851237000021
 20
-2.4854327321
 30
0.0
  0
VERTEX
  5
5DD6
  8
0
 10
-3.4601573408000021
 20
-2.546559559699999
 30
0.0
  0
VERTEX
  5
5DD7
  8
0
 10
-3.4332110914000009
 20
-2.6071824195999991
 30
0.0
  0
VERTEX
  5
5DD8
  8
0
 10
-3.4051558290999999
 20
-2.6672821756000031
 30
0.0
  0
VERTEX
  5
5DD9
  8
0
 10
-3.3759617107000022
 20
-2.7269193337000011
 30
0.0
  0
VERTEX
  5
5DDA
  8
0
 10
-3.345673372100002
 20
-2.7859986962000032
 30
0.0
  0
VERTEX
  5
5DDB
  8
0
 10
-3.3144249880000021
 20
-2.8442750311
 30
0.0
  0
VERTEX
  5
5DDC
  8
0
 10
-3.2823028977000002
 20
-2.901625339000002
 30
0.0
  0
VERTEX
  5
5DDD
  8
0
 10
-3.249266881300001
 20
-2.9581572637
 30
0.0
  0
VERTEX
  5
5DDE
  8
0
 10
-3.2152672886999998
 20
-3.0139752678999989
 30
0.0
  0
VERTEX
  5
5DDF
  8
0
 10
-3.180333973100002
 20
-3.0690430388999981
 30
0.0
  0
VERTEX
  5
5DE0
  8
0
 10
-3.1444667067999998
 20
-3.1233726136999982
 30
0.0
  0
VERTEX
  5
5DE1
  8
0
 10
-3.1075548492
 20
-3.1771301178000031
 30
0.0
  0
VERTEX
  5
5DE2
  8
0
 10
-3.0695249395999991
 20
-3.230404661699998
 30
0.0
  0
VERTEX
  5
5DE3
  8
0
 10
-3.0304588503000001
 20
-3.2830671197000032
 30
0.0
  0
VERTEX
  5
5DE4
  8
0
 10
-2.990477445299998
 20
-3.3349552696
 30
0.0
  0
VERTEX
  5
5DE5
  8
0
 10
-2.9496254647
 20
-3.3860215125000002
 30
0.0
  0
VERTEX
  5
5DE6
  8
0
 10
-2.9078901962000021
 20
-3.4362913981999998
 30
0.0
  0
VERTEX
  5
5DE7
  8
0
 10
-2.8653159611000021
 20
-3.485720329500003
 30
0.0
  0
VERTEX
  5
5DE8
  8
0
 10
-2.821949065600001
 20
-3.534266246300001
 30
0.0
  0
VERTEX
  5
5DE9
  8
0
 10
-2.7777782508000022
 20
-3.5819526731
 30
0.0
  0
VERTEX
  5
5DEA
  8
0
 10
-2.7327597813000022
 20
-3.6288318368999999
 30
0.0
  0
VERTEX
  5
5DEB
  8
0
 10
-2.6869194830000009
 20
-3.6748785738999969
 30
0.0
  0
VERTEX
  5
5DEC
  8
0
 10
-2.640258855099999
 20
-3.7200926019000011
 30
0.0
  0
VERTEX
  5
5DED
  8
0
 10
-2.5926895210000009
 20
-3.7645551788999989
 30
0.0
  0
VERTEX
  5
5DEE
  8
0
 10
-2.544144522599999
 20
-3.808318222500001
 30
0.0
  0
VERTEX
  5
5DEF
  8
0
 10
-2.4947093356000032
 20
-3.8512945282999982
 30
0.0
  0
VERTEX
  5
5DF0
  8
0
 10
-2.4445265598999999
 20
-3.893359514099997
 30
0.0
  0
VERTEX
  5
5DF1
  8
0
 10
-2.393668550100001
 20
-3.9344599722999991
 30
0.0
  0
VERTEX
  5
5DF2
  8
0
 10
-2.3420984772999991
 20
-3.9746325455999969
 30
0.0
  0
VERTEX
  5
5DF3
  8
0
 10
-2.289799753700001
 20
-4.0138926807000033
 30
0.0
  0
VERTEX
  5
5DF4
  8
0
 10
-2.236794655700002
 20
-4.0522246051999993
 30
0.0
  0
VERTEX
  5
5DF5
  8
0
 10
-2.1830922590000021
 20
-4.0896222776000011
 30
0.0
  0
VERTEX
  5
5DF6
  8
0
 10
-2.1286528369000002
 20
-4.126111042299998
 30
0.0
  0
VERTEX
  5
5DF7
  8
0
 10
-2.0734751883999998
 20
-4.1616863028999997
 30
0.0
  0
VERTEX
  5
5DF8
  8
0
 10
-2.017588068400002
 20
-4.1963244349000011
 30
0.0
  0
VERTEX
  5
5DF9
  8
0
 10
-1.9609954398
 20
-4.2300205186999982
 30
0.0
  0
VERTEX
  5
5DFA
  8
0
 10
-1.9037015924
 20
-4.262769132699999
 30
0.0
  0
VERTEX
  5
5DFB
  8
0
 10
-1.8457330912000021
 20
-4.2945518869000008
 30
0.0
  0
VERTEX
  5
5DFC
  8
0
 10
-1.7871281373999981
 20
-4.3253454428999998
 30
0.0
  0
VERTEX
  5
5DFD
  8
0
 10
-1.7279177872000011
 20
-4.3551319755999991
 30
0.0
  0
VERTEX
  5
5DFE
  8
0
 10
-1.6681045663999989
 20
-4.3839083429999999
 30
0.0
  0
VERTEX
  5
5DFF
  8
0
 10
-1.607684190800003
 20
-4.4116732169000006
 30
0.0
  0
VERTEX
  5
5E00
  8
0
 10
-1.546672878400001
 20
-4.438414719799999
 30
0.0
  0
VERTEX
  5
5E01
  8
0
 10
-1.4850875365
 20
-4.464120668899997
 30
0.0
  0
VERTEX
  5
5E02
  8
0
 10
-1.422924156300001
 20
-4.4887869826000042
 30
0.0
  0
VERTEX
  5
5E03
  8
0
 10
-1.3601956201000001
 20
-4.5124026126000008
 30
0.0
  0
VERTEX
  5
5E04
  8
0
 10
-1.2969236272999991
 20
-4.5349558953999987
 30
0.0
  0
VERTEX
  5
5E05
  8
0
 10
-1.2331170854000031
 20
-4.556440198299998
 30
0.0
  0
VERTEX
  5
5E06
  8
0
 10
-1.168794739800002
 20
-4.5768451636999981
 30
0.0
  0
VERTEX
  5
5E07
  8
0
 10
-1.103974600199999
 20
-4.5961606995000031
 30
0.0
  0
VERTEX
  5
5E08
  8
0
 10
-1.0386644793000031
 20
-4.6143794356000001
 30
0.0
  0
VERTEX
  5
5E09
  8
0
 10
-0.9728791535000027
 20
-4.6314914423999998
 30
0.0
  0
VERTEX
  5
5E0A
  8
0
 10
-0.9066417489
 20
-4.6474845505000033
 30
0.0
  0
VERTEX
  5
5E0B
  8
0
 10
-0.8399728451000001
 20
-4.6623474311000006
 30
0.0
  0
VERTEX
  5
5E0C
  8
0
 10
-0.7728950481000041
 20
-4.6760684383999997
 30
0.0
  0
VERTEX
  5
5E0D
  8
0
 10
-0.7054253897000004
 20
-4.6886371682000032
 30
0.0
  0
VERTEX
  5
5E0E
  8
0
 10
-0.6375766938000034
 20
-4.7000455309000007
 30
0.0
  0
VERTEX
  5
5E0F
  8
0
 10
-0.5693774592000021
 20
-4.7102849950000012
 30
0.0
  0
VERTEX
  5
5E10
  8
0
 10
-0.5008415980000011
 20
-4.719349531199998
 30
0.0
  0
VERTEX
  5
5E11
  8
0
 10
-0.4319605093999998
 20
-4.7272349797000031
 30
0.0
  0
VERTEX
  5
5E12
  8
0
 10
-0.362749756000003
 20
-4.7339329361999969
 30
0.0
  0
VERTEX
  5
5E13
  8
0
 10
-0.293237674300002
 20
-4.7394336711999987
 30
0.0
  0
VERTEX
  5
5E14
  8
0
 10
-0.2234350915000007
 20
-4.7437288203000012
 30
0.0
  0
VERTEX
  5
5E15
  8
0
 10
-0.1533609646000009
 20
-4.7468089103000031
 30
0.0
  0
VERTEX
  5
5E16
  8
0
 10
-0.083042442
 20
-4.7486640392000012
 30
0.0
  0
VERTEX
  5
5E17
  8
0
 10
-0.0125031803000013
 20
-4.7492845616999997
 30
0.0
  0
SEQEND
  5
5E18
  8
0
  0
LINE
  5
556A
  8
0
 10
-5.3316786535000009
 20
3.3925474529999979
 30
0.0
 11
-5.3331998202999991
 21
3.399595381999998
 31
0.0
  0
POLYLINE
  5
556B
  8
0
 66
     1
 10
0.0
 20
0.0
 30
0.0
  0
VERTEX
  5
5E19
  8
0
 10
-5.3331998202999991
 20
3.399595381999998
 30
0.0
  0
VERTEX
  5
5E1A
  8
0
 10
-5.3344496802999988
 20
3.4066964818999961
 30
0.0
  0
VERTEX
  5
5E1B
  8
0
 10
-5.3354263949999989
 20
3.4138403094999981
 30
0.0
  0
VERTEX
  5
5E1C
  8
0
 10
-5.3361285268000014
 20
3.4210163547999981
 30
0.0
  0
VERTEX
  5
5E1D
  8
0
 10
-5.3365550423999988
 20
3.428214062099999
 30
0.0
  0
SEQEND
  5
5E1E
  8
0
  0
LINE
  5
556E
  8
0
 10
-5.3315419231000032
 20
3.3920140153999991
 30
0.0
 11
-5.3316786535000009
 21
3.3925474529999979
 31
0.0
  0
POLYLINE
  5
556F
  8
0
 66
     1
 10
0.0
 20
0.0
 30
0.0
  0
VERTEX
  5
5E1F
  8
0
 10
-0.0125031803000013
 20
-4.7492845616999997
 30
0.0
  0
VERTEX
  5
5E20
  8
0
 10
0.0589923458999984
 20
-4.748647097200001
 30
0.0
  0
VERTEX
  5
5E21
  8
0
 10
0.1302728775999995
 20
-4.7467409765999982
 30
0.0
  0
VERTEX
  5
5E22
  8
0
 10
0.2013137580999995
 20
-4.7435755972000031
 30
0.0
  0
VERTEX
  5
5E23
  8
0
 10
0.2720883151999978
 20
-4.739160513499999
 30
0.0
  0
VERTEX
  5
5E24
  8
0
 10
0.3425751026999997
 20
-4.7335050059999997
 30
0.0
  0
VERTEX
  5
5E25
  8
0
 10
0.4127578595999958
 20
-4.7266176534999991
 30
0.0
  0
VERTEX
  5
5E26
  8
0
 10
0.4826071895999961
 20
-4.7185081920999981
 30
0.0
  0
VERTEX
  5
5E27
  8
0
 10
0.5521066276999989
 20
-4.7091849988000014
 30
0.0
  0
VERTEX
  5
5E28
  8
0
 10
0.6212596309999974
 20
-4.6986528255
 30
0.0
  0
VERTEX
  5
5E29
  8
0
 10
0.6900519145999982
 20
-4.686917768899999
 30
0.0
  0
VERTEX
  5
5E2A
  8
0
 10
0.7584535125999992
 20
-4.673988790300001
 30
0.0
  0
VERTEX
  5
5E2B
  8
0
 10
0.8264449729999974
 20
-4.659875975900003
 30
0.0
  0
VERTEX
  5
5E2C
  8
0
 10
0.8940081228999972
 20
-4.6445905082999968
 30
0.0
  0
VERTEX
  5
5E2D
  8
0
 10
0.9611199290999968
 20
-4.6281446368000037
 30
0.0
  0
VERTEX
  5
5E2E
  8
0
 10
1.0277543676999981
 20
-4.6105516367000012
 30
0.0
  0
VERTEX
  5
5E2F
  8
0
 10
1.093887522699996
 20
-4.5918246365000002
 30
0.0
  0
VERTEX
  5
5E30
  8
0
 10
1.1595041289999981
 20
-4.5719744105000011
 30
0.0
  0
VERTEX
  5
5E31
  8
0
 10
1.224591561299998
 20
-4.5510105613
 30
0.0
  0
VERTEX
  5
5E32
  8
0
 10
1.289131155299996
 20
-4.5289443309000017
 30
0.0
  0
VERTEX
  5
5E33
  8
0
 10
1.353103882699997
 20
-4.5057871110000001
 30
0.0
  0
VERTEX
  5
5E34
  8
0
 10
1.416496775999998
 20
-4.4815479907000011
 30
0.0
  0
VERTEX
  5
5E35
  8
0
 10
1.4792875156999961
 20
-4.456240771500001
 30
0.0
  0
VERTEX
  5
5E36
  8
0
 10
1.5414636869999949
 20
-4.4298781430999998
 30
0.0
  0
VERTEX
  5
5E37
  8
0
 10
1.6030270882999991
 20
-4.4024663219000004
 30
0.0
  0
VERTEX
  5
5E38
  8
0
 10
1.6639615245999959
 20
-4.3740185336999993
 30
0.0
  0
VERTEX
  5
5E39
  8
0
 10
1.724249900499998
 20
-4.3445484190000014
 30
0.0
  0
VERTEX
  5
5E3A
  8
0
 10
1.7838921089999951
 20
-4.3140608097999991
 30
0.0
  0
VERTEX
  5
5E3B
  8
0
 10
1.842886124499997
 20
-4.2825601156999991
 30
0.0
  0
VERTEX
  5
5E3C
  8
0
 10
1.9012007078999991
 20
-4.2500660280000009
 30
0.0
  0
VERTEX
  5
5E3D
  8
0
 10
1.9587926011999981
 20
-4.2166067766999991
 30
0.0
  0
VERTEX
  5
5E3E
  8
0
 10
2.015632232899998
 20
-4.1822048295000052
 30
0.0
  0
VERTEX
  5
5E3F
  8
0
 10
2.0717194448999958
 20
-4.1468653057999969
 30
0.0
  0
VERTEX
  5
5E40
  8
0
 10
2.1270564336999982
 20
-4.1105922745000019
 30
0.0
  0
VERTEX
  5
5E41
  8
0
 10
2.1816165996999981
 20
-4.0734104301000027
 30
0.0
  0
VERTEX
  5
5E42
  8
0
 10
2.2354001869999962
 20
-4.0353266520000011
 30
0.0
  0
VERTEX
  5
5E43
  8
0
 10
2.2884480953999979
 20
-3.9963159338000001
 30
0.0
  0
VERTEX
  5
5E44
  8
0
 10
2.3407566079999991
 20
-3.9563818543000031
 30
0.0
  0
VERTEX
  5
5E45
  8
0
 10
2.392299076499997
 20
-3.9155451838999991
 30
0.0
  0
VERTEX
  5
5E46
  8
0
 10
2.4430792100000001
 20
-3.8738026395999992
 30
0.0
  0
VERTEX
  5
5E47
  8
0
 10
2.4931325067999981
 20
-3.8311210272
 30
0.0
  0
VERTEX
  5
5E48
  8
0
 10
2.5423905384999959
 20
-3.7875541665999992
 30
0.0
  0
VERTEX
  5
5E49
  8
0
 10
2.5907067606999981
 20
-3.7432355644000008
 30
0.0
  0
VERTEX
  5
5E4A
  8
0
 10
2.637985910899999
 20
-3.6982672432000032
 30
0.0
  0
VERTEX
  5
5E4B
  8
0
 10
2.6843096267999962
 20
-3.6525881793999999
 30
0.0
  0
VERTEX
  5
5E4C
  8
0
 10
2.729797258799997
 20
-3.606087929500001
 30
0.0
  0
VERTEX
  5
5E4D
  8
0
 10
2.7744645387999962
 20
-3.558748763299997
 30
0.0
  0
VERTEX
  5
5E4E
  8
0
 10
2.818268469499996
 20
-3.5106140819
 30
0.0
  0
VERTEX
  5
5E4F
  8
0
 10
2.8612314859999959
 20
-3.4616560418000031
 30
0.0
  0
VERTEX
  5
5E50
  8
0
 10
2.9033594060999981
 20
-3.4118606578999979
 30
0.0
  0
VERTEX
  5
5E51
  8
0
 10
2.9446150231999959
 20
-3.3612638599000011
 30
0.0
  0
VERTEX
  5
5E52
  8
0
 10
2.9849558782999992
 20
-3.3099122783000001
 30
0.0
  0
VERTEX
  5
5E53
  8
0
 10
3.0244045576999969
 20
-3.257770337600002
 30
0.0
  0
VERTEX
  5
5E54
  8
0
 10
3.0629098271999982
 20
-3.2048982086000022
 30
0.0
  0
VERTEX
  5
5E55
  8
0
 10
3.100330128499996
 20
-3.1514953526999991
 30
0.0
  0
VERTEX
  5
5E56
  8
0
 10
3.136561644599996
 20
-3.0977363643000042
 30
0.0
  0
VERTEX
  5
5E57
  8
0
 10
3.1717101884999961
 20
-3.043493685500001
 30
0.0
  0
VERTEX
  5
5E58
  8
0
 10
3.2059448141999982
 20
-2.9885108507000022
 30
0.0
  0
VERTEX
  5
5E59
  8
0
 10
3.2392984126999971
 20
-2.9327174194000021
 30
0.0
  0
VERTEX
  5
5E5A
  8
0
 10
3.271704984199995
 20
-2.876204951400001
 30
0.0
  0
VERTEX
  5
5E5B
  8
0
 10
3.303168842099995
 20
-2.818948685199997
 30
0.0
  0
VERTEX
  5
5E5C
  8
0
 10
3.3337146523999959
 20
-2.760877610400001
 30
0.0
  0
VERTEX
  5
5E5D
  8
0
 10
3.363280018699998
 20
-2.702082477599999
 30
0.0
  0
VERTEX
  5
5E5E
  8
0
 10
3.391747696899996
 20
-2.6427866612000002
 30
0.0
  0
VERTEX
  5
5E5F
  8
0
 10
3.419082834899998
 20
-2.5830711571
 30
0.0
  0
VERTEX
  5
5E60
  8
0
 10
3.4453098339999961
 20
-2.5228906987999991
 30
0.0
  0
VERTEX
  5
5E61
  8
0
 10
3.4704136846999969
 20
-2.4622866207
 30
0.0
  0
VERTEX
  5
5E62
  8
0
 10
3.4943543329999991
 20
-2.4013759929999998
 30
0.0
  0
VERTEX
  5
5E63
  8
0
 10
3.5171706952999982
 20
-2.3400808005
 30
0.0
  0
VERTEX
  5
5E64
  8
0
 10
3.5389547444999949
 20
-2.2781442172999991
 30
0.0
  0
VERTEX
  5
5E65
  8
0
 10
3.559716275299996
 20
-2.2154962377999992
 30
0.0
  0
VERTEX
  5
5E66
  8
0
 10
3.579409390299999
 20
-2.152229654600001
 30
0.0
  0
VERTEX
  5
5E67
  8
0
 10
3.5980262669999981
 20
-2.088324743399999
 30
0.0
  0
VERTEX
  5
5E68
  8
0
 10
3.6155979326000001
 20
-2.0236032877999981
 30
0.0
  0
VERTEX
  5
5E69
  8
0
 10
3.6320488705999932
 20
-1.9582651095000001
 30
0.0
  0
VERTEX
  5
5E6A
  8
0
 10
3.6472385975999959
 20
-1.8928678183000001
 30
0.0
  0
VERTEX
  5
5E6B
  8
0
 10
3.6611123684999991
 20
-1.8277529178999981
 30
0.0
  0
VERTEX
  5
5E6C
  8
0
 10
3.6737573652999971
 20
-1.7626272992999981
 30
0.0
  0
VERTEX
  5
5E6D
  8
0
 10
3.685255068500001
 20
-1.6970999236000011
 30
0.0
  0
VERTEX
  5
5E6E
  8
0
 10
3.6956040454999961
 20
-1.6311375317999981
 30
0.0
  0
VERTEX
  5
5E6F
  8
0
 10
3.7047868195000002
 20
-1.5648032805000001
 30
0.0
  0
VERTEX
  5
5E70
  8
0
 10
3.7128249370000002
 20
-1.4978401882000001
 30
0.0
  0
VERTEX
  5
5E71
  8
0
 10
3.7197019369999991
 20
-1.4301861273000001
 30
0.0
  0
VERTEX
  5
5E72
  8
0
 10
3.7253847347999982
 20
-1.3619268066000021
 30
0.0
  0
VERTEX
  5
5E73
  8
0
 10
3.7298523496999989
 20
-1.2930231505000001
 30
0.0
  0
VERTEX
  5
5E74
  8
0
 10
3.733078440199995
 20
-1.2234705127999981
 30
0.0
  0
VERTEX
  5
5E75
  8
0
 10
3.7350344064000001
 20
-1.1532993839999981
 30
0.0
  0
VERTEX
  5
5E76
  8
0
 10
3.7356925955999949
 20
-1.0825235666999991
 30
0.0
  0
SEQEND
  5
5E77
  8
0
  0
POLYLINE
  5
557B
  8
0
 66
     1
 10
0.0
 20
0.0
 30
0.0
  0
VERTEX
  5
5E78
  8
0
 10
-0.0125031803000013
 20
-0.8909901886000032
 30
0.0
  0
VERTEX
  5
5E79
  8
0
 10
-0.0375095693000027
 20
-0.890669458000001
 30
0.0
  0
VERTEX
  5
5E7A
  8
0
 10
-0.0624671834000026
 20
-0.8897128643000012
 30
0.0
  0
VERTEX
  5
5E7B
  8
0
 10
-0.0873760226999991
 20
-0.8881204075000002
 30
0.0
  0
VERTEX
  5
5E7C
  8
0
 10
-0.1122522513000028
 20
-0.8858902249000021
 30
0.0
  0
VERTEX
  5
5E7D
  8
0
 10
-0.1370797050999997
 20
-0.8830241791000009
 30
0.0
  0
VERTEX
  5
5E7E
  8
0
 10
-0.1618098916000008
 20
-0.8795278577000008
 30
0.0
  0
VERTEX
  5
5E7F
  8
0
 10
-0.1864426212000012
 20
-0.875400031100003
 30
0.0
  0
VERTEX
  5
5E80
  8
0
 10
-0.2109780836000006
 20
-0.8706419289000027
 30
0.0
  0
VERTEX
  5
5E81
  8
0
 10
-0.2353683559000039
 20
-0.8652628272000018
 30
0.0
  0
VERTEX
  5
5E82
  8
0
 10
-0.2596131574000005
 20
-0.8592615138000032
 30
0.0
  0
VERTEX
  5
5E83
  8
0
 10
-0.2837127688000009
 20
-0.8526392010000019
 30
0.0
  0
VERTEX
  5
5E84
  8
0
 10
-0.3076201092000019
 20
-0.845408801800001
 30
0.0
  0
VERTEX
  5
5E85
  8
0
 10
-0.3313348047000026
 20
-0.8375691290000016
 30
0.0
  0
VERTEX
  5
5E86
  8
0
 10
-0.3548572292000003
 20
-0.829121369799999
 30
0.0
  0
VERTEX
  5
5E87
  8
0
 10
-0.3781414238000025
 20
-0.8200819988000024
 30
0.0
  0
VERTEX
  5
5E88
  8
0
 10
-0.401186925700003
 20
-0.8104498603999982
 30
0.0
  0
VERTEX
  5
5E89
  8
0
 10
-0.4239941977000008
 20
-0.8002261102000002
 30
0.0
  0
VERTEX
  5
5E8A
  8
0
 10
-0.4465186697000016
 20
-0.7894306899999993
 30
0.0
  0
VERTEX
  5
5E8B
  8
0
 10
-0.468759793200004
 20
-0.7780624814000025
 30
0.0
  0
VERTEX
  5
5E8C
  8
0
 10
-0.490718116700002
 20
-0.766122602799999
 30
0.0
  0
VERTEX
  5
5E8D
  8
0
 10
-0.5123507157000021
 20
-0.7536343508000019
 30
0.0
  0
VERTEX
  5
5E8E
  8
0
 10
-0.5336569539000032
 20
-0.7405966542000007
 30
0.0
  0
VERTEX
  5
5E8F
  8
0
 10
-0.5546374675999993
 20
-0.7270105842999999
 30
0.0
  0
VERTEX
  5
5E90
  8
0
 10
-0.5752512408000037
 20
-0.7129026510000034
 30
0.0
  0
VERTEX
  5
5E91
  8
0
 10
-0.5954975635000041
 20
-0.698271829599999
 30
0.0
  0
VERTEX
  5
5E92
  8
0
 10
-0.6153771457000019
 20
-0.6831191449000005
 30
0.0
  0
VERTEX
  5
5E93
  8
0
 10
-0.6348511013000007
 20
-0.6674741812000025
 30
0.0
  0
VERTEX
  5
5E94
  8
0
 10
-0.6539186352000002
 20
-0.6513359782000019
 30
0.0
  0
VERTEX
  5
5E95
  8
0
 10
-0.6725805425000007
 20
-0.6347054963000001
 30
0.0
  0
VERTEX
  5
5E96
  8
0
 10
-0.6908003230000013
 20
-0.617615201500001
 30
0.0
  0
VERTEX
  5
5E97
  8
0
 10
-0.7085771191000028
 20
-0.6000641878999991
 30
0.0
  0
VERTEX
  5
5E98
  8
0
 10
-0.7259117885000032
 20
-0.582053361400003
 30
0.0
  0
VERTEX
  5
5E99
  8
0
 10
-0.7427704042000017
 20
-0.5636179061000024
 30
0.0
  0
VERTEX
  5
5E9A
  8
0
 10
-0.7591520336000031
 20
-0.5447569919999995
 30
0.0
  0
VERTEX
  5
5E9B
  8
0
 10
-0.7750576094000011
 20
-0.5254714491000027
 30
0.0
  0
VERTEX
  5
5E9C
  8
0
 10
-0.7904560021000009
 20
-0.5057989512000023
 30
0.0
  0
VERTEX
  5
5E9D
  8
0
 10
-0.8053462230000041
 20
-0.4857387356000015
 30
0.0
  0
VERTEX
  5
5E9E
  8
0
 10
-0.8197292609000006
 20
-0.4652915648999989
 30
0.0
  0
VERTEX
  5
5E9F
  8
0
 10
-0.8335769526000014
 20
-0.4444974010000027
 30
0.0
  0
VERTEX
  5
5EA0
  8
0
 10
-0.8468882506000028
 20
-0.4233555624000008
 30
0.0
  0
VERTEX
  5
5EA1
  8
0
 10
-0.859664202400001
 20
-0.4018667306000016
 30
0.0
  0
VERTEX
  5
5EA2
  8
0
 10
-0.871879787200001
 20
-0.3800729113000005
 30
0.0
  0
VERTEX
  5
5EA3
  8
0
 10
-0.8835339082000038
 20
-0.3579735053999999
 30
0.0
  0
VERTEX
  5
5EA4
  8
0
 10
-0.8946276622000013
 20
-0.3355691122000013
 30
0.0
  0
VERTEX
  5
5EA5
  8
0
 10
-0.9051393187000016
 20
-0.3129035341999997
 30
0.0
  0
VERTEX
  5
5EA6
  8
0
 10
-0.9150677393000029
 20
-0.2899762540000022
 30
0.0
  0
VERTEX
  5
5EA7
  8
0
 10
-0.9244140625000019
 20
-0.2667877892000017
 30
0.0
  0
VERTEX
  5
5EA8
  8
0
 10
-0.933159973000002
 20
-0.2433834956000029
 30
0.0
  0
VERTEX
  5
5EA9
  8
0
 10
-0.9413042927
 20
-0.2197629539000014
 30
0.0
  0
VERTEX
  5
5EAA
  8
0
 10
-0.9488481996000004
 20
-0.1959265834999999
 30
0.0
  0
VERTEX
  5
5EAB
  8
0
 10
-0.9557769132000014
 20
-0.1719209983000023
 30
0.0
  0
VERTEX
  5
5EAC
  8
0
 10
-0.9620892297000017
 20
-0.1477458567000016
 30
0.0
  0
VERTEX
  5
5EAD
  8
0
 10
-0.9677863529000028
 20
-0.1234015003999995
 30
0.0
  0
VERTEX
  5
5EAE
  8
0
 10
-0.9728571133000015
 20
-0.0989355683000031
 30
0.0
  0
VERTEX
  5
5EAF
  8
0
 10
-0.9773002810000016
 20
-0.0743478298000002
 30
0.0
  0
VERTEX
  5
5EB0
  8
0
 10
-0.9811170860000013
 20
-0.049638515500003
 30
0.0
  0
VERTEX
  5
5EB1
  8
0
 10
-0.9843000489000031
 20
-0.024855956300001
 30
0.0
  0
VERTEX
  5
5EB2
  8
0
 10
-0.9868479275999996
 20
0.0000000000000004
 30
0.0
  0
VERTEX
  5
5EB3
  8
0
 10
-0.9887619640999998
 20
0.0249292012999978
 30
0.0
  0
VERTEX
  5
5EB4
  8
0
 10
-0.9900384054000037
 20
0.049882860099999
 30
0.0
  0
VERTEX
  5
5EB5
  8
0
 10
-0.9906760002999988
 20
0.0748610196000006
 30
0.0
  0
VERTEX
  5
5EB6
  8
0
 10
-0.9906760000000003
 20
0.0998636366999972
 30
0.0
  0
VERTEX
  5
5EB7
  8
0
 10
-0.9900384046
 20
0.1248417942999969
 30
0.0
  0
VERTEX
  5
5EB8
  8
0
 10
-0.9887619636000016
 20
0.1497954466999976
 30
0.0
  0
VERTEX
  5
5EB9
  8
0
 10
-0.9868479275999996
 20
0.1747246396000013
 30
0.0
  0
VERTEX
  5
5EBA
  8
0
 10
-0.9843000485000031
 20
0.1995805939999973
 30
0.0
  0
VERTEX
  5
5EBB
  8
0
 10
-0.9811170828000007
 20
0.2243631660999985
 30
0.0
  0
VERTEX
  5
5EBC
  8
0
 10
-0.9773002740000008
 20
0.2490724996000009
 30
0.0
  0
VERTEX
  5
5EBD
  8
0
 10
-0.9728571045000007
 20
0.2736602475000009
 30
0.0
  0
VERTEX
  5
5EBE
  8
0
 10
-0.9677863469000024
 20
0.2981261666999981
 30
0.0
  0
VERTEX
  5
5EBF
  8
0
 10
-0.9620892286000035
 20
0.3224705003000001
 30
0.0
  0
VERTEX
  5
5EC0
  8
0
 10
-0.9557769140000011
 20
0.3466456296999998
 30
0.0
  0
VERTEX
  5
5EC1
  8
0
 10
-0.9488481954000037
 20
0.3706512270999984
 30
0.0
  0
VERTEX
  5
5EC2
  8
0
 10
-0.941304280600004
 20
0.3944876204000001
 30
0.0
  0
VERTEX
  5
5EC3
  8
0
 10
-0.9331599568000006
 20
0.418108174800001
 30
0.0
  0
VERTEX
  5
5EC4
  8
0
 10
-0.9244140503000012
 20
0.4415124577000006
 30
0.0
  0
VERTEX
  5
5EC5
  8
0
 10
-0.9150677348000007
 20
0.4647009016999994
 30
0.0
  0
VERTEX
  5
5EC6
  8
0
 10
-0.9051393183000016
 20
0.4876281689999975
 30
0.0
  0
VERTEX
  5
5EC7
  8
0
 10
-0.894627658200001
 20
0.5102937525000013
 30
0.0
  0
VERTEX
  5
5EC8
  8
0
 10
-0.8835338971999995
 20
0.5326981592999978
 30
0.0
  0
VERTEX
  5
5EC9
  8
0
 10
-0.8718797717999995
 20
0.5547975735999989
 30
0.0
  0
VERTEX
  5
5ECA
  8
0
 10
-0.8596641885000018
 20
0.5765913896999995
 30
0.0
  0
VERTEX
  5
5ECB
  8
0
 10
-0.846888240800002
 20
0.5980802131999999
 30
0.0
  0
VERTEX
  5
5ECC
  8
0
 10
-0.8335769458000006
 20
0.6192220453999977
 30
0.0
  0
VERTEX
  5
5ECD
  8
0
 10
-0.8197292548000021
 20
0.6400162077000009
 30
0.0
  0
VERTEX
  5
5ECE
  8
0
 10
-0.8053462165000022
 20
0.6604633785999999
 30
0.0
  0
VERTEX
  5
5ECF
  8
0
 10
-0.7904559941000005
 20
0.6805235957999976
 30
0.0
  0
VERTEX
  5
5ED0
  8
0
 10
-0.7750575975000018
 20
0.7001960975999997
 30
0.0
  0
VERTEX
  5
5ED1
  8
0
 10
-0.7591520166999999
 20
0.7194816455000006
 30
0.0
  0
VERTEX
  5
5ED2
  8
0
 10
-0.7427703852000001
 20
0.7383425614000001
 30
0.0
  0
VERTEX
  5
5ED3
  8
0
 10
-0.7259117744000001
 20
0.7567780113000003
 30
0.0
  0
VERTEX
  5
5ED4
  8
0
 10
-0.7085771129000023
 20
0.774788829199999
 30
0.0
  0
VERTEX
  5
5ED5
  8
0
 10
-0.6908003195000028
 20
0.792339838899999
 30
0.0
  0
VERTEX
  5
5ED6
  8
0
 10
-0.6725805300000012
 20
0.8094301404999985
 30
0.0
  0
VERTEX
  5
5ED7
  8
0
 10
-0.6539186087000033
 20
0.8260606339999977
 30
0.0
  0
VERTEX
  5
5ED8
  8
0
 10
-0.6348510675999997
 20
0.8421988431000006
 30
0.0
  0
VERTEX
  5
5ED9
  8
0
 10
-0.6153771194999999
 20
0.8578438004999998
 30
0.0
  0
VERTEX
  5
5EDA
  8
0
 10
-0.5954975515000031
 20
0.8729964735999974
 30
0.0
  0
VERTEX
  5
5EDB
  8
0
 10
-0.5752512369999998
 20
0.8876272876999994
 30
0.0
  0
VERTEX
  5
5EDC
  8
0
 10
-0.5546374581000038
 20
0.9017352236999979
 30
0.0
  0
VERTEX
  5
5EDD
  8
0
 10
-0.5336569327000014
 20
0.915321300799999
 30
0.0
  0
VERTEX
  5
5EDE
  8
0
 10
-0.5123506876999997
 20
0.928359001499999
 30
0.0
  0
VERTEX
  5
5EDF
  8
0
 10
-0.4907180931000036
 20
0.9408472506999995
 30
0.0
  0
VERTEX
  5
5EE0
  8
0
 10
-0.468759778900001
 20
0.9527871234999988
 30
0.0
  0
VERTEX
  5
5EE1
  8
0
 10
-0.4465186619000008
 20
0.9641553278999987
 30
0.0
  0
VERTEX
  5
5EE2
  8
0
 10
-0.423994189800002
 20
0.974950747599998
 30
0.0
  0
VERTEX
  5
5EE3
  8
0
 10
-0.4011869148000004
 20
0.9851744988999978
 30
0.0
  0
VERTEX
  5
5EE4
  8
0
 10
-0.3781414107000032
 20
0.9948066380999986
 30
0.0
  0
VERTEX
  5
5EE5
  8
0
 10
-0.3548572157000009
 20
1.0038460087999961
 30
0.0
  0
VERTEX
  5
5EE6
  8
0
 10
-0.3313347916000033
 20
1.0122937675000001
 30
0.0
  0
VERTEX
  5
5EE7
  8
0
 10
-0.3076200972000009
 20
1.020133439599999
 30
0.0
  0
VERTEX
  5
5EE8
  8
0
 10
-0.2837127592000001
 20
1.0273638378999981
 30
0.0
  0
VERTEX
  5
5EE9
  8
0
 10
-0.2596131508000035
 20
1.033986149699998
 30
0.0
  0
VERTEX
  5
5EEA
  8
0
 10
-0.2353683509000035
 20
1.0399874623999981
 30
0.0
  0
VERTEX
  5
5EEB
  8
0
 10
-0.2109780769000018
 20
1.0453665640999961
 30
0.0
  0
VERTEX
  5
5EEC
  8
0
 10
-0.1864426114000004
 20
1.0501246667999991
 30
0.0
  0
VERTEX
  5
5EED
  8
0
 10
-0.1618098804000034
 20
1.0542524934999971
 30
0.0
  0
VERTEX
  5
5EEE
  8
0
 10
-0.1370796963000025
 20
1.057748814399996
 30
0.0
  0
VERTEX
  5
5EEF
  8
0
 10
-0.1122522467000024
 20
1.060614859499996
 30
0.0
  0
VERTEX
  5
5EF0
  8
0
 10
-0.0873760214000008
 20
1.062845041599999
 30
0.0
  0
VERTEX
  5
5EF1
  8
0
 10
-0.0624671835000008
 20
1.0644374982999969
 30
0.0
  0
VERTEX
  5
5EF2
  8
0
 10
-0.037509569800001
 20
1.065394091899996
 30
0.0
  0
VERTEX
  5
5EF3
  8
0
 10
-0.0125031803000013
 20
1.0657148225999991
 30
0.0
  0
SEQEND
  5
5EF4
  8
0
  0
POLYLINE
  5
557C
  8
0
 66
     1
 10
0.0
 20
0.0
 30
0.0
  0
VERTEX
  5
5EF5
  8
0
 10
3.7356925955999949
 20
-1.0825235666999991
 30
0.0
  0
VERTEX
  5
5EF6
  8
0
 10
3.735101287099996
 20
-1.0152497586000011
 30
0.0
  0
VERTEX
  5
5EF7
  8
0
 10
3.7333145199999951
 20
-0.947331156700002
 30
0.0
  0
VERTEX
  5
5EF8
  8
0
 10
3.7303130874999959
 20
-0.8787884618000024
 30
0.0
  0
VERTEX
  5
5EF9
  8
0
 10
3.726080808899999
 20
-0.8096855024000003
 30
0.0
  0
VERTEX
  5
5EFA
  8
0
 10
3.720597171600001
 20
-0.740002975700001
 30
0.0
  0
VERTEX
  5
5EFB
  8
0
 10
3.7138299355999962
 20
-0.6696379402999991
 30
0.0
  0
VERTEX
  5
5EFC
  8
0
 10
3.7057387364999981
 20
-0.5984940790000013
 30
0.0
  0
VERTEX
  5
5EFD
  8
0
 10
3.6963086160999961
 20
-0.5267181725000003
 30
0.0
  0
VERTEX
  5
5EFE
  8
0
 10
3.6855514163999992
 20
-0.4545735895000004
 30
0.0
  0
VERTEX
  5
5EFF
  8
0
 10
3.6734643810999961
 20
-0.3821457565000013
 30
0.0
  0
VERTEX
  5
5F00
  8
0
 10
3.6600268460999992
 20
-0.3094068437000028
 30
0.0
  0
VERTEX
  5
5F01
  8
0
 10
3.645240447699996
 20
-0.2364514082000002
 30
0.0
  0
VERTEX
  5
5F02
  8
0
 10
3.6291142249999981
 20
-0.1633764207000037
 30
0.0
  0
VERTEX
  5
5F03
  8
0
 10
3.6116295182999951
 20
-0.0901451118000014
 30
0.0
  0
VERTEX
  5
5F04
  8
0
 10
3.5927447260999958
 20
-0.0166527701999999
 30
0.0
  0
VERTEX
  5
5F05
  8
0
 10
3.5724257003999962
 20
0.0571438702999996
 30
0.0
  0
VERTEX
  5
5F06
  8
0
 10
3.5506793855000001
 20
0.1311334862
 30
0.0
  0
VERTEX
  5
5F07
  8
0
 10
3.5275239594999981
 20
0.2051873306999998
 30
0.0
  0
VERTEX
  5
5F08
  8
0
 10
3.502937676199998
 20
0.2793142033000007
 30
0.0
  0
VERTEX
  5
5F09
  8
0
 10
3.4769276420999962
 20
0.3534331631000005
 30
0.0
  0
VERTEX
  5
5F0A
  8
0
 10
3.4495725220999982
 20
0.427283851199999
 30
0.0
  0
VERTEX
  5
5F0B
  8
0
 10
3.420900858499996
 20
0.5007756869999978
 30
0.0
  0
VERTEX
  5
5F0C
  8
0
 10
3.3908999850999981
 20
0.5739323906999984
 30
0.0
  0
VERTEX
  5
5F0D
  8
0
 10
3.3596021201999982
 20
0.6466692540999977
 30
0.0
  0
VERTEX
  5
5F0E
  8
0
 10
3.325354730399996
 20
0.7225606853999982
 30
0.0
  0
SEQEND
  5
5F0F
  8
0
  0
POLYLINE
  5
557F
  8
0
 66
     1
 10
0.0
 20
0.0
 30
0.0
  0
VERTEX
  5
5F10
  8
0
 10
5.3081957221999989
 20
3.3995958178999981
 30
0.0
  0
VERTEX
  5
5F11
  8
0
 10
5.3066745661999999
 20
3.3925478635999982
 30
0.0
  0
VERTEX
  5
5F12
  8
0
 10
5.3065374049999949
 20
3.3920127410999981
 30
0.0
  0
SEQEND
  5
5F13
  8
0
  0
POLYLINE
  5
5584
  8
0
 66
     1
 10
0.0
 20
0.0
 30
0.0
  0
VERTEX
  5
5F14
  8
0
 10
-0.0125031803000013
 20
1.0657148225999991
 30
0.0
  0
VERTEX
  5
5F15
  8
0
 10
0.0125031807999996
 20
1.0653940927999981
 30
0.0
  0
VERTEX
  5
5F16
  8
0
 10
0.0374607673999989
 20
1.064437501199996
 30
0.0
  0
VERTEX
  5
5F17
  8
0
 10
0.0623695794999968
 20
1.0628450477999991
 30
0.0
  0
VERTEX
  5
5F18
  8
0
 10
0.0872457802999982
 20
1.0606148703
 30
0.0
  0
VERTEX
  5
5F19
  8
0
 10
0.1120732065999981
 20
1.0577488309999981
 30
0.0
  0
VERTEX
  5
5F1A
  8
0
 10
0.1368033688999972
 20
1.0542525167999981
 30
0.0
  0
VERTEX
  5
5F1B
  8
0
 10
0.161436079299996
 20
1.0501246976999981
 30
0.0
  0
VERTEX
  5
5F1C
  8
0
 10
0.1859715256999976
 20
1.045366603599998
 30
0.0
  0
VERTEX
  5
5F1D
  8
0
 10
0.2103617818999979
 20
1.0399875110999981
 30
0.0
  0
VERTEX
  5
5F1E
  8
0
 10
0.2346065654999982
 20
1.0339862082999991
 30
0.0
  0
VERTEX
  5
5F1F
  8
0
 10
0.258706158999999
 20
1.027363906999998
 30
0.0
  0
VERTEX
  5
5F20
  8
0
 10
0.2826134835999987
 20
1.0201335195999981
 30
0.0
  0
VERTEX
  5
5F21
  8
0
 10
0.3063281658999983
 20
1.012293858799999
 30
0.0
  0
VERTEX
  5
5F22
  8
0
 10
0.3298505792999968
 20
1.0038461118999951
 30
0.0
  0
VERTEX
  5
5F23
  8
0
 10
0.3531347648999983
 20
0.9948067529999992
 30
0.0
  0
VERTEX
  5
5F24
  8
0
 10
0.3761802611999983
 20
0.9851746256999975
 30
0.0
  0
VERTEX
  5
5F25
  8
0
 10
0.3989875297999994
 20
0.9749508863999988
 30
0.0
  0
VERTEX
  5
5F26
  8
0
 10
0.4215119967999962
 20
0.964155478599999
 30
0.0
  0
VERTEX
  5
5F27
  8
0
 10
0.4437531098999976
 20
0.9527872860999979
 30
0.0
  0
VERTEX
  5
5F28
  8
0
 10
0.4657114214999966
 20
0.9408474249999979
 30
0.0
  0
VERTEX
  5
5F29
  8
0
 10
0.4873440145999979
 20
0.9283591871999984
 30
0.0
  0
VERTEX
  5
5F2A
  8
0
 10
0.5086502595999961
 20
0.9153214974999993
 30
0.0
  0
VERTEX
  5
5F2B
  8
0
 10
0.5296307860999967
 20
0.9017354309999991
 30
0.0
  0
VERTEX
  5
5F2C
  8
0
 10
0.5502445672000002
 20
0.8876275050999996
 30
0.0
  0
VERTEX
  5
5F2D
  8
0
 10
0.5704908849999982
 20
0.8729967005999985
 30
0.0
  0
VERTEX
  5
5F2E
  8
0
 10
0.5903704573000006
 20
0.8578440364999979
 30
0.0
  0
VERTEX
  5
5F2F
  8
0
 10
0.6098444105999974
 20
0.8421990874000011
 30
0.0
  0
VERTEX
  5
5F30
  8
0
 10
0.628911957699998
 20
0.826060886099999
 30
0.0
  0
VERTEX
  5
5F31
  8
0
 10
0.6475738858
 20
0.8094303998000004
 30
0.0
  0
VERTEX
  5
5F32
  8
0
 10
0.6657936828999989
 20
0.7923401044999996
 30
0.0
  0
VERTEX
  5
5F33
  8
0
 10
0.6835704846999989
 20
0.7747891000999984
 30
0.0
  0
VERTEX
  5
5F34
  8
0
 10
0.7009051553999977
 20
0.7567782866999983
 30
0.0
  0
VERTEX
  5
5F35
  8
0
 10
0.7177637759000001
 20
0.7383428403999984
 30
0.0
  0
VERTEX
  5
5F36
  8
0
 10
0.7341454174000006
 20
0.7194819274000011
 30
0.0
  0
VERTEX
  5
5F37
  8
0
 10
0.7500510086999981
 20
0.7001963815000001
 30
0.0
  0
VERTEX
  5
5F38
  8
0
 10
0.7654494161999992
 20
0.6805238806999978
 30
0.0
  0
VERTEX
  5
5F39
  8
0
 10
0.7803396499000002
 20
0.6604636635999988
 30
0.0
  0
VERTEX
  5
5F3A
  8
0
 10
0.7947226997999977
 20
0.6400164914999995
 30
0.0
  0
VERTEX
  5
5F3B
  8
0
 10
0.8085704025999974
 20
0.6192223273000015
 30
0.0
  0
VERTEX
  5
5F3C
  8
0
 10
0.8218817092999977
 20
0.5980804922999999
 30
0.0
  0
VERTEX
  5
5F3D
  8
0
 10
0.8346576687999983
 20
0.576591665100001
 30
0.0
  0
VERTEX
  5
5F3E
  8
0
 10
0.8468732637999989
 20
0.5547978443999964
 30
0.0
  0
VERTEX
  5
5F3F
  8
0
 10
0.8585274009999999
 20
0.5326984243999964
 30
0.0
  0
VERTEX
  5
5F40
  8
0
 10
0.869621173699997
 20
0.5102940108999979
 30
0.0
  0
VERTEX
  5
5F41
  8
0
 10
0.8801328451999984
 20
0.4876284198999988
 30
0.0
  0
VERTEX
  5
5F42
  8
0
 10
0.8900612726999986
 20
0.464701144099998
 30
0.0
  0
VERTEX
  5
5F43
  8
0
 10
0.8994075990999981
 20
0.4415126908000003
 30
0.0
  0
VERTEX
  5
5F44
  8
0
 10
0.9081535159999988
 20
0.4181083978999999
 30
0.0
  0
VERTEX
  5
5F45
  8
0
 10
0.9162978497000011
 20
0.3944878328999981
 30
0.0
  0
VERTEX
  5
5F46
  8
0
 10
0.923841773999996
 20
0.3706514281999991
 30
0.0
  0
VERTEX
  5
5F47
  8
0
 10
0.9307705013999978
 20
0.3466458185999994
 30
0.0
  0
VERTEX
  5
5F48
  8
0
 10
0.9370828242999992
 20
0.3224706763999987
 30
0.0
  0
VERTEX
  5
5F49
  8
0
 10
0.9427799503999983
 20
0.2981263292999974
 30
0.0
  0
VERTEX
  5
5F4A
  8
0
 10
0.9478507149999975
 20
0.2736603959999972
 30
0.0
  0
VERTEX
  5
5F4B
  8
0
 10
0.9522938908999981
 20
0.2490726336999995
 30
0.0
  0
VERTEX
  5
5F4C
  8
0
 10
0.9561107052000004
 20
0.2243632853000013
 30
0.0
  0
VERTEX
  5
5F4D
  8
0
 10
0.959293675799998
 20
0.1995806979999988
 30
0.0
  0
VERTEX
  5
5F4E
  8
0
 10
0.9618415589999962
 20
0.1747247278999997
 30
0.0
  0
VERTEX
  5
5F4F
  8
0
 10
0.963755598299997
 20
0.1497955189
 30
0.0
  0
VERTEX
  5
5F50
  8
0
 10
0.9650320417999974
 20
0.1248418503999997
 30
0.0
  0
VERTEX
  5
5F51
  8
0
 10
0.9656696387999977
 20
0.099863676499997
 30
0.0
  0
VERTEX
  5
5F52
  8
0
 10
0.9656696399999979
 20
0.074861042999999
 30
0.0
  0
VERTEX
  5
5F53
  8
0
 10
0.9650320450000011
 20
0.0498828669999978
 30
0.0
  0
VERTEX
  5
5F54
  8
0
 10
0.9637556027999991
 20
0.0249291917999988
 30
0.0
  0
VERTEX
  5
5F55
  8
0
 10
0.9618415644999983
 20
-0.0000000259000035
 30
0.0
  0
VERTEX
  5
5F56
  8
0
 10
0.9592936832999967
 20
-0.0248559984000028
 30
0.0
  0
VERTEX
  5
5F57
  8
0
 10
0.9561107170999958
 20
-0.0496385735000007
 30
0.0
  0
VERTEX
  5
5F58
  8
0
 10
0.952293907999998
 20
-0.0743479034000028
 30
0.0
  0
VERTEX
  5
5F59
  8
0
 10
0.9478507353999994
 20
-0.0989356572000015
 30
0.0
  0
VERTEX
  5
5F5A
  8
0
 10
0.9427799692999981
 20
-0.1234016042999992
 30
0.0
  0
VERTEX
  5
5F5B
  8
0
 10
0.9370828397000003
 20
-0.147745975199999
 30
0.0
  0
VERTEX
  5
5F5C
  8
0
 10
0.9307705161999988
 20
-0.1719211307000026
 30
0.0
  0
VERTEX
  5
5F5D
  8
0
 10
0.9238417948999996
 20
-0.1959267291999995
 30
0.0
  0
VERTEX
  5
5F5E
  8
0
 10
0.9162978795999984
 20
-0.2197631123999986
 30
0.0
  0
VERTEX
  5
5F5F
  8
0
 10
0.9081535511
 20
-0.2433836662000028
 30
0.0
  0
VERTEX
  5
5F60
  8
0
 10
0.8994076310999972
 20
-0.2667879713000008
 30
0.0
  0
VERTEX
  5
5F61
  8
0
 10
0.8900612978999973
 20
-0.2899764471000021
 30
0.0
  0
VERTEX
  5
5F62
  8
0
 10
0.8801328668999984
 20
-0.3129037373000005
 30
0.0
  0
VERTEX
  5
5F63
  8
0
 10
0.8696211998000007
 20
-0.3355693242999993
 30
0.0
  0
VERTEX
  5
5F64
  8
0
 10
0.8585274347999989
 20
-0.3579737259000022
 30
0.0
  0
VERTEX
  5
5F65
  8
0
 10
0.8468733025999988
 20
-0.3800731391000016
 30
0.0
  0
VERTEX
  5
5F66
  8
0
 10
0.8346577063999978
 20
-0.4018669649999996
 30
0.0
  0
VERTEX
  5
5F67
  8
0
 10
0.8218817429000003
 20
-0.4233558025999993
 30
0.0
  0
VERTEX
  5
5F68
  8
0
 10
0.8085704331999997
 20
-0.4444976459000034
 30
0.0
  0
VERTEX
  5
5F69
  8
0
 10
0.7947227300000002
 20
-0.4652918136000001
 30
0.0
  0
VERTEX
  5
5F6A
  8
0
 10
0.7803396806999992
 20
-0.4857389868999992
 30
0.0
  0
VERTEX
  5
5F6B
  8
0
 10
0.7654494484999966
 20
-0.5057992043000003
 30
0.0
  0
VERTEX
  5
5F6C
  8
0
 10
0.7500510445999958
 20
-0.5254717032000005
 30
0.0
  0
VERTEX
  5
5F6D
  8
0
 10
0.7341454578000004
 20
-0.5447572462000028
 30
0.0
  0
VERTEX
  5
5F6E
  8
0
 10
0.7177638177999981
 20
-0.5636181593000023
 30
0.0
  0
VERTEX
  5
5F6F
  8
0
 10
0.7009051922000005
 20
-0.5820536127000007
 30
0.0
  0
VERTEX
  5
5F70
  8
0
 10
0.6835705131999994
 20
-0.6000644362000001
 30
0.0
  0
VERTEX
  5
5F71
  8
0
 10
0.6657937082999972
 20
-0.6176154460000017
 30
0.0
  0
VERTEX
  5
5F72
  8
0
 10
0.6475739194999977
 20
-0.6347057362000004
 30
0.0
  0
VERTEX
  5
5F73
  8
0
 10
0.6289120045999966
 20
-0.6513362126
 30
0.0
  0
VERTEX
  5
5F74
  8
0
 10
0.6098444639999983
 20
-0.6674744094000003
 30
0.0
  0
VERTEX
  5
5F75
  8
0
 10
0.5903705023000008
 20
-0.6831193661000011
 30
0.0
  0
VERTEX
  5
5F76
  8
0
 10
0.5704909148000006
 20
-0.6982720433000007
 30
0.0
  0
VERTEX
  5
5F77
  8
0
 10
0.5502445879
 20
-0.7129028565000009
 30
0.0
  0
VERTEX
  5
5F78
  8
0
 10
0.5296308116999989
 20
-0.7270107809000022
 30
0.0
  0
VERTEX
  5
5F79
  8
0
 10
0.5086502960999974
 20
-0.7405968413
 30
0.0
  0
VERTEX
  5
5F7A
  8
0
 10
0.487344056999998
 20
-0.7536345279000006
 30
0.0
  0
VERTEX
  5
5F7B
  8
0
 10
0.4657114583999979
 20
-0.7661227697000004
 30
0.0
  0
VERTEX
  5
5F7C
  8
0
 10
0.4437531362999964
 20
-0.7780626376000011
 30
0.0
  0
VERTEX
  5
5F7D
  8
0
 10
0.4215120155999978
 20
-0.7894308352999988
 30
0.0
  0
VERTEX
  5
5F7E
  8
0
 10
0.3989875477999973
 20
-0.8002262444000006
 30
0.0
  0
VERTEX
  5
5F7F
  8
0
 10
0.3761802812999981
 20
-0.8104499832000012
 30
0.0
  0
VERTEX
  5
5F80
  8
0
 10
0.3531347863999983
 20
-0.8200821102999992
 30
0.0
  0
VERTEX
  5
5F81
  8
0
 10
0.3298506000000003
 20
-0.8291214701000019
 30
0.0
  0
VERTEX
  5
5F82
  8
0
 10
0.3063281851999982
 20
-0.8375692182000019
 30
0.0
  0
VERTEX
  5
5F83
  8
0
 10
0.2826135008999984
 20
-0.8454088800999986
 30
0.0
  0
VERTEX
  5
5F84
  8
0
 10
0.2587061732000002
 20
-0.8526392688000004
 30
0.0
  0
VERTEX
  5
5F85
  8
0
 10
0.2346065758999991
 20
-0.8592615714000007
 30
0.0
  0
VERTEX
  5
5F86
  8
0
 10
0.2103617900999986
 20
-0.8652628751999987
 30
0.0
  0
VERTEX
  5
5F87
  8
0
 10
0.1859715348999984
 20
-0.8706419678999989
 30
0.0
  0
VERTEX
  5
5F88
  8
0
 10
0.161436091099997
 20
-0.875400061700002
 30
0.0
  0
VERTEX
  5
5F89
  8
0
 10
0.1368033814999983
 20
-0.8795278808000009
 30
0.0
  0
VERTEX
  5
5F8A
  8
0
 10
0.1120732163999989
 20
-0.8830241956000005
 30
0.0
  0
VERTEX
  5
5F8B
  8
0
 10
0.0872457854999986
 20
-0.8858902356000012
 30
0.0
  0
VERTEX
  5
5F8C
  8
0
 10
0.0623695811999987
 20
-0.8881204137000008
 30
0.0
  0
VERTEX
  5
5F8D
  8
0
 10
0.0374607675000007
 20
-0.8897128673000015
 30
0.0
  0
VERTEX
  5
5F8E
  8
0
 10
0.0125031802999978
 20
-0.8906694589000029
 30
0.0
  0
VERTEX
  5
5F8F
  8
0
 10
-0.0125031803000013
 20
-0.8909901886000032
 30
0.0
  0
SEQEND
  5
5F90
  8
0
  0
LINE
  5
5585
  8
0
 10
5.2967809825999961
 20
3.249504161499996
 30
0.0
 11
5.2937602517999984
 21
3.1877359363999962
 31
0.0
  0
POLYLINE
  5
5586
  8
0
 66
     1
 10
0.0
 20
0.0
 30
0.0
  0
VERTEX
  5
5F91
  8
0
 10
4.8269146342999987
 20
-3.991883995100002
 30
0.0
  0
VERTEX
  5
5F92
  8
0
 10
4.8352167919999989
 20
-3.8385811490999959
 30
0.0
  0
VERTEX
  5
5F93
  8
0
 10
4.841160241799999
 20
-3.6850844530999991
 30
0.0
  0
VERTEX
  5
5F94
  8
0
 10
4.844740330299997
 20
-3.5313859701000032
 30
0.0
  0
VERTEX
  5
5F95
  8
0
 10
4.845949025899996
 20
-3.3776444115999982
 30
0.0
  0
VERTEX
  5
5F96
  8
0
 10
4.8447831705999951
 20
-3.223947508899998
 30
0.0
  0
VERTEX
  5
5F97
  8
0
 10
4.8412469368000011
 20
-3.0703662230000019
 30
0.0
  0
VERTEX
  5
5F98
  8
0
 10
4.8353513410999964
 20
-2.917035599800001
 30
0.0
  0
VERTEX
  5
5F99
  8
0
 10
4.8271013377999967
 20
-2.7639641495
 30
0.0
  0
VERTEX
  5
5F9A
  8
0
 10
4.8165085625999993
 20
-2.6113073233000019
 30
0.0
  0
VERTEX
  5
5F9B
  8
0
 10
4.8036117462999979
 20
-2.4594222851
 30
0.0
  0
VERTEX
  5
5F9C
  8
0
 10
4.788436243099996
 20
-2.3084015125999979
 30
0.0
  0
VERTEX
  5
5F9D
  8
0
 10
4.7710049739999949
 20
-2.1583164763
 30
0.0
  0
VERTEX
  5
5F9E
  8
0
 10
4.7513788482999963
 20
-2.0094891222000002
 30
0.0
  0
VERTEX
  5
5F9F
  8
0
 10
4.7296060027999989
 20
-1.8620604071999991
 30
0.0
  0
VERTEX
  5
5FA0
  8
0
 10
4.7057178635000012
 20
-1.7160335247
 30
0.0
  0
VERTEX
  5
5FA1
  8
0
 10
4.6797647789000001
 20
-1.571517429599999
 30
0.0
  0
VERTEX
  5
5FA2
  8
0
 10
4.651789562899995
 20
-1.4285792164000011
 30
0.0
  0
VERTEX
  5
5FA3
  8
0
 10
4.6218347882999939
 20
-1.287278601199999
 30
0.0
  0
VERTEX
  5
5FA4
  8
0
 10
4.5899593203000002
 20
-1.1477071342
 30
0.0
  0
VERTEX
  5
5FA5
  8
0
 10
4.5562030928999953
 20
-1.009868154799999
 30
0.0
  0
VERTEX
  5
5FA6
  8
0
 10
4.5206281618000004
 20
-0.8738634850000007
 30
0.0
  0
VERTEX
  5
5FA7
  8
0
 10
4.4833382057999938
 20
-0.7399227450000008
 30
0.0
  0
VERTEX
  5
5FA8
  8
0
 10
4.4443958070000003
 20
-0.6080977312000006
 30
0.0
  0
VERTEX
  5
5FA9
  8
0
 10
4.4038548461999998
 20
-0.4784167956000008
 30
0.0
  0
VERTEX
  5
5FAA
  8
0
 10
4.3618197317999989
 20
-0.3510608383000036
 30
0.0
  0
VERTEX
  5
5FAB
  8
0
 10
4.3183710073999979
 20
-0.2261075446000009
 30
0.0
  0
VERTEX
  5
5FAC
  8
0
 10
4.2735540747999963
 20
-0.1035312709000027
 30
0.0
  0
VERTEX
  5
5FAD
  8
0
 10
4.227427332399996
 20
0.0166537742999968
 30
0.0
  0
VERTEX
  5
5FAE
  8
0
 10
4.1800597629999992
 20
0.1344251447999984
 30
0.0
  0
VERTEX
  5
5FAF
  8
0
 10
4.1315097462999972
 20
0.2497797774999992
 30
0.0
  0
VERTEX
  5
5FB0
  8
0
 10
4.0818196542999967
 20
0.3627386965999979
 30
0.0
  0
VERTEX
  5
5FB1
  8
0
 10
4.0310461510999964
 20
0.4733124025999982
 30
0.0
  0
VERTEX
  5
5FB2
  8
0
 10
3.979258096799998
 20
0.5814801645999991
 30
0.0
  0
VERTEX
  5
5FB3
  8
0
 10
3.926514994999998
 20
0.6872220836999972
 30
0.0
  0
VERTEX
  5
5FB4
  8
0
 10
3.8728737875999988
 20
0.7905550370999995
 30
0.0
  0
VERTEX
  5
5FB5
  8
0
 10
3.8184025339999961
 20
0.8914722373000007
 30
0.0
  0
VERTEX
  5
5FB6
  8
0
 10
3.7631777566999989
 20
0.9899270953999991
 30
0.0
  0
VERTEX
  5
5FB7
  8
0
 10
3.7072654393999951
 20
1.085920338499998
 30
0.0
  0
VERTEX
  5
5FB8
  8
0
 10
3.6507167318999958
 20
1.1794804118999971
 30
0.0
  0
VERTEX
  5
5FB9
  8
0
 10
3.5935856296999962
 20
1.2706098873
 30
0.0
  0
VERTEX
  5
5FBA
  8
0
 10
3.535935387499999
 20
1.3593120740999951
 30
0.0
  0
VERTEX
  5
5FBB
  8
0
 10
3.4778076025999982
 20
1.4456252636999971
 30
0.0
  0
VERTEX
  5
5FBC
  8
0
 10
3.419219734299995
 20
1.529606794499998
 30
0.0
  0
VERTEX
  5
5FBD
  8
0
 10
3.3602219436999961
 20
1.611280419399995
 30
0.0
  0
VERTEX
  5
5FBE
  8
0
 10
3.3008614330999979
 20
1.690673224699998
 30
0.0
  0
VERTEX
  5
5FBF
  8
0
 10
3.241147128999998
 20
1.767847471699997
 30
0.0
  0
VERTEX
  5
5FC0
  8
0
 10
3.1811157283
 20
1.8428397063999991
 30
0.0
  0
VERTEX
  5
5FC1
  8
0
 10
3.120818279099995
 20
1.915667199999997
 30
0.0
  0
VERTEX
  5
5FC2
  8
0
 10
3.060280837499997
 20
1.986363023099996
 30
0.0
  0
VERTEX
  5
5FC3
  8
0
 10
2.9995363489999991
 20
2.054961400199999
 30
0.0
  0
VERTEX
  5
5FC4
  8
0
 10
2.9386282631999969
 20
2.1214859937999959
 30
0.0
  0
VERTEX
  5
5FC5
  8
0
 10
2.8775950974999982
 20
2.1859558196999971
 30
0.0
  0
VERTEX
  5
5FC6
  8
0
 10
2.816489321999998
 20
2.248383572499999
 30
0.0
  0
VERTEX
  5
5FC7
  8
0
 10
2.7553280243999958
 20
2.3088198058999958
 30
0.0
  0
VERTEX
  5
5FC8
  8
0
 10
2.6940932283999981
 20
2.367338956399998
 30
0.0
  0
VERTEX
  5
5FC9
  8
0
 10
2.6328166029000002
 20
2.4239689683999961
 30
0.0
  0
VERTEX
  5
5FCA
  8
0
 10
2.571527447299998
 20
2.4787409755999961
 30
0.0
  0
VERTEX
  5
5FCB
  8
0
 10
2.510199490699998
 20
2.5317286837999959
 30
0.0
  0
VERTEX
  5
5FCC
  8
0
 10
2.4488565335999959
 20
2.582960753999997
 30
0.0
  0
VERTEX
  5
5FCD
  8
0
 10
2.3875270722999979
 20
2.6324624382999979
 30
0.0
  0
VERTEX
  5
5FCE
  8
0
 10
2.3261875092999982
 20
2.6802966530999992
 30
0.0
  0
VERTEX
  5
5FCF
  8
0
 10
2.2648556994999951
 20
2.7264912329999991
 30
0.0
  0
VERTEX
  5
5FD0
  8
0
 10
2.2035608003999969
 20
2.771067039399997
 30
0.0
  0
VERTEX
  5
5FD1
  8
0
 10
2.1422930208999982
 20
2.8140719255999982
 30
0.0
  0
VERTEX
  5
5FD2
  8
0
 10
2.0810730841999949
 20
2.8555297005999982
 30
0.0
  0
VERTEX
  5
5FD3
  8
0
 10
2.019924559799998
 20
2.8954614788999971
 30
0.0
  0
VERTEX
  5
5FD4
  8
0
 10
1.958839272499999
 20
2.933907603099998
 30
0.0
  0
VERTEX
  5
5FD5
  8
0
 10
1.8978347594999949
 20
2.970890354799999
 30
0.0
  0
VERTEX
  5
5FD6
  8
0
 10
1.8369318132999961
 20
3.0064294797999991
 30
0.0
  0
VERTEX
  5
5FD7
  8
0
 10
1.776124187499998
 20
3.0405589131999982
 30
0.0
  0
VERTEX
  5
5FD8
  8
0
 10
1.715433040399996
 20
3.0732956330999981
 30
0.0
  0
VERTEX
  5
5FD9
  8
0
 10
1.6548679597999989
 20
3.1046633058999991
 30
0.0
  0
VERTEX
  5
5FDA
  8
0
 10
1.5944028291999961
 20
3.1347025701999991
 30
0.0
  0
VERTEX
  5
5FDB
  8
0
 10
1.534056475799999
 20
3.1634284042999981
 30
0.0
  0
VERTEX
  5
5FDC
  8
0
 10
1.473836372299999
 20
3.1908619705999981
 30
0.0
  0
VERTEX
  5
5FDD
  8
0
 10
1.4136972505000001
 20
3.217047824099998
 30
0.0
  0
VERTEX
  5
5FDE
  8
0
 10
1.353653127899999
 20
3.2420006450999992
 30
0.0
  0
VERTEX
  5
5FDF
  8
0
 10
1.293718386999998
 20
3.2657360141999972
 30
0.0
  0
VERTEX
  5
5FE0
  8
0
 10
1.2338462642999981
 20
3.2882934303999991
 30
0.0
  0
VERTEX
  5
5FE1
  8
0
 10
1.174051620499998
 20
3.309685083099998
 30
0.0
  0
VERTEX
  5
5FE2
  8
0
 10
1.114347881999997
 20
3.3299227497000001
 30
0.0
  0
VERTEX
  5
5FE3
  8
0
 10
1.054683938799996
 20
3.3490387134999979
 30
0.0
  0
VERTEX
  5
5FE4
  8
0
 10
0.9950662988999994
 20
3.3670430034999992
 30
0.0
  0
VERTEX
  5
5FE5
  8
0
 10
0.9355127342999978
 20
3.383942571699996
 30
0.0
  0
VERTEX
  5
5FE6
  8
0
 10
0.8759886129999968
 20
3.3997600880999981
 30
0.0
  0
VERTEX
  5
5FE7
  8
0
 10
0.8165087452999982
 20
3.4145039886999982
 30
0.0
  0
VERTEX
  5
5FE8
  8
0
 10
0.7570865344999973
 20
3.428182001799998
 30
0.0
  0
VERTEX
  5
5FE9
  8
0
 10
0.6976858630999985
 20
3.440811924199997
 30
0.0
  0
VERTEX
  5
5FEA
  8
0
 10
0.6383158977999983
 20
3.4523998989999982
 30
0.0
  0
VERTEX
  5
5FEB
  8
0
 10
0.5789931155999996
 20
3.4629503947
 30
0.0
  0
VERTEX
  5
5FEC
  8
0
 10
0.519691306499997
 20
3.472474167999998
 30
0.0
  0
VERTEX
  5
5FED
  8
0
 10
0.4604216546999993
 20
3.480974460899998
 30
0.0
  0
VERTEX
  5
5FEE
  8
0
 10
0.4011973580999994
 20
3.4884553477999991
 30
0.0
  0
VERTEX
  5
5FEF
  8
0
 10
0.3419955325000004
 20
3.4949266232999969
 30
0.0
  0
VERTEX
  5
5FF0
  8
0
 10
0.2828331182999975
 20
3.5003927688999981
 30
0.0
  0
VERTEX
  5
5FF1
  8
0
 10
0.2237197950000009
 20
3.5048583309999981
 30
0.0
  0
VERTEX
  5
5FF2
  8
0
 10
0.1646214324000006
 20
3.5083291394999958
 30
0.0
  0
VERTEX
  5
5FF3
  8
0
 10
0.1055351344999984
 20
3.5108072284999992
 30
0.0
  0
VERTEX
  5
5FF4
  8
0
 10
0.0464893966999966
 20
3.512293401599996
 30
0.0
  0
VERTEX
  5
5FF5
  8
0
 10
-0.0125030820000021
 20
3.5127890938999982
 30
0.0
  0
SEQEND
  5
5FF6
  8
0
  0
POLYLINE
  5
5587
  8
0
 66
     1
 10
0.0
 20
0.0
 30
0.0
  0
VERTEX
  5
5FF7
  8
0
 10
5.267419012199996
 20
2.644866029099997
 30
0.0
  0
VERTEX
  5
5FF8
  8
0
 10
5.2786500524999971
 20
2.8504496186999981
 30
0.0
  0
VERTEX
  5
5FF9
  8
0
 10
5.2878822005000004
 20
3.051318866899996
 30
0.0
  0
SEQEND
  5
5FFA
  8
0
  0
LINE
  5
5588
  8
0
 10
5.2987292873999987
 20
3.2856396949999991
 30
0.0
 11
5.2962516266999984
 21
3.2373730493999959
 31
0.0
  0
POLYLINE
  5
5589
  8
0
 66
     1
 10
0.0
 20
0.0
 30
0.0
  0
VERTEX
  5
5FFB
  8
0
 10
5.3115508834999989
 20
3.4282146096999981
 30
0.0
  0
VERTEX
  5
5FFC
  8
0
 10
5.3111243859999986
 20
3.4210168730999979
 30
0.0
  0
VERTEX
  5
5FFD
  8
0
 10
5.3104222703999948
 20
3.413840799399996
 30
0.0
  0
VERTEX
  5
5FFE
  8
0
 10
5.3094455697999958
 20
3.406696944099997
 30
0.0
  0
VERTEX
  5
5FFF
  8
0
 10
5.3081957221999989
 20
3.3995958178999981
 30
0.0
  0
SEQEND
  5
6000
  8
0
  0
LINE
  5
558A
  8
0
 10
5.3005252818999971
 20
3.3161417655999981
 30
0.0
 11
5.2984593522999948
 21
3.2787682800999991
 31
0.0
  0
POLYLINE
  5
558B
  8
0
 66
     1
 10
0.0
 20
0.0
 30
0.0
  0
VERTEX
  5
6001
  8
0
 10
5.2584924041000001
 20
2.5009131790999981
 30
0.0
  0
VERTEX
  5
6002
  8
0
 10
5.2638278645000014
 20
2.5852694966999961
 30
0.0
  0
VERTEX
  5
6003
  8
0
 10
5.2707019908999957
 20
2.7017948092999959
 30
0.0
  0
VERTEX
  5
6004
  8
0
 10
5.2770016535999993
 20
2.8183865882999992
 30
0.0
  0
VERTEX
  5
6005
  8
0
 10
5.2827173020999947
 20
2.9349395522999981
 30
0.0
  0
VERTEX
  5
6006
  8
0
 10
5.287843465299999
 20
3.0514165563999982
 30
0.0
  0
SEQEND
  5
6007
  8
0
  0
LINE
  5
558C
  8
0
 10
5.3000114060999959
 20
3.3054325063999959
 30
0.0
 11
5.3012348153999964
 21
3.324949144299997
 31
0.0
  0
POLYLINE
  5
558D
  8
0
 66
     1
 10
0.0
 20
0.0
 30
0.0
  0
VERTEX
  5
6008
  8
0
 10
5.3184756922999981
 20
3.4238393650999992
 30
0.0
  0
VERTEX
  5
6009
  8
0
 10
5.3417638899000011
 20
3.784029252399999
 30
0.0
  0
VERTEX
  5
600A
  8
0
 10
5.3820973552999964
 20
4.410903958699997
 30
0.0
  0
SEQEND
  5
600B
  8
0
  0
LINE
  5
558E
  8
0
 10
5.2582142414999993
 20
2.4966418319999981
 30
0.0
 11
5.267419012199996
 21
2.644866029099997
 31
0.0
  0
LINE
  5
558F
  8
0
 10
5.3017534441999992
 20
3.3353856754999991
 30
0.0
 11
5.3005252818999971
 21
3.3161417655999981
 31
0.0
  0
LINE
  5
5590
  8
0
 10
5.1929258246999961
 20
1.4986969775000001
 30
0.0
 11
5.2582142416999993
 21
2.496641835099997
 31
0.0
  0
LINE
  5
5591
  8
0
 10
5.1378931974000004
 20
0.6620992918999993
 30
0.0
 11
5.1929258246999961
 21
1.4986969775000001
 31
0.0
  0
LINE
  5
5592
  8
0
 10
5.0797144785999979
 20
-0.2181399303000009
 30
0.0
 11
5.1378931974000004
 21
0.6620992918999993
 31
0.0
  0
LINE
  5
5593
  8
0
 10
5.0186297809999996
 20
-1.1379079448
 30
0.0
 11
5.0797144785999979
 21
-0.2181399303000009
 31
0.0
  0
LINE
  5
5594
  8
0
 10
4.9576276821999983
 20
-2.0519134943000021
 30
0.0
 11
5.0186297809999996
 21
-1.1379079448
 31
0.0
  0
LINE
  5
5595
  8
0
 10
4.8709634987000001
 20
-3.342359036399996
 30
0.0
 11
4.9576276821999983
 21
-2.0519134943000021
 31
0.0
  0
LINE
  5
5596
  8
0
 10
4.8231693322999956
 20
-4.049677625900002
 30
0.0
 11
4.8709634987000001
 21
-3.342359036399996
 31
0.0
  0
LINE
  5
5597
  8
0
 10
4.8230446058999981
 20
-4.0515167088999986
 30
0.0
 11
4.8269146342999987
 21
-3.991883995100002
 31
0.0
  0
LINE
  5
5598
  8
0
 10
5.3012348153999964
 20
3.324949144299997
 30
0.0
 11
5.3023878086999989
 21
3.3420728168999969
 31
0.0
  0
LINE
  5
5599
  8
0
 10
5.302877411199999
 20
3.3518008344999961
 30
0.0
 11
5.3017534441999992
 21
3.3353856754999991
 31
0.0
  0
LINE
  5
559A
  8
0
 10
5.3023878086999989
 20
3.3420728168999969
 30
0.0
 11
5.303252677799998
 21
3.354069506199997
 31
0.0
  0
LINE
  5
559B
  8
0
 10
5.3039028826999957
 20
3.3657425936999981
 30
0.0
 11
5.302877411199999
 21
3.3518008344999961
 31
0.0
  0
LINE
  5
559C
  8
0
 10
5.303252677799998
 20
3.354069506199997
 30
0.0
 11
5.304060383999996
 21
3.364580644299997
 31
0.0
  0
LINE
  5
559D
  8
0
 10
5.304844608099998
 20
3.3776386092999982
 30
0.0
 11
5.3039028826999957
 21
3.3657425936999981
 31
0.0
  0
LINE
  5
559E
  8
0
 10
5.304060383999996
 20
3.364580644299997
 30
0.0
 11
5.3048046578999948
 21
3.373635804099997
 31
0.0
  0
LINE
  5
559F
  8
0
 10
5.3054345655999953
 20
3.3846313614999981
 30
0.0
 11
5.304844608099998
 21
3.3776386092999982
 31
0.0
  0
LINE
  5
55A0
  8
0
 10
5.3048046578999948
 20
3.373635804099997
 30
0.0
 11
5.3053168714999961
 21
3.379490080799997
 31
0.0
  0
LINE
  5
55A1
  8
0
 10
5.305998696899997
 20
3.390965243099997
 30
0.0
 11
5.3054345655999953
 21
3.3846313614999981
 31
0.0
  0
LINE
  5
55A2
  8
0
 10
5.3053168714999961
 20
3.379490080799997
 30
0.0
 11
5.3057858236999991
 21
3.384556755599998
 31
0.0
  0
LINE
  5
55A3
  8
0
 10
5.3065423068999991
 20
3.3967351552
 30
0.0
 11
5.305998696899997
 21
3.390965243099997
 31
0.0
  0
LINE
  5
55A4
  8
0
 10
5.3057858236999991
 20
3.384556755599998
 30
0.0
 11
5.3062068931999971
 21
3.3888441058999992
 31
0.0
  0
LINE
  5
55A5
  8
0
 10
5.307068104699999
 20
3.401986405699998
 30
0.0
 11
5.3065423068999991
 21
3.3967351552
 31
0.0
  0
LINE
  5
55A6
  8
0
 10
5.3062068931999971
 20
3.3888441058999992
 30
0.0
 11
5.3064583462999959
 21
3.3912736333999991
 31
0.0
  0
LINE
  5
55A7
  8
0
 10
5.3064583462999959
 20
3.3912736333999991
 30
0.0
 11
5.3066842028999961
 21
3.3933624420999982
 31
0.0
  0
LINE
  5
55A8
  8
0
 10
5.3066842028999961
 20
3.3933624420999982
 30
0.0
 11
5.3068823809000003
 21
3.395113535599998
 31
0.0
  0
LINE
  5
55A9
  8
0
 10
5.3068823809000003
 20
3.395113535599998
 30
0.0
 11
5.3070496454999958
 21
3.3965223311999981
 31
0.0
  0
LINE
  5
55AA
  8
0
 10
5.3070496454999958
 20
3.3965223311999981
 30
0.0
 11
5.3071819599000003
 21
3.397582100599998
 31
0.0
  0
POLYLINE
  5
55AB
  8
0
 66
     1
 10
0.0
 20
0.0
 30
0.0
  0
VERTEX
  5
600C
  8
0
 10
5.3071819599000003
 20
3.397582100599998
 30
0.0
  0
VERTEX
  5
600D
  8
0
 10
5.307274872099998
 20
3.3982881693999958
 30
0.0
  0
VERTEX
  5
600E
  8
0
 10
5.3073041689999982
 20
3.3985013062999969
 30
0.0
  0
VERTEX
  5
600F
  8
0
 10
5.307313469199995
 20
3.3985674941999982
 30
0.0
  0
SEQEND
  5
6010
  8
0
  0
POLYLINE
  5
55AC
  8
0
 66
     1
 10
0.0
 20
0.0
 30
0.0
  0
VERTEX
  5
6011
  8
0
 10
5.3115565075999971
 20
3.4282204757999981
 30
0.0
  0
VERTEX
  5
6012
  8
0
 10
5.3113663518999967
 20
3.4281718918999982
 30
0.0
  0
VERTEX
  5
6013
  8
0
 10
5.3111717499999962
 20
3.427972026599996
 30
0.0
  0
VERTEX
  5
6014
  8
0
 10
5.3109729956999967
 20
3.4276210334999981
 30
0.0
  0
VERTEX
  5
6015
  8
0
 10
5.3107705253999953
 20
3.4271130423999989
 30
0.0
  0
VERTEX
  5
6016
  8
0
 10
5.310564462299995
 20
3.4264541828999979
 30
0.0
  0
VERTEX
  5
6017
  8
0
 10
5.3103545596999968
 20
3.425662579299996
 30
0.0
  0
VERTEX
  5
6018
  8
0
 10
5.3101408535999948
 20
3.4247402499999979
 30
0.0
  0
VERTEX
  5
6019
  8
0
 10
5.3099236831999956
 20
3.4236853417999962
 30
0.0
  0
VERTEX
  5
601A
  8
0
 10
5.3097031705999953
 20
3.422510146999997
 30
0.0
  0
VERTEX
  5
601B
  8
0
 10
5.3094795352999986
 20
3.421216659899998
 30
0.0
  0
VERTEX
  5
601C
  8
0
 10
5.309252848399999
 20
3.4198029821000002
 30
0.0
  0
VERTEX
  5
601D
  8
0
 10
5.3090229614000002
 20
3.4182755540999961
 30
0.0
  0
VERTEX
  5
601E
  8
0
 10
5.3087900502999972
 20
3.4166362099000001
 30
0.0
  0
VERTEX
  5
601F
  8
0
 10
5.3085541643999949
 20
3.4148831689999981
 30
0.0
  0
VERTEX
  5
6020
  8
0
 10
5.3083149314999947
 20
3.413017450099999
 30
0.0
  0
VERTEX
  5
6021
  8
0
 10
5.3080724946999993
 20
3.4110407773999989
 30
0.0
  0
VERTEX
  5
6022
  8
0
 10
5.3078268883999957
 20
3.408951452899998
 30
0.0
  0
VERTEX
  5
6023
  8
0
 10
5.3075775557999929
 20
3.406745370599999
 30
0.0
  0
VERTEX
  5
6024
  8
0
 10
5.307068104699999
 20
3.401986405699998
 30
0.0
  0
SEQEND
  5
6025
  8
0
  0
POLYLINE
  5
55AD
  8
0
 66
     1
 10
0.0
 20
0.0
 30
0.0
  0
VERTEX
  5
6026
  8
0
 10
2.8182726948999992
 20
1.5091619847999991
 30
0.0
  0
VERTEX
  5
6027
  8
0
 10
2.8065024287999969
 20
1.523708086599999
 30
0.0
  0
VERTEX
  5
6028
  8
0
 10
2.749575096599997
 20
1.592628258199998
 30
0.0
  0
VERTEX
  5
6029
  8
0
 10
2.692535461099995
 20
1.6593735263999989
 30
0.0
  0
VERTEX
  5
602A
  8
0
 10
2.6354161275999992
 20
1.723983222499998
 30
0.0
  0
VERTEX
  5
602B
  8
0
 10
2.5782292487999992
 20
1.7865165995999981
 30
0.0
  0
VERTEX
  5
602C
  8
0
 10
2.521016653299998
 20
1.8469974084999981
 30
0.0
  0
VERTEX
  5
602D
  8
0
 10
2.4638110575999961
 20
1.905458563
 30
0.0
  0
VERTEX
  5
602E
  8
0
 10
2.4066067770999982
 20
1.961969292599999
 30
0.0
  0
VERTEX
  5
602F
  8
0
 10
2.3494368459999979
 20
2.016558992099998
 30
0.0
  0
VERTEX
  5
6030
  8
0
 10
2.2923356043999981
 20
2.0692581733999971
 30
0.0
  0
VERTEX
  5
6031
  8
0
 10
2.2352955312999949
 20
2.1201336483999991
 30
0.0
  0
VERTEX
  5
6032
  8
0
 10
2.1783452026999961
 20
2.1692162099000001
 30
0.0
  0
VERTEX
  5
6033
  8
0
 10
2.121515672200001
 20
2.2165338448999981
 30
0.0
  0
VERTEX
  5
6034
  8
0
 10
2.064799581299996
 20
2.2621445721999991
 30
0.0
  0
VERTEX
  5
6035
  8
0
 10
2.0082213085999991
 20
2.306077771999997
 30
0.0
  0
VERTEX
  5
6036
  8
0
 10
1.9518085796999991
 20
2.3483597002000001
 30
0.0
  0
VERTEX
  5
6037
  8
0
 10
1.8955561807999981
 20
2.389039836999999
 30
0.0
  0
VERTEX
  5
6038
  8
0
 10
1.8394929727
 20
2.428140876599997
 30
0.0
  0
VERTEX
  5
6039
  8
0
 10
1.783635949199996
 20
2.4656935701
 30
0.0
  0
VERTEX
  5
603A
  8
0
 10
1.7279593645999951
 20
2.5017549821
 30
0.0
  0
VERTEX
  5
603B
  8
0
 10
1.6724907049999971
 20
2.5363447666999961
 30
0.0
  0
VERTEX
  5
603C
  8
0
 10
1.617242274699999
 20
2.5694924824999981
 30
0.0
  0
VERTEX
  5
603D
  8
0
 10
1.5621629586999961
 20
2.6012648682999981
 30
0.0
  0
VERTEX
  5
603E
  8
0
 10
1.5072645211999991
 20
2.6316884149999979
 30
0.0
  0
VERTEX
  5
603F
  8
0
 10
1.4525702538999981
 20
2.6607827691999959
 30
0.0
  0
VERTEX
  5
6040
  8
0
 10
1.3980436973000001
 20
2.688597686299997
 30
0.0
  0
VERTEX
  5
6041
  8
0
 10
1.3436884933999971
 20
2.7151589514999981
 30
0.0
  0
VERTEX
  5
6042
  8
0
 10
1.289531302099997
 20
2.7404806385999971
 30
0.0
  0
VERTEX
  5
6043
  8
0
 10
1.2355684852999991
 20
2.7645908540999971
 30
0.0
  0
VERTEX
  5
6044
  8
0
 10
1.181820191699998
 20
2.787506141199998
 30
0.0
  0
VERTEX
  5
6045
  8
0
 10
1.128293512799998
 20
2.8092485649999981
 30
0.0
  0
VERTEX
  5
6046
  8
0
 10
1.0749639560999991
 20
2.829851434399997
 30
0.0
  0
VERTEX
  5
6047
  8
0
 10
1.0218597042999971
 20
2.849326184999998
 30
0.0
  0
VERTEX
  5
6048
  8
0
 10
0.9689766256999979
 20
2.8676962943999982
 30
0.0
  0
VERTEX
  5
6049
  8
0
 10
0.9162400485999986
 20
2.8850064004999969
 30
0.0
  0
VERTEX
  5
604A
  8
0
 10
0.8636638949999984
 20
2.901267980799997
 30
0.0
  0
VERTEX
  5
604B
  8
0
 10
0.8112547507999997
 20
2.9164949142999959
 30
0.0
  0
VERTEX
  5
604C
  8
0
 10
0.7589252318999975
 20
2.9307267804999979
 30
0.0
  0
VERTEX
  5
604D
  8
0
 10
0.6968944414999961
 20
2.9463378022
 30
0.0
  0
SEQEND
  5
604E
  8
0
  0
POLYLINE
  5
55AE
  8
0
 66
     1
 10
0.0
 20
0.0
 30
0.0
  0
VERTEX
  5
604F
  8
0
 10
2.919820020499996
 20
1.3792648201999991
 30
0.0
  0
VERTEX
  5
6050
  8
0
 10
2.8632654941999962
 20
1.4525958667999961
 30
0.0
  0
VERTEX
  5
6051
  8
0
 10
2.8182726948999992
 20
1.5091619847999991
 30
0.0
  0
SEQEND
  5
6052
  8
0
  0
LINE
  5
55AF
  8
0
 10
2.919820020499996
 20
1.3792648201999991
 30
0.0
 11
2.936963610599999
 21
1.356518564399998
 31
0.0
  0
POLYLINE
  5
55B0
  8
0
 66
     1
 10
0.0
 20
0.0
 30
0.0
  0
VERTEX
  5
6053
  8
0
 10
2.9596309187999981
 20
1.325916828599996
 30
0.0
  0
VERTEX
  5
6054
  8
0
 10
2.9726921482000002
 20
1.3079989055000001
 30
0.0
  0
VERTEX
  5
6055
  8
0
 10
2.9868422649999991
 20
1.288351006699997
 30
0.0
  0
VERTEX
  5
6056
  8
0
 10
3.0022349031999962
 20
1.2666957506999981
 30
0.0
  0
VERTEX
  5
6057
  8
0
 10
3.018820699299996
 20
1.2430277256999991
 30
0.0
  0
VERTEX
  5
6058
  8
0
 10
3.036427813099996
 20
1.2175164309999991
 30
0.0
  0
VERTEX
  5
6059
  8
0
 10
3.0550125108999979
 20
1.190147989699998
 30
0.0
  0
VERTEX
  5
605A
  8
0
 10
3.074570292499998
 20
1.160843788199998
 30
0.0
  0
VERTEX
  5
605B
  8
0
 10
3.0948535227999958
 20
1.1298888393999951
 30
0.0
  0
VERTEX
  5
605C
  8
0
 10
3.1154665036999969
 20
1.0978178879999969
 30
0.0
  0
VERTEX
  5
605D
  8
0
 10
3.136394181
 20
1.0645944589999981
 30
0.0
  0
VERTEX
  5
605E
  8
0
 10
3.157411767799998
 20
1.030518101999998
 30
0.0
  0
VERTEX
  5
605F
  8
0
 10
3.177874351399995
 20
0.9966136862999983
 30
0.0
  0
VERTEX
  5
6060
  8
0
 10
3.1977547049999959
 20
0.9629359465999986
 30
0.0
  0
VERTEX
  5
6061
  8
0
 10
3.216928579699998
 20
0.9297092193999962
 30
0.0
  0
VERTEX
  5
6062
  8
0
 10
3.2347359643999982
 20
0.8981340408999972
 30
0.0
  0
VERTEX
  5
6063
  8
0
 10
3.251138385199996
 20
0.8683764576000005
 30
0.0
  0
VERTEX
  5
6064
  8
0
 10
3.266190578999995
 20
0.8404353906000001
 30
0.0
  0
VERTEX
  5
6065
  8
0
 10
3.2795301692999992
 20
0.8151067008999998
 30
0.0
  0
VERTEX
  5
6066
  8
0
 10
3.2912444413999951
 20
0.7923672971000006
 30
0.0
  0
VERTEX
  5
6067
  8
0
 10
3.3014083374999981
 20
0.7722050448999985
 30
0.0
  0
VERTEX
  5
6068
  8
0
 10
3.3097897187999958
 20
0.7552251743999965
 30
0.0
  0
VERTEX
  5
6069
  8
0
 10
3.3164405511999981
 20
0.7414792263999998
 30
0.0
  0
VERTEX
  5
606A
  8
0
 10
3.3216119571999969
 20
0.7305865173000014
 30
0.0
  0
VERTEX
  5
606B
  8
0
 10
3.325354730399996
 20
0.7225606853999982
 30
0.0
  0
SEQEND
  5
606C
  8
0
  0
POLYLINE
  5
55B1
  8
0
 66
     1
 10
0.0
 20
0.0
 30
0.0
  0
VERTEX
  5
606D
  8
0
 10
5.3820983945999963
 20
4.4109012337999971
 30
0.0
  0
VERTEX
  5
606E
  8
0
 10
5.3824257152999984
 20
4.418263397799997
 30
0.0
  0
VERTEX
  5
606F
  8
0
 10
5.382467382399998
 20
4.425405171899996
 30
0.0
  0
VERTEX
  5
6070
  8
0
 10
5.3822377607999954
 20
4.4325433752999981
 30
0.0
  0
VERTEX
  5
6071
  8
0
 10
5.3817371818999948
 20
4.4396677064999981
 30
0.0
  0
VERTEX
  5
6072
  8
0
 10
5.3809663680999957
 20
4.446767883999998
 30
0.0
  0
VERTEX
  5
6073
  8
0
 10
5.3799264318999951
 20
4.4538336612999956
 30
0.0
  0
VERTEX
  5
6074
  8
0
 10
5.3786188738999972
 20
4.4608548411999971
 30
0.0
  0
VERTEX
  5
6075
  8
0
 10
5.3770455811999991
 20
4.4678212912999982
 30
0.0
  0
VERTEX
  5
6076
  8
0
 10
5.375208824399996
 20
4.4747229578999992
 30
0.0
  0
VERTEX
  5
6077
  8
0
 10
5.3731112539999959
 20
4.4815498808999958
 30
0.0
  0
VERTEX
  5
6078
  8
0
 10
5.3707558971999969
 20
4.4882922078999981
 30
0.0
  0
VERTEX
  5
6079
  8
0
 10
5.3681461530999961
 20
4.4949402088999957
 30
0.0
  0
VERTEX
  5
607A
  8
0
 10
5.365285787999996
 20
4.5014842897999969
 30
0.0
  0
VERTEX
  5
607B
  8
0
 10
5.3621789297999953
 20
4.5079150064999958
 30
0.0
  0
VERTEX
  5
607C
  8
0
 10
5.3588300620999956
 20
4.514223078399997
 30
0.0
  0
VERTEX
  5
607D
  8
0
 10
5.3552440177999987
 20
4.520399402199998
 30
0.0
  0
VERTEX
  5
607E
  8
0
 10
5.3514259722000004
 20
4.5264350642999958
 30
0.0
  0
VERTEX
  5
607F
  8
0
 10
5.3473814352999964
 20
4.5323213545999987
 30
0.0
  0
VERTEX
  5
6080
  8
0
 10
5.3431162438999991
 20
4.5380497781999987
 30
0.0
  0
VERTEX
  5
6081
  8
0
 10
5.3386365531999971
 20
4.5436120679999981
 30
0.0
  0
VERTEX
  5
6082
  8
0
 10
5.3339488282999952
 20
4.549000196899998
 30
0.0
  0
VERTEX
  5
6083
  8
0
 10
5.3290598339999971
 20
4.5542063889999964
 30
0.0
  0
VERTEX
  5
6084
  8
0
 10
5.3239766260999968
 20
4.559223130999996
 30
0.0
  0
VERTEX
  5
6085
  8
0
 10
5.3187065402999991
 20
4.5640431828999981
 30
0.0
  0
VERTEX
  5
6086
  8
0
 10
5.3132571820999939
 20
4.5686595886999957
 30
0.0
  0
VERTEX
  5
6087
  8
0
 10
5.3076364157999958
 20
4.5730656862999961
 30
0.0
  0
VERTEX
  5
6088
  8
0
 10
5.3018523528999939
 20
4.5772551168999982
 30
0.0
  0
VERTEX
  5
6089
  8
0
 10
5.2959133407999932
 20
4.5812218344999964
 30
0.0
  0
VERTEX
  5
608A
  8
0
 10
5.2898279503999941
 20
4.5849601147000003
 30
0.0
  0
VERTEX
  5
608B
  8
0
 10
5.2836049635999984
 20
4.5884645623999969
 30
0.0
  0
VERTEX
  5
608C
  8
0
 10
5.2772533613999979
 20
4.5917301202000003
 30
0.0
  0
VERTEX
  5
608D
  8
0
 10
5.2707823098999986
 20
4.5947520754999971
 30
0.0
  0
VERTEX
  5
608E
  8
0
 10
5.2642011478999962
 20
4.5975260669999951
 30
0.0
  0
VERTEX
  5
608F
  8
0
 10
5.2575193728999938
 20
4.6000480915999971
 30
0.0
  0
VERTEX
  5
6090
  8
0
 10
5.2507466278999972
 20
4.6023145093999958
 30
0.0
  0
VERTEX
  5
6091
  8
0
 10
5.2438926867999971
 20
4.6043220498000004
 30
0.0
  0
VERTEX
  5
6092
  8
0
 10
5.236967441
 20
4.6060678155000003
 30
0.0
  0
VERTEX
  5
6093
  8
0
 10
5.2299808845999962
 20
4.6075492871999986
 30
0.0
  0
VERTEX
  5
6094
  8
0
 10
5.2229431003000002
 20
4.6087643267999958
 30
0.0
  0
VERTEX
  5
6095
  8
0
 10
5.215864244599997
 20
4.6097111808999971
 30
0.0
  0
VERTEX
  5
6096
  8
0
 10
5.2087545333999961
 20
4.6103884828999986
 30
0.0
  0
VERTEX
  5
6097
  8
0
 10
5.2016242270999982
 20
4.6107952556000003
 30
0.0
  0
VERTEX
  5
6098
  8
0
 10
5.1944836157999941
 20
4.610930911699997
 30
0.0
  0
SEQEND
  5
6099
  8
0
  0
LINE
  5
55B2
  8
0
 10
5.2878824230999957
 20
3.051318858199997
 30
0.0
 11
5.2929595976999959
 21
3.1688364531999991
 31
0.0
  0
LINE
  5
55B3
  8
0
 10
5.2927612940999991
 20
3.165936028899996
 30
0.0
 11
5.2938873345999964
 21
3.188903010499998
 31
0.0
  0
LINE
  5
55B4
  8
0
 10
5.2878822005000004
 20
3.051318866799996
 30
0.0
 11
5.2878388126000004
 21
3.051314815
 31
0.0
  0
LINE
  5
55B5
  8
0
 10
-5.3128434212000011
 20
3.0513142897999992
 30
0.0
 11
-5.3128868019000004
 21
3.051318341999997
 31
0.0
  0
POLYLINE
  5
55B6
  8
0
 66
     1
 10
0.0
 20
0.0
 30
0.0
  0
VERTEX
  5
609A
  8
0
 10
-0.7316643169000017
 20
2.9439796781999981
 30
0.0
  0
VERTEX
  5
609B
  8
0
 10
-0.7839302659000043
 20
2.930727129099997
 30
0.0
  0
VERTEX
  5
609C
  8
0
 10
-0.8362598283000011
 20
2.9164952751999991
 30
0.0
  0
VERTEX
  5
609D
  8
0
 10
-0.8886690167000033
 20
2.901268352299998
 30
0.0
  0
VERTEX
  5
609E
  8
0
 10
-0.9412451985000023
 20
2.8850067863999982
 30
0.0
  0
VERTEX
  5
609F
  8
0
 10
-0.9939817787
 20
2.8676967023
 30
0.0
  0
VERTEX
  5
60A0
  8
0
 10
-1.0468648448999991
 20
2.849326620599999
 30
0.0
  0
VERTEX
  5
60A1
  8
0
 10
-1.0999690788000001
 20
2.8298519004999991
 30
0.0
  0
VERTEX
  5
60A2
  8
0
 10
-1.1532986113000021
 20
2.8092490650999991
 30
0.0
  0
VERTEX
  5
60A3
  8
0
 10
-1.2068252607000041
 20
2.787506678799998
 30
0.0
  0
VERTEX
  5
60A4
  8
0
 10
-1.2605735325
 20
2.7645914273999992
 30
0.0
  0
VERTEX
  5
60A5
  8
0
 10
-1.3145363412000031
 20
2.7404812426999992
 30
0.0
  0
VERTEX
  5
60A6
  8
0
 10
-1.3686935316999991
 20
2.715159583699998
 30
0.0
  0
VERTEX
  5
60A7
  8
0
 10
-1.423048737000002
 20
2.6885983458999991
 30
0.0
  0
VERTEX
  5
60A8
  8
0
 10
-1.4775752974
 20
2.6607834553999981
 30
0.0
  0
VERTEX
  5
60A9
  8
0
 10
-1.532269570600004
 20
2.6316891271
 30
0.0
  0
VERTEX
  5
60AA
  8
0
 10
-1.5871680093
 20
2.601265609099999
 30
0.0
  0
VERTEX
  5
60AB
  8
0
 10
-1.6422473175000001
 20
2.5694932578
 30
0.0
  0
VERTEX
  5
60AC
  8
0
 10
-1.697495735700002
 20
2.536345580199999
 30
0.0
  0
VERTEX
  5
60AD
  8
0
 10
-1.7529643851000001
 20
2.5017558337999959
 30
0.0
  0
VERTEX
  5
60AE
  8
0
 10
-1.808640963
 20
2.4656944588999949
 30
0.0
  0
VERTEX
  5
60AF
  8
0
 10
-1.8644979817
 20
2.4281418021999981
 30
0.0
  0
VERTEX
  5
60B0
  8
0
 10
-1.9205611894000001
 20
2.389040797399999
 30
0.0
  0
VERTEX
  5
60B1
  8
0
 10
-1.976813595700003
 20
2.3483606901999989
 30
0.0
  0
VERTEX
  5
60B2
  8
0
 10
-2.033226336100002
 20
2.3060787889999959
 30
0.0
  0
VERTEX
  5
60B3
  8
0
 10
-2.0898046157000021
 20
2.2621456203000001
 30
0.0
  0
VERTEX
  5
60B4
  8
0
 10
-2.146520705099999
 20
2.2165349313999969
 30
0.0
  0
VERTEX
  5
60B5
  8
0
 10
-2.2033502297999998
 20
2.1692173395999981
 30
0.0
  0
VERTEX
  5
60B6
  8
0
 10
-2.2603005504000002
 20
2.1201348246
 30
0.0
  0
VERTEX
  5
60B7
  8
0
 10
-2.317340611300001
 20
2.069259401699997
 30
0.0
  0
VERTEX
  5
60B8
  8
0
 10
-2.374441838900001
 20
2.0165602760999981
 30
0.0
  0
VERTEX
  5
60B9
  8
0
 10
-2.4316117636999999
 20
1.961970627100001
 30
0.0
  0
VERTEX
  5
60BA
  8
0
 10
-2.488816051000001
 20
1.9054599367999949
 30
0.0
  0
VERTEX
  5
60BB
  8
0
 10
-2.546021660700001
 20
1.846998814999999
 30
0.0
  0
VERTEX
  5
60BC
  8
0
 10
-2.603234270199998
 20
1.7865180394999991
 30
0.0
  0
VERTEX
  5
60BD
  8
0
 10
-2.6604211623
 20
1.723984697100001
 30
0.0
  0
VERTEX
  5
60BE
  8
0
 10
-2.7175405094
 20
1.6593750361999959
 30
0.0
  0
VERTEX
  5
60BF
  8
0
 10
-2.774580153600001
 20
1.5926298097
 30
0.0
  0
VERTEX
  5
60C0
  8
0
 10
-2.8315074864000009
 20
1.5237096912999979
 30
0.0
  0
VERTEX
  5
60C1
  8
0
 10
-2.8433917509000022
 20
1.5090222129999971
 30
0.0
  0
SEQEND
  5
60C2
  8
0
  0
LINE
  5
55B7
  8
0
 10
-0.7316643169000017
 20
2.9439796781999981
 30
0.0
 11
-0.6700146979000046
 21
2.958373260199997
 31
0.0
  0
LINE
  5
55B8
  8
0
 10
-0.6794961708000038
 20
2.956255456499997
 30
0.0
 11
-0.618543324800001
 21
2.9693899744999959
 31
0.0
  0
LINE
  5
55B9
  8
0
 10
-0.6274127718000031
 20
2.9675686352999979
 30
0.0
 11
-0.5671926740000011
 21
2.979470232799998
 31
0.0
  0
LINE
  5
55BA
  8
0
 10
-0.5754123927000026
 20
2.9779296140999958
 30
0.0
 11
-0.5159843729000038
 21
2.9886217484999982
 31
0.0
  0
LINE
  5
55BB
  8
0
 10
-0.5235137461000008
 20
2.9873445009999982
 30
0.0
 11
-0.4648513185000028
 21
2.9968661414999982
 31
0.0
  0
LINE
  5
55BC
  8
0
 10
-0.4717341115000018
 20
2.9958203370999992
 30
0.0
 11
-0.413813898600001
 21
3.0042077331999981
 31
0.0
  0
LINE
  5
55BD
  8
0
 10
-0.4200831163000025
 20
3.0033658221999979
 30
0.0
 11
-0.3628927051000019
 21
3.010652508999998
 31
0.0
  0
LINE
  5
55BE
  8
0
 10
-0.3685672685000014
 20
3.009990106499997
 30
0.0
 11
-0.312018365700002
 21
3.0162159075999981
 31
0.0
  0
LINE
  5
55BF
  8
0
 10
-0.3171989762000003
 20
3.015701609699998
 30
0.0
 11
-0.2612104208000012
 21
3.0209003075999989
 31
0.0
  0
LINE
  5
55C0
  8
0
 10
-0.2659878806000009
 20
3.0205092880999991
 30
0.0
 11
-0.2104879081000028
 21
3.024709723699996
 31
0.0
  0
LINE
  5
55C1
  8
0
 10
-0.2149395172999995
 20
3.024422492099998
 30
0.0
 11
-0.1597789669000029
 21
3.027653055299997
 31
0.0
  0
LINE
  5
55C2
  8
0
 10
-0.1640598994999998
 20
3.027450391999996
 30
0.0
 11
-0.1090722324000026
 21
3.0297315736999981
 31
0.0
  0
LINE
  5
55C3
  8
0
 10
-0.1133557620999994
 20
3.029602032999998
 30
0.0
 11
-0.058419230200002
 21
3.0309452409999982
 31
0.0
  0
LINE
  5
55C4
  8
0
 10
-0.0125031803000013
 20
3.031312540199997
 30
0.0
 11
-0.0628345679000013
 21
3.0308864106999991
 31
0.0
  0
LINE
  5
55C7
  8
0
 10
0.0378284099999995
 20
3.0308864072999979
 30
0.0
 11
-0.0125031803000013
 21
3.031312540199997
 31
0.0
  0
LINE
  5
55C8
  8
0
 10
0.088349793199999
 20
3.0296020197999991
 30
0.0
 11
0.0337938525000006
 21
3.0309393301999981
 31
0.0
  0
LINE
  5
55C9
  8
0
 10
0.1390541058999979
 20
3.027450363099998
 30
0.0
 11
0.0844421668999971
 21
3.029719331899996
 31
0.0
  0
LINE
  5
55CA
  8
0
 10
0.1899338849999985
 20
3.0244224424999979
 30
0.0
 11
0.1351441184999977
 21
3.0276346366999971
 31
0.0
  0
LINE
  5
55CB
  8
0
 10
0.2409823957999997
 20
3.0205092133999991
 30
0.0
 11
0.1858482136999981
 21
3.024685291399996
 31
0.0
  0
LINE
  5
55CC
  8
0
 10
0.2921936253999995
 20
3.0157015061999961
 30
0.0
 11
0.2365658372000006
 21
3.0208700270999991
 31
0.0
  0
LINE
  5
55CD
  8
0
 10
0.3435620417999985
 20
3.0099899705999991
 30
0.0
 11
0.2873688444999978
 21
3.0161799290999971
 31
0.0
  0
LINE
  5
55CE
  8
0
 10
0.3950780000999998
 20
3.0033656512999962
 30
0.0
 11
0.3382381987999992
 21
3.010610986699997
 31
0.0
  0
LINE
  5
55CF
  8
0
 10
0.4467290817999974
 20
2.9958201309999981
 30
0.0
 11
0.3891543625999993
 21
3.0041608273999989
 31
0.0
  0
LINE
  5
55D0
  8
0
 10
0.4985087753999978
 20
2.9873442611999992
 30
0.0
 11
0.4401867051000005
 21
2.9968139979999981
 31
0.0
  0
LINE
  5
55D1
  8
0
 10
0.5504074568999969
 20
2.9779293429999991
 30
0.0
 11
0.4913146415999991
 21
2.9885645167999959
 31
0.0
  0
LINE
  5
55D2
  8
0
 10
0.602407847099997
 20
2.9675683362999958
 30
0.0
 11
0.5425177953999985
 21
2.9794080678000001
 31
0.0
  0
LINE
  5
55D3
  8
0
 10
0.6544912256999993
 20
2.9562551361999958
 30
0.0
 11
0.5938632688999981
 21
2.9693230175999981
 31
0.0
  0
LINE
  5
55D4
  8
0
 10
0.7066593276999991
 20
2.9439793429999992
 30
0.0
 11
0.6453294369999975
 21
2.9583016546999992
 31
0.0
  0
POLYLINE
  5
55D5
  8
0
 66
     1
 10
0.0
 20
0.0
 30
0.0
  0
VERTEX
  5
60C3
  8
0
 10
0.7486216736999971
 20
2.9334038623999992
 30
0.0
  0
VERTEX
  5
60C4
  8
0
 10
0.8004877218999977
 20
2.919490565099998
 30
0.0
  0
VERTEX
  5
60C5
  8
0
 10
0.8524708679999973
 20
2.9045903883999991
 30
0.0
  0
VERTEX
  5
60C6
  8
0
 10
0.9046331457999984
 20
2.8886705980999992
 30
0.0
  0
VERTEX
  5
60C7
  8
0
 10
0.9569515218999987
 20
2.8717211659999982
 30
0.0
  0
VERTEX
  5
60C8
  8
0
 10
1.0094023278999971
 20
2.8537346321000001
 30
0.0
  0
VERTEX
  5
60C9
  8
0
 10
1.062042116799996
 20
2.8346750524000002
 30
0.0
  0
VERTEX
  5
60CA
  8
0
 10
1.1148406977
 20
2.8145347551999982
 30
0.0
  0
VERTEX
  5
60CB
  8
0
 10
1.1677764809999971
 20
2.7933041127999991
 30
0.0
  0
VERTEX
  5
60CC
  8
0
 10
1.220913630399997
 20
2.770937192399999
 30
0.0
  0
VERTEX
  5
60CD
  8
0
 10
1.274217428999995
 20
2.7474261356999969
 30
0.0
  0
VERTEX
  5
60CE
  8
0
 10
1.3276665818999971
 20
2.7227587246999989
 30
0.0
  0
VERTEX
  5
60CF
  8
0
 10
1.3813388348999991
 20
2.6968745984999991
 30
0.0
  0
VERTEX
  5
60D0
  8
0
 10
1.435202483499999
 20
2.6697615529999981
 30
0.0
  0
VERTEX
  5
60D1
  8
0
 10
1.489226939599998
 20
2.641407993599997
 30
0.0
  0
VERTEX
  5
60D2
  8
0
 10
1.5434839572999961
 20
2.6117463477999991
 30
0.0
  0
VERTEX
  5
60D3
  8
0
 10
1.5979386200000001
 20
2.5807627677
 30
0.0
  0
VERTEX
  5
60D4
  8
0
 10
1.6525579029999971
 20
2.5484441696000002
 30
0.0
  0
VERTEX
  5
60D5
  8
0
 10
1.707408713799998
 20
2.5147166350999992
 30
0.0
  0
VERTEX
  5
60D6
  8
0
 10
1.7624534499999971
 20
2.4795662283999982
 30
0.0
  0
VERTEX
  5
60D7
  8
0
 10
1.817658473799997
 20
2.4429790212999958
 30
0.0
  0
VERTEX
  5
60D8
  8
0
 10
1.8730882759999961
 20
2.4048746043999949
 30
0.0
  0
VERTEX
  5
60D9
  8
0
 10
1.928703671499999
 20
2.3652393528999971
 30
0.0
  0
VERTEX
  5
60DA
  8
0
 10
1.984464748899998
 20
2.3240609261
 30
0.0
  0
VERTEX
  5
60DB
  8
0
 10
2.0404261353999962
 20
2.281254630599999
 30
0.0
  0
VERTEX
  5
60DC
  8
0
 10
2.0965537977999982
 20
2.2367988981999991
 30
0.0
  0
VERTEX
  5
60DD
  8
0
 10
2.152794710899995
 20
2.1906880598999998
 30
0.0
  0
VERTEX
  5
60DE
  8
0
 10
2.2091674706999971
 20
2.1428571898999991
 30
0.0
  0
VERTEX
  5
60DF
  8
0
 10
2.265633363899997
 20
2.0932874605999992
 30
0.0
  0
VERTEX
  5
60E0
  8
0
 10
2.322139462099996
 20
2.0419729693999962
 30
0.0
  0
VERTEX
  5
60E1
  8
0
 10
2.3786779957999951
 20
1.988866581099997
 30
0.0
  0
VERTEX
  5
60E2
  8
0
 10
2.435219662899998
 20
1.9339401531
 30
0.0
  0
VERTEX
  5
60E3
  8
0
 10
2.4917016393999969
 20
1.8772006547
 30
0.0
  0
VERTEX
  5
60E4
  8
0
 10
2.548065863699998
 20
1.818655946099998
 30
0.0
  0
VERTEX
  5
60E5
  8
0
 10
2.604276738999999
 20
1.7582948161999981
 30
0.0
  0
VERTEX
  5
60E6
  8
0
 10
2.660287106599998
 20
1.696119051299998
 30
0.0
  0
VERTEX
  5
60E7
  8
0
 10
2.7160246709999991
 20
1.6321612220999979
 30
0.0
  0
VERTEX
  5
60E8
  8
0
 10
2.771449451799997
 20
1.566422970699999
 30
0.0
  0
VERTEX
  5
60E9
  8
0
 10
2.818335761699998
 20
1.5090839821999991
 30
0.0
  0
SEQEND
  5
60EA
  8
0
  0
POLYLINE
  5
55D6
  8
0
 66
     1
 10
0.0
 20
0.0
 30
0.0
  0
VERTEX
  5
60EB
  8
0
 10
-0.0125030820000021
 20
3.5127890938999982
 30
0.0
  0
VERTEX
  5
60EC
  8
0
 10
-0.0714956047000008
 20
3.5122934057999982
 30
0.0
  0
VERTEX
  5
60ED
  8
0
 10
-0.1305413941000033
 20
3.5108072350000001
 30
0.0
  0
VERTEX
  5
60EE
  8
0
 10
-0.1896277516000033
 20
3.5083291460999981
 30
0.0
  0
VERTEX
  5
60EF
  8
0
 10
-0.2487261793000002
 20
3.5048583351999989
 30
0.0
  0
VERTEX
  5
60F0
  8
0
 10
-0.307839575700001
 20
3.500392767799998
 30
0.0
  0
VERTEX
  5
60F1
  8
0
 10
-0.3670020780000023
 20
3.4949266130999992
 30
0.0
  0
VERTEX
  5
60F2
  8
0
 10
-0.4262040256000043
 20
3.488455321999997
 30
0.0
  0
VERTEX
  5
60F3
  8
0
 10
-0.4854284590000013
 20
3.480974413499998
 30
0.0
  0
VERTEX
  5
60F4
  8
0
 10
-0.5446982126000002
 20
3.4724740996999981
 30
0.0
  0
VERTEX
  5
60F5
  8
0
 10
-0.6040000792000022
 20
3.4629503091999969
 30
0.0
  0
VERTEX
  5
60F6
  8
0
 10
-0.6633228845000012
 20
3.4523998004999981
 30
0.0
  0
VERTEX
  5
60F7
  8
0
 10
-0.7226928183000041
 20
3.440811822999998
 30
0.0
  0
VERTEX
  5
60F8
  8
0
 10
-0.7820933801999992
 20
3.428181916299998
 30
0.0
  0
VERTEX
  5
60F9
  8
0
 10
-0.841515428000001
 20
3.4145039355999991
 30
0.0
  0
VERTEX
  5
60FA
  8
0
 10
-0.9009951294000018
 20
3.3997600739999969
 30
0.0
  0
VERTEX
  5
60FB
  8
0
 10
-0.9605190820000013
 20
3.3839426038999969
 30
0.0
  0
VERTEX
  5
60FC
  8
0
 10
-1.0200724751000001
 20
3.3670430890999961
 30
0.0
  0
VERTEX
  5
60FD
  8
0
 10
-1.0796899886000011
 20
3.3490388449999982
 30
0.0
  0
VERTEX
  5
60FE
  8
0
 10
-1.1393538683999991
 20
3.3299229107999979
 30
0.0
  0
VERTEX
  5
60FF
  8
0
 10
-1.199057587800002
 20
3.309685260999998
 30
0.0
  0
VERTEX
  5
6100
  8
0
 10
-1.2588522488
 20
3.2882936128999991
 30
0.0
  0
VERTEX
  5
6101
  8
0
 10
-1.3187244291000011
 20
3.265736185699998
 30
0.0
  0
VERTEX
  5
6102
  8
0
 10
-1.3786592630000021
 20
3.242000789399996
 30
0.0
  0
VERTEX
  5
6103
  8
0
 10
-1.4387034929000031
 20
3.217047932099999
 30
0.0
  0
VERTEX
  5
6104
  8
0
 10
-1.4988427408
 20
3.190862030099999
 30
0.0
  0
VERTEX
  5
6105
  8
0
 10
-1.559062984399999
 20
3.1634284041999972
 30
0.0
  0
VERTEX
  5
6106
  8
0
 10
-1.6194094571999991
 20
3.1347025151999981
 30
0.0
  0
VERTEX
  5
6107
  8
0
 10
-1.6798746811000009
 20
3.1046632047
 30
0.0
  0
VERTEX
  5
6108
  8
0
 10
-1.740439835199999
 20
3.0732954924999989
 30
0.0
  0
VERTEX
  5
6109
  8
0
 10
-1.8011310206000031
 20
3.040558749799998
 30
0.0
  0
VERTEX
  5
610A
  8
0
 10
-1.861938635900003
 20
3.0064293201999992
 30
0.0
  0
VERTEX
  5
610B
  8
0
 10
-1.922841538100001
 20
2.970890219799998
 30
0.0
  0
VERTEX
  5
610C
  8
0
 10
-1.9838460011000001
 20
2.9339074990999969
 30
0.0
  0
VERTEX
  5
610D
  8
0
 10
-2.044931240099999
 20
2.8954614079999992
 30
0.0
  0
VERTEX
  5
610E
  8
0
 10
-2.1060797103
 20
2.855529669499997
 30
0.0
  0
VERTEX
  5
610F
  8
0
 10
-2.1672995914000022
 20
2.8140719386999971
 30
0.0
  0
VERTEX
  5
6110
  8
0
 10
-2.2285673165
 20
2.771067099099997
 30
0.0
  0
VERTEX
  5
6111
  8
0
 10
-2.2898621599000002
 20
2.726491343699998
 30
0.0
  0
VERTEX
  5
6112
  8
0
 10
-2.3511939084000022
 20
2.680296822499999
 30
0.0
  0
VERTEX
  5
6113
  8
0
 10
-2.4125333941000009
 20
2.6324626830999982
 30
0.0
  0
VERTEX
  5
6114
  8
0
 10
-2.4738627734000009
 20
2.582961082999998
 30
0.0
  0
VERTEX
  5
6115
  8
0
 10
-2.5352056729000032
 20
2.5317290813999982
 30
0.0
  0
VERTEX
  5
6116
  8
0
 10
-2.5965336108999999
 20
2.4787414117999971
 30
0.0
  0
VERTEX
  5
6117
  8
0
 10
-2.6578227709000011
 20
2.4239694239999992
 30
0.0
  0
VERTEX
  5
6118
  8
0
 10
-2.7190994072999999
 20
2.367339426199996
 30
0.0
  0
VERTEX
  5
6119
  8
0
 10
-2.7803342165
 20
2.308820287899997
 30
0.0
  0
VERTEX
  5
611A
  8
0
 10
-2.8414955336999999
 20
2.2483840604999981
 30
0.0
  0
VERTEX
  5
611B
  8
0
 10
-2.9026013306000031
 20
2.185956311499996
 30
0.0
  0
VERTEX
  5
611C
  8
0
 10
-2.9636344837999999
 20
2.1214865253999982
 30
0.0
  0
VERTEX
  5
611D
  8
0
 10
-3.0245425597999991
 20
2.054961970099999
 30
0.0
  0
VERTEX
  5
611E
  8
0
 10
-3.0852871415000021
 20
1.986363514399996
 30
0.0
  0
VERTEX
  5
611F
  8
0
 10
-3.1458248762000021
 20
1.915667368699999
 30
0.0
  0
VERTEX
  5
6120
  8
0
 10
-3.206122710299999
 20
1.8428394159999959
 30
0.0
  0
VERTEX
  5
6121
  8
0
 10
-3.2661543859000002
 20
1.767846829099998
 30
0.0
  0
VERTEX
  5
6122
  8
0
 10
-3.3258687590000009
 20
1.6906724753999991
 30
0.0
  0
VERTEX
  5
6123
  8
0
 10
-3.3852292405000011
 20
1.611279688699998
 30
0.0
  0
VERTEX
  5
6124
  8
0
 10
-3.444227010800001
 20
1.5296060704999981
 30
0.0
  0
VERTEX
  5
6125
  8
0
 10
-3.5028149041000001
 20
1.445624480199998
 30
0.0
  0
VERTEX
  5
6126
  8
0
 10
-3.5609427216
 20
1.3593112152999991
 30
0.0
  0
VERTEX
  5
6127
  8
0
 10
-3.6185929946000002
 20
1.270608950099998
 30
0.0
  0
VERTEX
  5
6128
  8
0
 10
-3.675724133300001
 20
1.1794793813999971
 30
0.0
  0
VERTEX
  5
6129
  8
0
 10
-3.732272876100001
 20
1.085919209999999
 30
0.0
  0
VERTEX
  5
612A
  8
0
 10
-3.7881851989000008
 20
0.9899259131999972
 30
0.0
  0
VERTEX
  5
612B
  8
0
 10
-3.843409942500001
 20
0.8914710666999997
 30
0.0
  0
VERTEX
  5
612C
  8
0
 10
-3.8978811370000002
 20
0.7905539259000001
 30
0.0
  0
VERTEX
  5
612D
  8
0
 10
-3.951522267600001
 20
0.6872210732999986
 30
0.0
  0
VERTEX
  5
612E
  8
0
 10
-4.0042652666
 20
0.5814793184
 30
0.0
  0
VERTEX
  5
612F
  8
0
 10
-4.0560532024000011
 20
0.4733117643999988
 30
0.0
  0
VERTEX
  5
6130
  8
0
 10
-4.106826605900002
 20
0.3627382384999973
 30
0.0
  0
VERTEX
  5
6131
  8
0
 10
-4.1565166276000003
 20
0.2497794439000001
 30
0.0
  0
VERTEX
  5
6132
  8
0
 10
-4.2050665911000014
 20
0.134424902899998
 30
0.0
  0
VERTEX
  5
6133
  8
0
 10
-4.2524341221000004
 20
0.0166535927999978
 30
0.0
  0
VERTEX
  5
6134
  8
0
 10
-4.2985608474000001
 20
-0.1035314446000011
 30
0.0
  0
VERTEX
  5
6135
  8
0
 10
-4.3433777755000014
 20
-0.2261077471000017
 30
0.0
  0
VERTEX
  5
6136
  8
0
 10
-4.3868264852000003
 20
-0.351061046100003
 30
0.0
  0
VERTEX
  5
6137
  8
0
 10
-4.4288615711000006
 20
-0.4784169684000008
 30
0.0
  0
VERTEX
  5
6138
  8
0
 10
-4.4694024972999991
 20
-0.6080978463000011
 30
0.0
  0
VERTEX
  5
6139
  8
0
 10
-4.5083448539000006
 20
-0.7399227705000011
 30
0.0
  0
VERTEX
  5
613A
  8
0
 10
-4.5456347635000007
 20
-0.8738633943000022
 30
0.0
  0
VERTEX
  5
613B
  8
0
 10
-4.5812096448000004
 20
-1.0098679178999981
 30
0.0
  0
VERTEX
  5
613C
  8
0
 10
-4.6149658148999997
 20
-1.1477066976999999
 30
0.0
  0
VERTEX
  5
613D
  8
0
 10
-4.6468412132000001
 20
-1.2872778808000001
 30
0.0
  0
VERTEX
  5
613E
  8
0
 10
-4.6767959161999997
 20
-1.428578159700002
 30
0.0
  0
VERTEX
  5
613F
  8
0
 10
-4.7047710747
 20
-1.5715160562999999
 30
0.0
  0
VERTEX
  5
6140
  8
0
 10
-4.7307241173000012
 20
-1.7160318692000001
 30
0.0
  0
VERTEX
  5
6141
  8
0
 10
-4.7546122272999991
 20
-1.862058495299999
 30
0.0
  0
VERTEX
  5
6142
  8
0
 10
-4.7763850602999991
 20
-2.0094870193999999
 30
0.0
  0
VERTEX
  5
6143
  8
0
 10
-4.7960111920999999
 20
-2.1583142858999991
 30
0.0
  0
VERTEX
  5
6144
  8
0
 10
-4.8134424777999989
 20
-2.3083993062000001
 30
0.0
  0
VERTEX
  5
6145
  8
0
 10
-4.8286179986000013
 20
-2.4594200685000001
 30
0.0
  0
VERTEX
  5
6146
  8
0
 10
-4.841514828500002
 20
-2.6113050389000021
 30
0.0
  0
VERTEX
  5
6147
  8
0
 10
-4.8521076200999991
 20
-2.7639618041000009
 30
0.0
  0
VERTEX
  5
6148
  8
0
 10
-4.8603576479000008
 20
-2.9170333282000001
 30
0.0
  0
VERTEX
  5
6149
  8
0
 10
-4.8662532735999999
 20
-3.0703642876999999
 30
0.0
  0
VERTEX
  5
614A
  8
0
 10
-4.869789528800001
 20
-3.2239460603999981
 30
0.0
  0
VERTEX
  5
614B
  8
0
 10
-4.8709553905000007
 20
-3.3776433730000002
 30
0.0
  0
VERTEX
  5
614C
  8
0
 10
-4.8697466913000014
 20
-3.5313852001999981
 30
0.0
  0
VERTEX
  5
614D
  8
0
 10
-4.8661665935000009
 20
-3.6850838847000009
 30
0.0
  0
VERTEX
  5
614E
  8
0
 10
-4.8602231323999998
 20
-3.8385806950000001
 30
0.0
  0
VERTEX
  5
614F
  8
0
 10
-4.8519209682
 20
-3.991883526800001
 30
0.0
  0
VERTEX
  5
6150
  8
0
 10
-4.8481760667999989
 20
-4.049671202899999
 30
0.0
  0
SEQEND
  5
6151
  8
0
  0
LINE
  5
55FC
  8
0
 10
5.1944794266000001
 20
4.610930911699997
 30
0.0
 11
-5.2194834031000017
 21
4.610930911699997
 31
0.0
  0
POLYLINE
  5
560D
  8
0
 66
     1
 10
0.0
 20
0.0
 30
0.0
  0
VERTEX
  5
6152
  8
0
 10
5.3115565075999971
 20
3.4282204757999981
 30
0.0
  0
VERTEX
  5
6153
  8
0
 10
5.3160010776999957
 20
3.4265275537999971
 30
0.0
  0
VERTEX
  5
6154
  8
0
 10
5.3182086137000004
 20
3.4247965235999982
 30
0.0
  0
VERTEX
  5
6155
  8
0
 10
5.318475314599997
 20
3.4238335342999981
 30
0.0
  0
SEQEND
  5
6156
  8
0
  0
ARC
  5
560F
  8
0
 10
-5.2194867086999999
 20
4.4229309116999982
 30
0.0
 40
0.188
 50
90.0
 51
183.6685567383999
  0
ARC
  5
5610
  8
0
 10
5.1308687603999932
 20
3.4359889497
 30
0.0
 40
0.188
 50
336.98490813370012
 51
356.29502946660011
  0
ARC
  5
5611
  8
0
 10
-5.155871470000001
 20
3.4359888221999979
 30
0.0
 40
0.188
 50
183.70500484929991
 51
203.01287512819999
  0
ENDSEC
  0
EOF
