  0
SECTION
  2
HEADER
  9
$ACADVER
  1
AC1009
  9
$INSBASE
 10
0.0
 20
0.0
 30
0.0
  9
$EXTMIN
 10
-5.4469001296999986
 20
-16.8459319434
 30
0.0
  9
$EXTMAX
 10
5.3430571404999956
 20
7.1675397336999964
 30
5.8897899999999987
  9
$LIMMIN
 10
0.0
 20
0.0
  9
$LIMMAX
 10
34.0
 20
22.0
  9
$ORTHOMODE
 70
     1
  9
$REGENMODE
 70
     1
  9
$FILLMODE
 70
     1
  9
$QTEXTMODE
 70
     0
  9
$MIRRTEXT
 70
     0
  9
$DRAGMODE
 70
     2
  9
$LTSCALE
 40
1.8700000000000001
  9
$OSMODE
 70
  2711
  9
$ATTMODE
 70
     1
  9
$TEXTSIZE
 40
0.2
  9
$TRACEWID
 40
0.05
  9
$TEXTSTYLE
  7
STANDARD
  9
$CLAYER
  8
0
  9
$CELTYPE
  6
BYLAYER
  9
$CECOLOR
 62
   256
  9
$DIMSCALE
 40
1.0
  9
$DIMASZ
 40
0.1875
  9
$DIMEXO
 40
0.2125
  9
$DIMDLI
 40
1.291999999999998
  9
$DIMRND
 40
0.0
  9
$DIMDLE
 40
0.0
  9
$DIMEXE
 40
0.612
  9
$DIMTP
 40
0.01
  9
$DIMTM
 40
0.01
  9
$DIMTXT
 40
0.15625
  9
$DIMCEN
 40
0.306
  9
$DIMTSZ
 40
0.0
  9
$DIMTOL
 70
     1
  9
$DIMLIM
 70
     0
  9
$DIMTIH
 70
     1
  9
$DIMTOH
 70
     1
  9
$DIMSE1
 70
     0
  9
$DIMSE2
 70
     0
  9
$DIMTAD
 70
     0
  9
$DIMZIN
 70
     0
  9
$DIMBLK
  1

  9
$DIMASO
 70
     1
  9
$DIMSHO
 70
     1
  9
$DIMPOST
  1

  9
$DIMAPOST
  1

  9
$DIMALT
 70
     0
  9
$DIMALTD
 70
     2
  9
$DIMALTF
 40
25.399999999999999
  9
$DIMLFAC
 40
1.0
  9
$DIMTOFL
 70
     0
  9
$DIMTVP
 40
0.0
  9
$DIMTIX
 70
     0
  9
$DIMSOXD
 70
     0
  9
$DIMSAH
 70
     0
  9
$DIMBLK1
  1

  9
$DIMBLK2
  1

  9
$DIMSTYLE
  2
STANDARD
  9
$DIMCLRD
 70
     0
  9
$DIMCLRE
 70
     0
  9
$DIMCLRT
 70
     0
  9
$DIMTFAC
 40
1.0
  9
$DIMGAP
 40
0.09
  9
$LUNITS
 70
     2
  9
$LUPREC
 70
     4
  9
$SKETCHINC
 40
0.1
  9
$FILLETRAD
 40
0.0
  9
$AUNITS
 70
     0
  9
$AUPREC
 70
     0
  9
$MENU
  1
.
  9
$ELEVATION
 40
0.0
  9
$PELEVATION
 40
0.0
  9
$THICKNESS
 40
0.0
  9
$LIMCHECK
 70
     0
  9
$BLIPMODE
 70
     0
  9
$CHAMFERA
 40
0.0
  9
$CHAMFERB
 40
0.0
  9
$SKPOLY
 70
     0
  9
$TDCREATE
 40
2453963.3555813781
  9
$TDUPDATE
 40
2453964.3638537852
  9
$TDINDWG
 40
0.0434975347
  9
$TDUSRTIMER
 40
0.0434973495
  9
$USRTIMER
 70
     1
  9
$ANGBASE
 50
0.0
  9
$ANGDIR
 70
     0
  9
$PDMODE
 70
     3
  9
$PDSIZE
 40
0.3125
  9
$PLINEWID
 40
0.0
  9
$COORDS
 70
     1
  9
$SPLFRAME
 70
     0
  9
$SPLINETYPE
 70
     6
  9
$SPLINESEGS
 70
     8
  9
$ATTDIA
 70
     0
  9
$ATTREQ
 70
     1
  9
$HANDLING
 70
     1
  9
$HANDSEED
  5
5FD9
  9
$SURFTAB1
 70
     6
  9
$SURFTAB2
 70
     6
  9
$SURFTYPE
 70
     6
  9
$SURFU
 70
     6
  9
$SURFV
 70
     6
  9
$UCSNAME
  2

  9
$UCSORG
 10
0.0
 20
0.0
 30
0.0
  9
$UCSXDIR
 10
1.0
 20
0.0
 30
0.0
  9
$UCSYDIR
 10
0.0
 20
1.0
 30
0.0
  9
$PUCSNAME
  2

  9
$PUCSORG
 10
0.0
 20
0.0
 30
0.0
  9
$PUCSXDIR
 10
1.0
 20
0.0
 30
0.0
  9
$PUCSYDIR
 10
0.0
 20
1.0
 30
0.0
  9
$USERI1
 70
     0
  9
$USERI2
 70
     0
  9
$USERI3
 70
     0
  9
$USERI4
 70
     0
  9
$USERI5
 70
     0
  9
$USERR1
 40
0.0
  9
$USERR2
 40
0.0
  9
$USERR3
 40
0.0
  9
$USERR4
 40
0.0
  9
$USERR5
 40
0.0
  9
$WORLDVIEW
 70
     1
  9
$SHADEDGE
 70
     3
  9
$SHADEDIF
 70
    70
  9
$TILEMODE
 70
     1
  9
$MAXACTVP
 70
    64
  9
$PLIMCHECK
 70
     0
  9
$PEXTMIN
 10
1.0000000000000000E+020
 20
1.0000000000000000E+020
 30
1.0000000000000000E+020
  9
$PEXTMAX
 10
-1.0000000000000000E+020
 20
-1.0000000000000000E+020
 30
-1.0000000000000000E+020
  9
$PLIMMIN
 10
0.0
 20
0.0
  9
$PLIMMAX
 10
12.0
 20
9.0
  9
$UNITMODE
 70
     0
  9
$VISRETAIN
 70
     1
  9
$PLINEGEN
 70
     0
  9
$PSLTSCALE
 70
     1
  0
ENDSEC
  0
SECTION
  2
TABLES
  0
TABLE
  2
VPORT
 70
     2
  0
VPORT
  2
*ACTIVE
 70
     0
 10
0.0
 20
0.0
 11
1.0
 21
1.0
 12
1.529408592316045
 22
-0.5216583716401413
 13
0.0
 23
0.0
 14
1.0
 24
1.0
 15
0.0
 25
0.0
 16
0.0
 26
0.0
 36
1.0
 17
0.0
 27
0.0
 37
0.0
 40
31.84469367088133
 41
1.607282184655396
 42
50.0
 43
0.0
 44
0.0
 50
0.0
 51
0.0
 71
     0
 72
   100
 73
     1
 74
     1
 75
     0
 76
     0
 77
     0
 78
     0
  0
ENDTAB
  0
TABLE
  2
LTYPE
 70
     1
  0
LTYPE
  2
CONTINUOUS
 70
     0
  3
Solid line
 72
    65
 73
     0
 40
0.0
  0
ENDTAB
  0
TABLE
  2
LAYER
 70
     2
  0
LAYER
  2
0
 70
     0
 62
     7
  6
CONTINUOUS
  0
LAYER
  2
___COSMETIC_SKETCH
 70
     0
 62
     7
  6
CONTINUOUS
  0
ENDTAB
  0
TABLE
  2
STYLE
 70
     1
  0
STYLE
  2
STANDARD
 70
     0
 40
0.0
 41
0.8
 50
0.0
 71
     0
 42
0.2
  3
txt
  4

  0
ENDTAB
  0
TABLE
  2
VIEW
 70
     0
  0
ENDTAB
  0
TABLE
  2
UCS
 70
     0
  0
ENDTAB
  0
TABLE
  2
APPID
 70
     1
  0
APPID
  2
ACAD
 70
     0
  0
ENDTAB
  0
TABLE
  2
DIMSTYLE
 70
     1
  0
DIMSTYLE
  2
STANDARD
 70
     0
  3

  4

  5

  6

  7

 40
1.0
 41
0.1875
 42
0.0625
 43
0.38
 44
0.18
 45
0.0
 46
0.0
 47
0.01
 48
0.01
140
0.15625
141
0.09
142
0.0
143
25.399999999999999
144
1.0
145
0.0
146
1.0
147
0.09
 71
     1
 72
     0
 73
     1
 74
     1
 75
     0
 76
     0
 77
     0
 78
     4
170
     0
171
     2
172
     0
173
     0
174
     0
175
     0
176
     0
177
     0
178
     0
  0
ENDTAB
  0
ENDSEC
  0
SECTION
  2
BLOCKS
  0
BLOCK
  8
0
  2
$MODEL_SPACE
 70
     0
 10
0.0
 20
0.0
 30
0.0
  3
$MODEL_SPACE
  1

  0
ENDBLK
  5
5BBF
  8
0
  0
BLOCK
 67
     1
  8
0
  2
$PAPER_SPACE
 70
     0
 10
0.0
 20
0.0
 30
0.0
  3
$PAPER_SPACE
  1

  0
ENDBLK
  5
5BBB
 67
     1
  8
0
  0
ENDSEC
  0
SECTION
  2
ENTITIES
  0
ATTDEF
  5
3ED
  8
0
 10
-0.0993289485576838
 20
5.8004014420417871
 30
5.8897899999999987
 40
0.01
  1
WATERLESS URINAL
  3

  2
PRODUCT
 70
     8
  0
ATTDEF
  5
3EE
  8
0
 10
-0.0993289485576838
 20
5.7837347753750734
 30
5.8897899999999987
 40
0.01
  1
VITREOUS CHINA
  3

  2
MATERIAL
 70
     8
  0
ATTDEF
  5
3EF
  8
0
 10
-0.0993289485576838
 20
5.8337347753750901
 30
5.8897899999999987
 40
0.01
  1
K-4917
  3

  2
MODELNUMBER
 70
     8
  0
ATTDEF
  5
3F0
  8
0
 10
-0.0993289485576838
 20
5.8170681087084404
 30
5.8897899999999987
 40
0.01
  1
STEWARD
  3

  2
TRADENAME
 70
     8
  0
POLYLINE
  5
54A1
  8
0
 66
     1
 10
0.0
 20
0.0
 30
0.0
  0
VERTEX
  5
5BCF
  8
0
 10
-0.0519628326999993
 20
-16.845931896500002
 30
0.0
  0
VERTEX
  5
5BD0
  8
0
 10
0.0109341564999994
 20
-16.845391516100001
 30
0.0
  0
VERTEX
  5
5BD1
  8
0
 10
0.0787049707000023
 20
-16.843593876
 30
0.0
  0
VERTEX
  5
5BD2
  8
0
 10
0.146327622500003
 20
-16.840537608599998
 30
0.0
  0
VERTEX
  5
5BD3
  8
0
 10
0.2137505955000023
 20
-16.836228985399998
 30
0.0
  0
VERTEX
  5
5BD4
  8
0
 10
0.2809756878000016
 20
-16.830672958699999
 30
0.0
  0
VERTEX
  5
5BD5
  8
0
 10
0.3480578817999991
 20
-16.8238667912
 30
0.0
  0
VERTEX
  5
5BD6
  8
0
 10
0.4149729616999985
 20
-16.815814005899998
 30
0.0
  0
VERTEX
  5
5BD7
  8
0
 10
0.4816967908999993
 20
-16.80651949020001
 30
0.0
  0
VERTEX
  5
5BD8
  8
0
 10
0.548283908600002
 20
-16.795975134199999
 30
0.0
  0
VERTEX
  5
5BD9
  8
0
 10
0.6147097320000015
 20
-16.784183654399989
 30
0.0
  0
VERTEX
  5
5BDA
  8
0
 10
0.6809489561
 20
-16.771149248100009
 30
0.0
  0
VERTEX
  5
5BDB
  8
0
 10
0.7470534911999991
 20
-16.756858851
 30
0.0
  0
VERTEX
  5
5BDC
  8
0
 10
0.8129994503999996
 20
-16.741313566300011
 30
0.0
  0
VERTEX
  5
5BDD
  8
0
 10
0.8787651501000013
 20
-16.724514988599999
 30
0.0
  0
VERTEX
  5
5BDE
  8
0
 10
0.9444050262999999
 20
-16.7064430221
 30
0.0
  0
VERTEX
  5
5BDF
  8
0
 10
1.0098923699000011
 20
-16.687096389800001
 30
0.0
  0
VERTEX
  5
5BE0
  8
0
 10
1.0751995105000021
 20
-16.666474277900001
 30
0.0
  0
VERTEX
  5
5BE1
  8
0
 10
1.140374912800002
 20
-16.644550067400001
 30
0.0
  0
VERTEX
  5
5BE2
  8
0
 10
1.205386312299999
 20
-16.6213267087
 30
0.0
  0
VERTEX
  5
5BE3
  8
0
 10
1.2702105970999991
 20
-16.596807734399999
 30
0.0
  0
VERTEX
  5
5BE4
  8
0
 10
1.3349078284000011
 20
-16.570962498900009
 30
0.0
  0
VERTEX
  5
5BE5
  8
0
 10
1.3994497478000021
 20
-16.543791612100001
 30
0.0
  0
VERTEX
  5
5BE6
  8
0
 10
1.4638146658999991
 20
-16.515293475099998
 30
0.0
  0
VERTEX
  5
5BE7
  8
0
 10
1.5280702597999991
 20
-16.485424267999999
 30
0.0
  0
VERTEX
  5
5BE8
  8
0
 10
1.5921878438999979
 20
-16.454182585500011
 30
0.0
  0
VERTEX
  5
5BE9
  8
0
 10
1.6561377655000009
 20
-16.421569185999999
 30
0.0
  0
VERTEX
  5
5BEA
  8
0
 10
1.7199801129000001
 20
-16.387536403900011
 30
0.0
  0
VERTEX
  5
5BEB
  8
0
 10
1.7836848433000001
 20
-16.352080234500001
 30
0.0
  0
VERTEX
  5
5BEC
  8
0
 10
1.847226172900001
 20
-16.3151950761
 30
0.0
  0
VERTEX
  5
5BED
  8
0
 10
1.9106670396999981
 20
-16.2768211241
 30
0.0
  0
VERTEX
  5
5BEE
  8
0
 10
1.9739710975
 20
-16.2369553433
 30
0.0
  0
VERTEX
  5
5BEF
  8
0
 10
2.0371044138999981
 20
-16.195594703299999
 30
0.0
  0
VERTEX
  5
5BF0
  8
0
 10
2.1001248638000001
 20
-16.1526734724
 30
0.0
  0
VERTEX
  5
5BF1
  8
0
 10
2.1629943842999979
 20
-16.108190905200001
 30
0.0
  0
VERTEX
  5
5BF2
  8
0
 10
2.2256874534999991
 20
-16.062141079900002
 30
0.0
  0
VERTEX
  5
5BF3
  8
0
 10
2.288277288999998
 20
-16.014441863399998
 30
0.0
  0
VERTEX
  5
5BF4
  8
0
 10
2.3507156359000021
 20
-15.9650957165
 30
0.0
  0
VERTEX
  5
5BF5
  8
0
 10
2.4129752192999998
 20
-15.9140889066
 30
0.0
  0
VERTEX
  5
5BF6
  8
0
 10
2.475149065700001
 20
-15.861304330499999
 30
0.0
  0
VERTEX
  5
5BF7
  8
0
 10
2.5372064681999991
 20
-15.8067263097
 30
0.0
  0
VERTEX
  5
5BF8
  8
0
 10
2.5990989348999971
 20
-15.7503589619
 30
0.0
  0
VERTEX
  5
5BF9
  8
0
 10
2.660884992399998
 20
-15.692106440600011
 30
0.0
  0
VERTEX
  5
5BFA
  8
0
 10
2.7225452455000001
 20
-15.631934253000001
 30
0.0
  0
VERTEX
  5
5BFB
  8
0
 10
2.7840092729000001
 20
-15.569856636200001
 30
0.0
  0
VERTEX
  5
5BFC
  8
0
 10
2.8452528671999979
 20
-15.505845025299999
 30
0.0
  0
VERTEX
  5
5BFD
  8
0
 10
2.9062362870999991
 20
-15.439893333700001
 30
0.0
  0
VERTEX
  5
5BFE
  8
0
 10
2.9669143443999979
 20
-15.372006559200001
 30
0.0
  0
VERTEX
  5
5BFF
  8
0
 10
3.0272555423999981
 20
-15.302176345399999
 30
0.0
  0
VERTEX
  5
5C00
  8
0
 10
3.0872179222999971
 20
-15.2304033279
 30
0.0
  0
VERTEX
  5
5C01
  8
0
 10
3.146764987600001
 20
-15.156682562
 30
0.0
  0
VERTEX
  5
5C02
  8
0
 10
3.2058737136999991
 20
-15.080994345600001
 30
0.0
  0
VERTEX
  5
5C03
  8
0
 10
3.2644773181999991
 20
-15.003379462600011
 30
0.0
  0
VERTEX
  5
5C04
  8
0
 10
3.322562903899998
 20
-14.9238123904
 30
0.0
  0
VERTEX
  5
5C05
  8
0
 10
3.3801820762000001
 20
-14.842175598700001
 30
0.0
  0
VERTEX
  5
5C06
  8
0
 10
3.4372834633999991
 20
-14.7585069649
 30
0.0
  0
VERTEX
  5
5C07
  8
0
 10
3.4938560693
 20
-14.672798257
 30
0.0
  0
VERTEX
  5
5C08
  8
0
 10
3.5500062112999999
 20
-14.584858024700001
 30
0.0
  0
VERTEX
  5
5C09
  8
0
 10
3.605706244599999
 20
-14.4946958766
 30
0.0
  0
VERTEX
  5
5C0A
  8
0
 10
3.6609318708999958
 20
-14.402325472599999
 30
0.0
  0
VERTEX
  5
5C0B
  8
0
 10
3.715783107700001
 20
-14.30755135770001
 30
0.0
  0
VERTEX
  5
5C0C
  8
0
 10
3.7702625077999969
 20
-14.2103229434
 30
0.0
  0
VERTEX
  5
5C0D
  8
0
 10
3.8243080284999991
 20
-14.1107015963
 30
0.0
  0
VERTEX
  5
5C0E
  8
0
 10
3.8779150228999999
 20
-14.0086553309
 30
0.0
  0
VERTEX
  5
5C0F
  8
0
 10
3.9310835429999988
 20
-13.9041340293
 30
0.0
  0
VERTEX
  5
5C10
  8
0
 10
3.9837503939999999
 20
-13.797195374699999
 30
0.0
  0
VERTEX
  5
5C11
  8
0
 10
4.0358226717000019
 20
-13.687974285999999
 30
0.0
  0
VERTEX
  5
5C12
  8
0
 10
4.0872757224000011
 20
-13.576479517099999
 30
0.0
  0
VERTEX
  5
5C13
  8
0
 10
4.1380837623999991
 20
-13.46271822100001
 30
0.0
  0
VERTEX
  5
5C14
  8
0
 10
4.1881658648000011
 20
-13.34683127020001
 30
0.0
  0
VERTEX
  5
5C15
  8
0
 10
4.237493616400001
 20
-13.2288580748
 30
0.0
  0
VERTEX
  5
5C16
  8
0
 10
4.2860594634999991
 20
-13.108783167200009
 30
0.0
  0
VERTEX
  5
5C17
  8
0
 10
4.3338208177000004
 20
-12.98666714689999
 30
0.0
  0
VERTEX
  5
5C18
  8
0
 10
4.3807549321000003
 20
-12.8625306698
 30
0.0
  0
VERTEX
  5
5C19
  8
0
 10
4.4268497494999988
 20
-12.736371307900001
 30
0.0
  0
VERTEX
  5
5C1A
  8
0
 10
4.4720788967000011
 20
-12.608215301899991
 30
0.0
  0
VERTEX
  5
5C1B
  8
0
 10
4.5164222104
 20
-12.478071223100009
 30
0.0
  0
VERTEX
  5
5C1C
  8
0
 10
4.5598608775000002
 20
-12.345949990099999
 30
0.0
  0
VERTEX
  5
5C1D
  8
0
 10
4.6023699919999981
 20
-12.2118811279
 30
0.0
  0
VERTEX
  5
5C1E
  8
0
 10
4.6439270274000002
 20
-12.0758712006
 30
0.0
  0
VERTEX
  5
5C1F
  8
0
 10
4.6845093444000012
 20
-11.9379279633
 30
0.0
  0
VERTEX
  5
5C20
  8
0
 10
4.7240899392999989
 20
-11.79808050050001
 30
0.0
  0
VERTEX
  5
5C21
  8
0
 10
4.7626445252999989
 20
-11.656345560600011
 30
0.0
  0
VERTEX
  5
5C22
  8
0
 10
4.8001501638999979
 20
-11.512722110600009
 30
0.0
  0
VERTEX
  5
5C23
  8
0
 10
4.8365830835999972
 20
-11.367213985699991
 30
0.0
  0
VERTEX
  5
5C24
  8
0
 10
4.8719142195999989
 20
-11.219851627900001
 30
0.0
  0
VERTEX
  5
5C25
  8
0
 10
4.9061246242999967
 20
-11.0706235178
 30
0.0
  0
VERTEX
  5
5C26
  8
0
 10
4.9392041165
 20
-10.9194714161
 30
0.0
  0
VERTEX
  5
5C27
  8
0
 10
4.9711260052000013
 20
-10.766409491499999
 30
0.0
  0
VERTEX
  5
5C28
  8
0
 10
5.0018659933999992
 20
-10.611446519399999
 30
0.0
  0
VERTEX
  5
5C29
  8
0
 10
5.0314158298000002
 20
-10.454515278100001
 30
0.0
  0
VERTEX
  5
5C2A
  8
0
 10
5.0597527511999996
 20
-10.2956265271
 30
0.0
  0
VERTEX
  5
5C2B
  8
0
 10
5.08685527
 20
-10.134792038000009
 30
0.0
  0
VERTEX
  5
5C2C
  8
0
 10
5.112715226799998
 20
-9.9719454638000027
 30
0.0
  0
VERTEX
  5
5C2D
  8
0
 10
5.1373047049
 20
-9.8071360618999961
 30
0.0
  0
VERTEX
  5
5C2E
  8
0
 10
5.1606081963000019
 20
-9.6403365241000003
 30
0.0
  0
VERTEX
  5
5C2F
  8
0
 10
5.1826296937
 20
-9.4713645377999995
 30
0.0
  0
VERTEX
  5
5C30
  8
0
 10
5.2033314386000002
 20
-9.3003442806999992
 30
0.0
  0
VERTEX
  5
5C31
  8
0
 10
5.2227029258999984
 20
-9.1271745602999985
 30
0.0
  0
VERTEX
  5
5C32
  8
0
 10
5.2407712237000004
 20
-8.9513345193999978
 30
0.0
  0
VERTEX
  5
5C33
  8
0
 10
5.257496483699998
 20
-8.7728556044000001
 30
0.0
  0
VERTEX
  5
5C34
  8
0
 10
5.2728438586999991
 20
-8.5917288642000056
 30
0.0
  0
VERTEX
  5
5C35
  8
0
 10
5.286817598899999
 20
-8.4073702686999976
 30
0.0
  0
VERTEX
  5
5C36
  8
0
 10
5.2993662738999969
 20
-8.2197635000000062
 30
0.0
  0
VERTEX
  5
5C37
  8
0
 10
5.3104363525
 20
-8.0289472544000038
 30
0.0
  0
VERTEX
  5
5C38
  8
0
 10
5.3200005785000002
 20
-7.8344191624000032
 30
0.0
  0
VERTEX
  5
5C39
  8
0
 10
5.3280096491000002
 20
-7.6357937845000006
 30
0.0
  0
VERTEX
  5
5C3A
  8
0
 10
5.3343804792000018
 20
-7.4334821404000007
 30
0.0
  0
VERTEX
  5
5C3B
  8
0
 10
5.3390408008000003
 20
-7.2281771577999958
 30
0.0
  0
VERTEX
  5
5C3C
  8
0
 10
5.3419503789
 20
-7.0195888085999982
 30
0.0
  0
VERTEX
  5
5C3D
  8
0
 10
5.3430571404999956
 20
-6.8080352214999991
 30
0.0
  0
VERTEX
  5
5C3E
  8
0
 10
5.3423313179000012
 20
-6.5951220051000012
 30
0.0
  0
VERTEX
  5
5C3F
  8
0
 10
5.3397715728000001
 20
-6.3808638455000013
 30
0.0
  0
VERTEX
  5
5C40
  8
0
 10
5.3353703944999991
 20
-6.1652745777999982
 30
0.0
  0
VERTEX
  5
5C41
  8
0
 10
5.3291718280999998
 20
-5.9499579298
 30
0.0
  0
VERTEX
  5
5C42
  8
0
 10
5.3212135135999947
 20
-5.735074460399999
 30
0.0
  0
VERTEX
  5
5C43
  8
0
 10
5.3115186146999971
 20
-5.5204880094999993
 30
0.0
  0
VERTEX
  5
5C44
  8
0
 10
5.3001739871000009
 20
-5.3073540110000081
 30
0.0
  0
VERTEX
  5
5C45
  8
0
 10
5.2172159717000017
 20
-3.8874720483000029
 30
0.0
  0
SEQEND
  5
5C46
  8
0
  0
LINE
  5
54B1
  8
0
 10
-5.428026438099999
 20
-5.8113115255000007
 30
0.0
 11
-5.4364856986000003
 21
-6.0667069838000032
 31
0.0
  0
POLYLINE
  5
54B4
  8
0
 66
     1
 10
0.0
 20
0.0
 30
0.0
  0
VERTEX
  5
5C47
  8
0
 10
-4.9056699007999987
 20
3.2712866662999991
 30
0.0
  0
VERTEX
  5
5C48
  8
0
 10
-4.909206155999998
 20
3.1820428875999962
 30
0.0
  0
VERTEX
  5
5C49
  8
0
 10
-4.9103720177000003
 20
3.0927570967999909
 30
0.0
  0
VERTEX
  5
5C4A
  8
0
 10
-4.9091633184999992
 20
3.0034591751999979
 30
0.0
  0
VERTEX
  5
5C4B
  8
0
 10
-4.9055832206999987
 20
2.914186439899991
 30
0.0
  0
VERTEX
  5
5C4C
  8
0
 10
-4.8996397596000003
 20
2.8250596345999952
 30
0.0
  0
VERTEX
  5
5C4D
  8
0
 10
-4.8913375953999987
 20
2.7360572762999951
 30
0.0
  0
VERTEX
  5
5C4E
  8
0
 10
-4.8806889640999991
 20
2.6472584082999959
 30
0.0
  0
VERTEX
  5
5C4F
  8
0
 10
-4.867733467599999
 20
2.558931471299998
 30
0.0
  0
VERTEX
  5
5C50
  8
0
 10
-4.8524983481999993
 20
2.4711190968999959
 30
0.0
  0
VERTEX
  5
5C51
  8
0
 10
-4.835004003399999
 20
2.3838240782999942
 30
0.0
  0
VERTEX
  5
5C52
  8
0
 10
-4.8153063367999991
 20
2.2972522632999941
 30
0.0
  0
VERTEX
  5
5C53
  8
0
 10
-4.7934470189000002
 20
2.2114522843999951
 30
0.0
  0
VERTEX
  5
5C54
  8
0
 10
-4.7694561294999982
 20
2.126411889599999
 30
0.0
  0
VERTEX
  5
5C55
  8
0
 10
-4.7433880324999969
 20
2.0422459714999941
 30
0.0
  0
VERTEX
  5
5C56
  8
0
 10
-4.7152826101
 20
1.958974683299999
 30
0.0
  0
VERTEX
  5
5C57
  8
0
 10
-4.685179429899998
 20
1.8766117516999961
 30
0.0
  0
VERTEX
  5
5C58
  8
0
 10
-4.6531444485999991
 20
1.7952608060999951
 30
0.0
  0
VERTEX
  5
5C59
  8
0
 10
-4.6192151373999959
 20
1.7149117664999931
 30
0.0
  0
VERTEX
  5
5C5A
  8
0
 10
-4.5834485199999957
 20
1.6355993531999991
 30
0.0
  0
VERTEX
  5
5C5B
  8
0
 10
-4.5459554397999984
 20
1.5574900617999941
 30
0.0
  0
VERTEX
  5
5C5C
  8
0
 10
-4.5067995756999988
 20
1.480610866999994
 30
0.0
  0
VERTEX
  5
5C5D
  8
0
 10
-4.4660257266999981
 20
1.4049515996999911
 30
0.0
  0
VERTEX
  5
5C5E
  8
0
 10
-4.4237309473999993
 20
1.3306177233999961
 30
0.0
  0
VERTEX
  5
5C5F
  8
0
 10
-4.3799874937999981
 20
1.257644256899993
 30
0.0
  0
VERTEX
  5
5C60
  8
0
 10
-4.3348362587999993
 20
1.186007372700004
 30
0.0
  0
VERTEX
  5
5C61
  8
0
 10
-4.2883345116999969
 20
1.1157228786999971
 30
0.0
  0
VERTEX
  5
5C62
  8
0
 10
-4.2405376259000001
 20
1.046792188999994
 30
0.0
  0
VERTEX
  5
5C63
  8
0
 10
-4.1915069715999991
 20
0.9792232277999913
 30
0.0
  0
VERTEX
  5
5C64
  8
0
 10
-4.1413117772999968
 20
0.9130405137999986
 30
0.0
  0
VERTEX
  5
5C65
  8
0
 10
-4.0899993837000004
 20
0.8482306224999971
 30
0.0
  0
VERTEX
  5
5C66
  8
0
 10
-4.0376345867000003
 20
0.7848049484000015
 30
0.0
  0
VERTEX
  5
5C67
  8
0
 10
-3.9843155396999981
 20
0.7228205407999937
 30
0.0
  0
VERTEX
  5
5C68
  8
0
 10
-3.9300986566999971
 20
0.6622681265999975
 30
0.0
  0
VERTEX
  5
5C69
  8
0
 10
-3.8750378127999991
 20
0.6031372290999926
 30
0.0
  0
VERTEX
  5
5C6A
  8
0
 10
-3.8192322752000001
 20
0.5454784081999904
 30
0.0
  0
VERTEX
  5
5C6B
  8
0
 10
-3.7627430495999992
 20
0.4892833414999913
 30
0.0
  0
VERTEX
  5
5C6C
  8
0
 10
-3.705615439399998
 20
0.4345279147999932
 30
0.0
  0
VERTEX
  5
5C6D
  8
0
 10
-3.6479277387999991
 20
0.3812348194999941
 30
0.0
  0
VERTEX
  5
5C6E
  8
0
 10
-3.5897419773999979
 20
0.329396008099998
 30
0.0
  0
VERTEX
  5
5C6F
  8
0
 10
-3.531095795800002
 20
0.2789799357999954
 30
0.0
  0
VERTEX
  5
5C70
  8
0
 10
-3.472029726799998
 20
0.2299724943000001
 30
0.0
  0
VERTEX
  5
5C71
  8
0
 10
-3.4125944956000001
 20
0.1823584455000002
 30
0.0
  0
VERTEX
  5
5C72
  8
0
 10
-3.3528297314999982
 20
0.1361111910999924
 30
0.0
  0
VERTEX
  5
5C73
  8
0
 10
-3.2927560989999982
 20
0.0912008510000035
 30
0.0
  0
VERTEX
  5
5C74
  8
0
 10
-3.2324174375000001
 20
0.0476108101999984
 30
0.0
  0
VERTEX
  5
5C75
  8
0
 10
-3.1718536493999991
 20
0.0053196856999946
 30
0.0
  0
VERTEX
  5
5C76
  8
0
 10
-3.1110763295999981
 20
-0.0357064410999968
 30
0.0
  0
VERTEX
  5
5C77
  8
0
 10
-3.0501241656999998
 20
-0.0754847948999995
 30
0.0
  0
VERTEX
  5
5C78
  8
0
 10
-2.9890349051999991
 20
-0.114033970100003
 30
0.0
  0
VERTEX
  5
5C79
  8
0
 10
-2.9278150657999991
 20
-0.1513876861000014
 30
0.0
  0
VERTEX
  5
5C7A
  8
0
 10
-2.8665006974999958
 20
-0.1875626140000008
 30
0.0
  0
VERTEX
  5
5C7B
  8
0
 10
-2.805124347700001
 20
-0.222577810100006
 30
0.0
  0
VERTEX
  5
5C7C
  8
0
 10
-2.7436838853999981
 20
-0.2564683887000001
 30
0.0
  0
VERTEX
  5
5C7D
  8
0
 10
-2.6822153898999961
 20
-0.2892486868000077
 30
0.0
  0
VERTEX
  5
5C7E
  8
0
 10
-2.6207464930999991
 20
-0.3209379589000036
 30
0.0
  0
VERTEX
  5
5C7F
  8
0
 10
-2.5592590539999982
 20
-0.3515756724000028
 30
0.0
  0
VERTEX
  5
5C80
  8
0
 10
-2.4977834803999981
 20
-0.3811763164999959
 30
0.0
  0
VERTEX
  5
5C81
  8
0
 10
-2.436345494299998
 20
-0.4097569492000021
 30
0.0
  0
VERTEX
  5
5C82
  8
0
 10
-2.374915823499999
 20
-0.4373575219999993
 30
0.0
  0
VERTEX
  5
5C83
  8
0
 10
-2.3135146696999982
 20
-0.4639948294000007
 30
0.0
  0
VERTEX
  5
5C84
  8
0
 10
-2.2521762111000001
 20
-0.4896800296000025
 30
0.0
  0
VERTEX
  5
5C85
  8
0
 10
-2.1908899162999962
 20
-0.5144415321000011
 30
0.0
  0
VERTEX
  5
5C86
  8
0
 10
-2.1296795922999952
 20
-0.5382930124000041
 30
0.0
  0
VERTEX
  5
5C87
  8
0
 10
-2.0685707981999979
 20
-0.5612474867000046
 30
0.0
  0
VERTEX
  5
5C88
  8
0
 10
-2.007552762499996
 20
-0.5833302993999965
 30
0.0
  0
VERTEX
  5
5C89
  8
0
 10
-1.9466483986999981
 20
-0.6045537987000033
 30
0.0
  0
VERTEX
  5
5C8A
  8
0
 10
-1.8858775827000001
 20
-0.6249310952999994
 30
0.0
  0
VERTEX
  5
5C8B
  8
0
 10
-1.8252222488999961
 20
-0.6444865889000087
 30
0.0
  0
VERTEX
  5
5C8C
  8
0
 10
-1.7647048607999971
 20
-0.6632307081999969
 30
0.0
  0
VERTEX
  5
5C8D
  8
0
 10
-1.7043389576000001
 20
-0.6811768877999996
 30
0.0
  0
VERTEX
  5
5C8E
  8
0
 10
-1.6440905573
 20
-0.698351476500001
 30
0.0
  0
VERTEX
  5
5C8F
  8
0
 10
-1.5839801046999991
 20
-0.7147638403000017
 30
0.0
  0
VERTEX
  5
5C90
  8
0
 10
-1.5240186201000001
 20
-0.7304261924000031
 30
0.0
  0
VERTEX
  5
5C91
  8
0
 10
-1.464156386799998
 20
-0.745365730500005
 30
0.0
  0
VERTEX
  5
5C92
  8
0
 10
-1.404412353400001
 20
-0.7595913394999984
 30
0.0
  0
VERTEX
  5
5C93
  8
0
 10
-1.3448044529000001
 20
-0.7731123527999984
 30
0.0
  0
VERTEX
  5
5C94
  8
0
 10
-1.285281744699996
 20
-0.7859527068999981
 30
0.0
  0
VERTEX
  5
5C95
  8
0
 10
-1.2258598334999991
 20
-0.798119847600006
 30
0.0
  0
VERTEX
  5
5C96
  8
0
 10
-1.1665554518000001
 20
-0.8096210530000076
 30
0.0
  0
VERTEX
  5
5C97
  8
0
 10
-1.1073166228999991
 20
-0.8204760650000011
 30
0.0
  0
VERTEX
  5
5C98
  8
0
 10
-1.048153648599998
 20
-0.830691086700007
 30
0.0
  0
VERTEX
  5
5C99
  8
0
 10
-0.9890849179000014
 20
-0.8402713109000075
 30
0.0
  0
VERTEX
  5
5C9A
  8
0
 10
-0.9300703412000004
 20
-0.8492318679000019
 30
0.0
  0
VERTEX
  5
5C9B
  8
0
 10
-0.8711262194999989
 20
-0.8575777014999984
 30
0.0
  0
VERTEX
  5
5C9C
  8
0
 10
-0.812267590400001
 20
-0.8653139465000022
 30
0.0
  0
VERTEX
  5
5C9D
  8
0
 10
-0.7534511311999986
 20
-0.8724528185000082
 30
0.0
  0
VERTEX
  5
5C9E
  8
0
 10
-0.6946854965000001
 20
-0.8789983264000085
 30
0.0
  0
VERTEX
  5
5C9F
  8
0
 10
-0.6359901615000007
 20
-0.8849532896000056
 30
0.0
  0
VERTEX
  5
5CA0
  8
0
 10
-0.5773366811000003
 20
-0.8903252448999977
 30
0.0
  0
VERTEX
  5
5CA1
  8
0
 10
-0.5187377072999979
 20
-0.8951166368000045
 30
0.0
  0
VERTEX
  5
5CA2
  8
0
 10
-0.4602076538999996
 20
-0.8993307817000014
 30
0.0
  0
VERTEX
  5
5CA3
  8
0
 10
-0.4017200330999984
 20
-0.9029743625000035
 30
0.0
  0
VERTEX
  5
5CA4
  8
0
 10
-0.3432916078000012
 20
-0.9060500718999978
 30
0.0
  0
VERTEX
  5
5CA5
  8
0
 10
-0.2849332163999989
 20
-0.9085609150000022
 30
0.0
  0
VERTEX
  5
5CA6
  8
0
 10
-0.2266087532000007
 20
-0.9105114104000051
 30
0.0
  0
VERTEX
  5
5CA7
  8
0
 10
-0.1683148303999999
 20
-0.9119033415000004
 30
0.0
  0
VERTEX
  5
5CA8
  8
0
 10
-0.1100809934000004
 20
-0.9127373752999972
 30
0.0
  0
VERTEX
  5
5CA9
  8
0
 10
-0.0519201379999999
 20
-0.9130149089999973
 30
0.0
  0
SEQEND
  5
5CAA
  8
0
  0
LINE
  5
54B7
  8
0
 10
-5.4169871047999969
 20
-5.5543280206000087
 30
0.0
 11
-5.428026438099999
 21
-5.8113115255000007
 31
0.0
  0
LINE
  5
54BC
  8
0
 10
-5.4020095907999988
 20
-5.2727182935000041
 30
0.0
 11
-5.4169871047999969
 21
-5.5543280206000087
 31
0.0
  0
POLYLINE
  5
54BD
  8
0
 66
     1
 10
0.0
 20
0.0
 30
0.0
  0
VERTEX
  5
5CAB
  8
0
 10
-5.4034385565000003
 20
-5.2973354528999987
 30
0.0
  0
VERTEX
  5
5CAC
  8
0
 10
-5.4148590448999983
 20
-5.5104083137000028
 30
0.0
  0
VERTEX
  5
5CAD
  8
0
 10
-5.424634178099998
 20
-5.724970969700002
 30
0.0
  0
VERTEX
  5
5CAE
  8
0
 10
-5.4326763140000001
 20
-5.9398785022999956
 30
0.0
  0
VERTEX
  5
5CAF
  8
0
 10
-5.4389599454999988
 20
-6.1552746424000011
 30
0.0
  0
VERTEX
  5
5CB0
  8
0
 10
-5.443446739599997
 20
-6.3709913345000029
 30
0.0
  0
VERTEX
  5
5CB1
  8
0
 10
-5.4460916686000003
 20
-6.5854123980000008
 30
0.0
  0
VERTEX
  5
5CB2
  8
0
 10
-5.4469001296999986
 20
-6.7985254899000012
 30
0.0
  0
VERTEX
  5
5CB3
  8
0
 10
-5.4458723498999984
 20
-7.0103142887000001
 30
0.0
  0
VERTEX
  5
5CB4
  8
0
 10
-5.4430380514999968
 20
-7.2191557093000034
 30
0.0
  0
VERTEX
  5
5CB5
  8
0
 10
-5.438449285099999
 20
-7.4247354916000008
 30
0.0
  0
VERTEX
  5
5CB6
  8
0
 10
-5.4321448433999979
 20
-7.6273388991000033
 30
0.0
  0
VERTEX
  5
5CB7
  8
0
 10
-5.4241975119999992
 20
-7.8262438061000008
 30
0.0
  0
VERTEX
  5
5CB8
  8
0
 10
-5.4146911504999986
 20
-8.0210305429000002
 30
0.0
  0
VERTEX
  5
5CB9
  8
0
 10
-5.4036750051000002
 20
-8.2120934302000066
 30
0.0
  0
VERTEX
  5
5CBA
  8
0
 10
-5.3911769033999981
 20
-8.3999321561000002
 30
0.0
  0
VERTEX
  5
5CBB
  8
0
 10
-5.3772512976999991
 20
-8.5845061810999965
 30
0.0
  0
VERTEX
  5
5CBC
  8
0
 10
-5.3619502038999993
 20
-8.7658340951000024
 30
0.0
  0
VERTEX
  5
5CBD
  8
0
 10
-5.3452689816999968
 20
-8.9445032367000028
 30
0.0
  0
VERTEX
  5
5CBE
  8
0
 10
-5.327242671999997
 20
-9.1205218706000082
 30
0.0
  0
VERTEX
  5
5CBF
  8
0
 10
-5.3079116834000004
 20
-9.2938594742000031
 30
0.0
  0
VERTEX
  5
5CC0
  8
0
 10
-5.2872489389999986
 20
-9.4650427452000088
 30
0.0
  0
VERTEX
  5
5CC1
  8
0
 10
-5.2652643950999991
 20
-9.6341728013000036
 30
0.0
  0
VERTEX
  5
5CC2
  8
0
 10
-5.2419959851999991
 20
-9.8011250172000075
 30
0.0
  0
VERTEX
  5
5CC3
  8
0
 10
-5.2174396090999986
 20
-9.9660860617000022
 30
0.0
  0
VERTEX
  5
5CC4
  8
0
 10
-5.1916107656000001
 20
-10.1290848735
 30
0.0
  0
VERTEX
  5
5CC5
  8
0
 10
-5.164537177699998
 20
-10.290069966700001
 30
0.0
  0
VERTEX
  5
5CC6
  8
0
 10
-5.1362270191999979
 20
-10.4491074719
 30
0.0
  0
VERTEX
  5
5CC7
  8
0
 10
-5.1067018045999983
 20
-10.6061860322
 30
0.0
  0
VERTEX
  5
5CC8
  8
0
 10
-5.0759844649999959
 20
-10.761295011499991
 30
0.0
  0
VERTEX
  5
5CC9
  8
0
 10
-5.0440838268999979
 20
-10.914500437499999
 30
0.0
  0
VERTEX
  5
5CCA
  8
0
 10
-5.0110239826000011
 20
-11.0657933983
 30
0.0
  0
VERTEX
  5
5CCB
  8
0
 10
-4.976831300999998
 20
-11.215159937799999
 30
0.0
  0
VERTEX
  5
5CCC
  8
0
 10
-4.9415156142999983
 20
-11.36265820770001
 30
0.0
  0
VERTEX
  5
5CCD
  8
0
 10
-4.905095787299997
 20
-11.5082994851
 30
0.0
  0
VERTEX
  5
5CCE
  8
0
 10
-4.8676015073999981
 20
-11.652053827
 30
0.0
  0
VERTEX
  5
5CCF
  8
0
 10
-4.8290570937999986
 20
-11.7939182009
 30
0.0
  0
VERTEX
  5
5CD0
  8
0
 10
-4.7894852223999971
 20
-11.933893536899999
 30
0.0
  0
VERTEX
  5
5CD1
  8
0
 10
-4.7489095667999983
 20
-12.071962381900001
 30
0.0
  0
VERTEX
  5
5CD2
  8
0
 10
-4.7073579610999987
 20
-12.208096043799999
 30
0.0
  0
VERTEX
  5
5CD3
  8
0
 10
-4.664853871
 20
-12.342287071199999
 30
0.0
  0
VERTEX
  5
5CD4
  8
0
 10
-4.6214189718999981
 20
-12.474527935299999
 30
0.0
  0
VERTEX
  5
5CD5
  8
0
 10
-4.577077384799999
 20
-12.6047887818
 30
0.0
  0
VERTEX
  5
5CD6
  8
0
 10
-4.5318483880000002
 20
-12.7330594142
 30
0.0
  0
VERTEX
  5
5CD7
  8
0
 10
-4.4857524370999968
 20
-12.859331860099999
 30
0.0
  0
VERTEX
  5
5CD8
  8
0
 10
-4.4388149062999993
 20
-12.983579535300001
 30
0.0
  0
VERTEX
  5
5CD9
  8
0
 10
-4.3910485788999987
 20
-13.105804966299999
 30
0.0
  0
VERTEX
  5
5CDA
  8
0
 10
-4.3424772772999969
 20
-13.22598821229999
 30
0.0
  0
VERTEX
  5
5CDB
  8
0
 10
-4.2931436069999993
 20
-13.3440689177
 30
0.0
  0
VERTEX
  5
5CDC
  8
0
 10
-4.2430536943999968
 20
-13.4600613051
 30
0.0
  0
VERTEX
  5
5CDD
  8
0
 10
-4.1922361253
 20
-13.573926629200001
 30
0.0
  0
VERTEX
  5
5CDE
  8
0
 10
-4.1407719241999992
 20
-13.685524904399999
 30
0.0
  0
VERTEX
  5
5CDF
  8
0
 10
-4.0886862912000002
 20
-13.7948487058
 30
0.0
  0
VERTEX
  5
5CE0
  8
0
 10
-4.0360045785000001
 20
-13.901888918599999
 30
0.0
  0
VERTEX
  5
5CE1
  8
0
 10
-3.9828209653000002
 20
-14.006510371599999
 30
0.0
  0
VERTEX
  5
5CE2
  8
0
 10
-3.9291982120999989
 20
-14.108654917300001
 30
0.0
  0
VERTEX
  5
5CE3
  8
0
 10
-3.875135070699999
 20
-14.208371380499999
 30
0.0
  0
VERTEX
  5
5CE4
  8
0
 10
-3.8206377641999971
 20
-14.30569162140001
 30
0.0
  0
VERTEX
  5
5CE5
  8
0
 10
-3.765769210999999
 20
-14.4005543888
 30
0.0
  0
VERTEX
  5
5CE6
  8
0
 10
-3.7105257623999961
 20
-14.493009342000001
 30
0.0
  0
VERTEX
  5
5CE7
  8
0
 10
-3.6548072003000001
 20
-14.5832531226
 30
0.0
  0
VERTEX
  5
5CE8
  8
0
 10
-3.598638091499998
 20
-14.6712729186
 30
0.0
  0
VERTEX
  5
5CE9
  8
0
 10
-3.5420469027000001
 20
-14.7570581034
 30
0.0
  0
VERTEX
  5
5CEA
  8
0
 10
-3.4849262116999991
 20
-14.840800786000001
 30
0.0
  0
VERTEX
  5
5CEB
  8
0
 10
-3.4272860689999991
 20
-14.9225096875
 30
0.0
  0
VERTEX
  5
5CEC
  8
0
 10
-3.3691793144999971
 20
-15.002147042100001
 30
0.0
  0
VERTEX
  5
5CED
  8
0
 10
-3.3105540294999991
 20
-15.0798305031
 30
0.0
  0
VERTEX
  5
5CEE
  8
0
 10
-3.2514220199999961
 20
-15.1555854872
 30
0.0
  0
VERTEX
  5
5CEF
  8
0
 10
-3.1918500105000001
 20
-15.229371114499999
 30
0.0
  0
VERTEX
  5
5CF0
  8
0
 10
-3.131862138899999
 20
-15.301206883400001
 30
0.0
  0
VERTEX
  5
5CF1
  8
0
 10
-3.071495548699998
 20
-15.371097973199999
 30
0.0
  0
VERTEX
  5
5CF2
  8
0
 10
-3.010792716800001
 20
-15.43904231090001
 30
0.0
  0
VERTEX
  5
5CF3
  8
0
 10
-2.949785093699997
 20
-15.505047449999999
 30
0.0
  0
VERTEX
  5
5CF4
  8
0
 10
-2.8885169753999982
 20
-15.569109175199999
 30
0.0
  0
VERTEX
  5
5CF5
  8
0
 10
-2.8270286214000002
 20
-15.6312344855
 30
0.0
  0
VERTEX
  5
5CF6
  8
0
 10
-2.7653459238
 20
-15.691451132899999
 30
0.0
  0
VERTEX
  5
5CF7
  8
0
 10
-2.7035401642999961
 20
-15.7497443196
 30
0.0
  0
VERTEX
  5
5CF8
  8
0
 10
-2.641630662799999
 20
-15.80614772989999
 30
0.0
  0
VERTEX
  5
5CF9
  8
0
 10
-2.5795584286999991
 20
-15.860757577499999
 30
0.0
  0
VERTEX
  5
5CFA
  8
0
 10
-2.5173714262999982
 20
-15.9135706852
 30
0.0
  0
VERTEX
  5
5CFB
  8
0
 10
-2.4551013315999999
 20
-15.9646033591
 30
0.0
  0
VERTEX
  5
5CFC
  8
0
 10
-2.3926558395999979
 20
-16.013972405600001
 30
0.0
  0
VERTEX
  5
5CFD
  8
0
 10
-2.330063014999995
 20
-16.061690755800001
 30
0.0
  0
VERTEX
  5
5CFE
  8
0
 10
-2.2673703048999969
 20
-16.1077561876
 30
0.0
  0
VERTEX
  5
5CFF
  8
0
 10
-2.204502417299997
 20
-16.152252715700001
 30
0.0
  0
VERTEX
  5
5D00
  8
0
 10
-2.1414847922999982
 20
-16.195186877899999
 30
0.0
  0
VERTEX
  5
5D01
  8
0
 10
-2.0783567273999992
 20
-16.236559634100001
 30
0.0
  0
VERTEX
  5
5D02
  8
0
 10
-2.0150582455000001
 20
-16.276437621199999
 30
0.0
  0
VERTEX
  5
5D03
  8
0
 10
-1.951622202999999
 20
-16.314823660799998
 30
0.0
  0
VERTEX
  5
5D04
  8
0
 10
-1.888084829899997
 20
-16.351720935399999
 30
0.0
  0
VERTEX
  5
5D05
  8
0
 10
-1.8243826194999979
 20
-16.387190008600001
 30
0.0
  0
VERTEX
  5
5D06
  8
0
 10
-1.7605413496999971
 20
-16.421236744200002
 30
0.0
  0
VERTEX
  5
5D07
  8
0
 10
-1.6965922223999981
 20
-16.453864473199999
 30
0.0
  0
VERTEX
  5
5D08
  8
0
 10
-1.6324750154000001
 20
-16.48512042310001
 30
0.0
  0
VERTEX
  5
5D09
  8
0
 10
-1.5682187485000001
 20
-16.515003673599999
 30
0.0
  0
VERTEX
  5
5D0A
  8
0
 10
-1.5038517597999981
 20
-16.543516146899989
 30
0.0
  0
VERTEX
  5
5D0B
  8
0
 10
-1.439306761499999
 20
-16.570701747299999
 30
0.0
  0
VERTEX
  5
5D0C
  8
0
 10
-1.3746057148999991
 20
-16.596562033600001
 30
0.0
  0
VERTEX
  5
5D0D
  8
0
 10
-1.3097776480000001
 20
-16.621095935700001
 30
0.0
  0
VERTEX
  5
5D0E
  8
0
 10
-1.244762300299999
 20
-16.644333702200012
 30
0.0
  0
VERTEX
  5
5D0F
  8
0
 10
-1.1795820229
 20
-16.666271749600011
 30
0.0
  0
VERTEX
  5
5D10
  8
0
 10
-1.1142693504999981
 20
-16.686908053
 30
0.0
  0
VERTEX
  5
5D11
  8
0
 10
-1.0487766387999991
 20
-16.706268876799999
 30
0.0
  0
VERTEX
  5
5D12
  8
0
 10
-0.9831319156000014
 20
-16.724354460000001
 30
0.0
  0
VERTEX
  5
5D13
  8
0
 10
-0.9173614245999993
 20
-16.741166088699998
 30
0.0
  0
VERTEX
  5
5D14
  8
0
 10
-0.8514106328999986
 20
-16.756724022699998
 30
0.0
  0
VERTEX
  5
5D15
  8
0
 10
-0.7853010942999994
 20
-16.771026862700001
 30
0.0
  0
VERTEX
  5
5D16
  8
0
 10
-0.7190571826000003
 20
-16.784073677999999
 30
0.0
  0
VERTEX
  5
5D17
  8
0
 10
-0.6526272899999981
 20
-16.795877280300001
 30
0.0
  0
VERTEX
  5
5D18
  8
0
 10
-0.5860366573999976
 20
-16.806433263399999
 30
0.0
  0
VERTEX
  5
5D19
  8
0
 10
-0.5193097926000017
 20
-16.815739209
 30
0.0
  0
VERTEX
  5
5D1A
  8
0
 10
-0.452392356299999
 20
-16.8238031755
 30
0.0
  0
VERTEX
  5
5D1B
  8
0
 10
-0.3853084690999999
 20
-16.830620206999999
 30
0.0
  0
VERTEX
  5
5D1C
  8
0
 10
-0.3180824657999999
 20
-16.836187084700011
 30
0.0
  0
VERTEX
  5
5D1D
  8
0
 10
-0.250659648900001
 20
-16.840506443599999
 30
0.0
  0
VERTEX
  5
5D1E
  8
0
 10
-0.1830382979999996
 20
-16.843573230299999
 30
0.0
  0
VERTEX
  5
5D1F
  8
0
 10
-0.1152697969999998
 20
-16.845381544199999
 30
0.0
  0
VERTEX
  5
5D20
  8
0
 10
-0.0519628326999993
 20
-16.8459319434
 30
0.0
  0
SEQEND
  5
5D21
  8
0
  0
LINE
  5
54C0
  8
0
 10
-4.904799271399999
 20
3.287045406699995
 30
0.0
 11
-4.9807515207000002
 21
1.9703810557999959
 31
0.0
  0
LINE
  5
54C1
  8
0
 10
-4.9807515207000002
 20
1.9703810557999959
 30
0.0
 11
-5.0695644645999991
 21
0.4358534364999899
 31
0.0
  0
LINE
  5
54C2
  8
0
 10
-5.0695644645999991
 20
0.4358534364999899
 30
0.0
 11
-5.1686682081999979
 21
-1.2713538548999981
 31
0.0
  0
LINE
  5
54C3
  8
0
 10
-5.1686682081999979
 20
-1.2713538548999981
 30
0.0
 11
-5.3210529177000012
 21
-3.8874196247000081
 31
0.0
  0
LINE
  5
54C4
  8
0
 10
-5.3210529177000012
 20
-3.8874196247000081
 30
0.0
 11
-5.4034385565000003
 21
-5.2973354528999987
 31
0.0
  0
LINE
  5
54C8
  8
0
 10
-4.9008881064000001
 20
3.3461930262999982
 30
0.0
 11
-4.904845789799996
 21
3.2862430403999952
 31
0.0
  0
LINE
  5
550E
  8
0
 10
-4.409419645699999
 20
2.636062254899997
 30
0.0
 11
-4.4092350200999988
 21
2.6347943866999941
 31
0.0
  0
LINE
  5
5525
  8
___COSMETIC_SKETCH
 10
-0.5519198074999993
 20
6.154726914499995
 30
0.0
 11
-0.5519198074999993
 21
6.3047269144999927
 31
0.0
  0
LINE
  5
552A
  8
___COSMETIC_SKETCH
 10
0.448080192500001
 20
6.3047269144999927
 30
0.0
 11
0.448080192500001
 21
6.154726914499995
 31
0.0
  0
POLYLINE
  5
552C
  8
0
 66
     1
 10
0.0
 20
0.0
 30
0.0
  0
VERTEX
  5
5D22
  8
0
 10
-0.0519201379999999
 20
-0.9130149089999973
 30
0.0
  0
VERTEX
  5
5D23
  8
0
 10
0.0062408512000012
 20
-0.912737378300001
 30
0.0
  0
VERTEX
  5
5D24
  8
0
 10
0.0644748089000018
 20
-0.9119033451000078
 30
0.0
  0
VERTEX
  5
5D25
  8
0
 10
0.1227688395999991
 20
-0.9105114126000087
 30
0.0
  0
VERTEX
  5
5D26
  8
0
 10
0.1810933914999992
 20
-0.9085609143999986
 30
0.0
  0
VERTEX
  5
5D27
  8
0
 10
0.239451858799999
 20
-0.9060500674000023
 30
0.0
  0
VERTEX
  5
5D28
  8
0
 10
0.2978803660000011
 20
-0.9029743522999991
 30
0.0
  0
VERTEX
  5
5D29
  8
0
 10
0.3563680933000022
 20
-0.8993307626000087
 30
0.0
  0
VERTEX
  5
5D2A
  8
0
 10
0.4148982588999992
 20
-0.8951166063000073
 30
0.0
  0
VERTEX
  5
5D2B
  8
0
 10
0.473497312600003
 20
-0.8903252037000013
 30
0.0
  0
VERTEX
  5
5D2C
  8
0
 10
0.5321508335999994
 20
-0.8849532397999977
 30
0.0
  0
VERTEX
  5
5D2D
  8
0
 10
0.5908461771999995
 20
-0.8789982705000055
 30
0.0
  0
VERTEX
  5
5D2E
  8
0
 10
0.6496117733000021
 20
-0.8724527618000053
 30
0.0
  0
VERTEX
  5
5D2F
  8
0
 10
0.7084281272999995
 20
-0.8653138981000053
 30
0.0
  0
VERTEX
  5
5D30
  8
0
 10
0.7672866052000025
 20
-0.8575776698000011
 30
0.0
  0
VERTEX
  5
5D31
  8
0
 10
0.8262305733000019
 20
-0.8492318564999974
 30
0.0
  0
VERTEX
  5
5D32
  8
0
 10
0.8852449951000025
 20
-0.8402713235000048
 30
0.0
  0
VERTEX
  5
5D33
  8
0
 10
0.9443135688000021
 20
-0.830691127100003
 30
0.0
  0
VERTEX
  5
5D34
  8
0
 10
1.0034764245000001
 20
-0.8204761297000047
 30
0.0
  0
VERTEX
  5
5D35
  8
0
 10
1.0627151890999991
 20
-0.8096211347000091
 30
0.0
  0
VERTEX
  5
5D36
  8
0
 10
1.1220195438
 20
-0.7981199401000083
 30
0.0
  0
VERTEX
  5
5D37
  8
0
 10
1.1814414566000011
 20
-0.7859528050000009
 30
0.0
  0
VERTEX
  5
5D38
  8
0
 10
1.2409641972000001
 20
-0.7731124498999975
 30
0.0
  0
VERTEX
  5
5D39
  8
0
 10
1.300572157899998
 20
-0.7595914285000092
 30
0.0
  0
VERTEX
  5
5D3A
  8
0
 10
1.360316262500002
 20
-0.7453658077000043
 30
0.0
  0
VERTEX
  5
5D3B
  8
0
 10
1.4201785810000001
 20
-0.730426253200001
 30
0.0
  0
VERTEX
  5
5D3C
  8
0
 10
1.480140160899998
 20
-0.7147638803999996
 30
0.0
  0
VERTEX
  5
5D3D
  8
0
 10
1.5402506929000011
 20
-0.6983514982999992
 30
0.0
  0
VERTEX
  5
5D3E
  8
0
 10
1.6004991481999991
 20
-0.6811768966000003
 30
0.0
  0
VERTEX
  5
5D3F
  8
0
 10
1.660865091
 20
-0.6632307072000077
 30
0.0
  0
VERTEX
  5
5D40
  8
0
 10
1.7213825028
 20
-0.644486582399999
 30
0.0
  0
VERTEX
  5
5D41
  8
0
 10
1.7820378327999991
 20
-0.6249310918000078
 30
0.0
  0
VERTEX
  5
5D42
  8
0
 10
1.8428086297999999
 20
-0.6045538035999983
 30
0.0
  0
VERTEX
  5
5D43
  8
0
 10
1.903712993700001
 20
-0.5833303066000042
 30
0.0
  0
VERTEX
  5
5D44
  8
0
 10
1.964731061999998
 20
-0.5612474846000027
 30
0.0
  0
VERTEX
  5
5D45
  8
0
 10
2.025839906899999
 20
-0.5382929934000063
 30
0.0
  0
VERTEX
  5
5D46
  8
0
 10
2.0870502937999991
 20
-0.514441490100005
 30
0.0
  0
VERTEX
  5
5D47
  8
0
 10
2.1483366671000002
 20
-0.4896799567000018
 30
0.0
  0
VERTEX
  5
5D48
  8
0
 10
2.2096752153000021
 20
-0.4639947185999988
 30
0.0
  0
VERTEX
  5
5D49
  8
0
 10
2.2710764525
 20
-0.4373573734000047
 30
0.0
  0
VERTEX
  5
5D4A
  8
0
 10
2.3325061970999981
 20
-0.4097567648000009
 30
0.0
  0
VERTEX
  5
5D4B
  8
0
 10
2.3939442507000011
 20
-0.3811760970000009
 30
0.0
  0
VERTEX
  5
5D4C
  8
0
 10
2.4554198794999991
 20
-0.3515754214000069
 30
0.0
  0
VERTEX
  5
5D4D
  8
0
 10
2.5169073604999981
 20
-0.3209376814000038
 30
0.0
  0
VERTEX
  5
5D4E
  8
0
 10
2.5783762880999981
 20
-0.2892483868000042
 30
0.0
  0
VERTEX
  5
5D4F
  8
0
 10
2.6398448032000021
 20
-0.256468071200004
 30
0.0
  0
VERTEX
  5
5D50
  8
0
 10
2.701285271599998
 20
-0.2225774819999984
 30
0.0
  0
VERTEX
  5
5D51
  8
0
 10
2.7626616179000001
 20
-0.1875622810999999
 30
0.0
  0
VERTEX
  5
5D52
  8
0
 10
2.823975981599999
 20
-0.1513873493999966
 30
0.0
  0
VERTEX
  5
5D53
  8
0
 10
2.885195818300001
 20
-0.1140336285999979
 30
0.0
  0
VERTEX
  5
5D54
  8
0
 10
2.946285075600001
 20
-0.075484448600001
 30
0.0
  0
VERTEX
  5
5D55
  8
0
 10
3.0072372371999969
 20
-0.0357060889000067
 30
0.0
  0
VERTEX
  5
5D56
  8
0
 10
3.068014557699998
 20
0.005320046099996
 30
0.0
  0
VERTEX
  5
5D57
  8
0
 10
3.1285783467999999
 20
0.0476111796999987
 30
0.0
  0
VERTEX
  5
5D58
  8
0
 10
3.188917004199999
 20
0.0912012270999938
 30
0.0
  0
VERTEX
  5
5D59
  8
0
 10
3.248990627
 20
0.1361115700999989
 30
0.0
  0
VERTEX
  5
5D5A
  8
0
 10
3.3087553775999989
 20
0.1823588240999925
 30
0.0
  0
VERTEX
  5
5D5B
  8
0
 10
3.3681905901000011
 20
0.2299728682999955
 30
0.0
  0
VERTEX
  5
5D5C
  8
0
 10
3.4272566347999991
 20
0.2789802998999917
 30
0.0
  0
VERTEX
  5
5D5D
  8
0
 10
3.485902789599999
 20
0.3293963581999932
 30
0.0
  0
VERTEX
  5
5D5E
  8
0
 10
3.5440885264999999
 20
0.3812351555000006
 30
0.0
  0
VERTEX
  5
5D5F
  8
0
 10
3.6017762057999989
 20
0.4345282389999953
 30
0.0
  0
VERTEX
  5
5D60
  8
0
 10
3.6589037990999991
 20
0.4892836578999963
 30
0.0
  0
VERTEX
  5
5D61
  8
0
 10
3.7153930160999971
 20
0.5454787241999953
 30
0.0
  0
VERTEX
  5
5D62
  8
0
 10
3.7711985546000002
 20
0.6031375553999965
 30
0.0
  0
VERTEX
  5
5D63
  8
0
 10
3.8262594088000008
 20
0.662268475699996
 30
0.0
  0
VERTEX
  5
5D64
  8
0
 10
3.8804763137
 20
0.7228209270999955
 30
0.0
  0
VERTEX
  5
5D65
  8
0
 10
3.9337954015000012
 20
0.7848053966999942
 30
0.0
  0
VERTEX
  5
5D66
  8
0
 10
3.9861602511999998
 20
0.8482311526000002
 30
0.0
  0
VERTEX
  5
5D67
  8
0
 10
4.0374726906999987
 20
0.913041122700001
 30
0.0
  0
VERTEX
  5
5D68
  8
0
 10
4.0876679319999969
 20
0.9792239214999938
 30
0.0
  0
VERTEX
  5
5D69
  8
0
 10
4.136698626900003
 20
1.0467929650999961
 30
0.0
  0
VERTEX
  5
5D6A
  8
0
 10
4.1844955102999979
 20
1.115723681799998
 30
0.0
  0
VERTEX
  5
5D6B
  8
0
 10
4.2309971973000007
 20
1.1860081164999901
 30
0.0
  0
VERTEX
  5
5D6C
  8
0
 10
4.2761483404999971
 20
1.2576448824999951
 30
0.0
  0
VERTEX
  5
5D6D
  8
0
 10
4.319891697700001
 20
1.3306182092999981
 30
0.0
  0
VERTEX
  5
5D6E
  8
0
 10
4.362186372700001
 20
1.4049519164999951
 30
0.0
  0
VERTEX
  5
5D6F
  8
0
 10
4.4029601183999993
 20
1.4806109995999961
 30
0.0
  0
VERTEX
  5
5D70
  8
0
 10
4.4421159178999989
 20
1.5574900667999909
 30
0.0
  0
VERTEX
  5
5D71
  8
0
 10
4.4796089927000011
 20
1.635599341999991
 30
0.0
  0
VERTEX
  5
5D72
  8
0
 10
4.5153756327999961
 20
1.7149118021999921
 30
0.0
  0
VERTEX
  5
5D73
  8
0
 10
4.5493049556000003
 20
1.7952608698999899
 30
0.0
  0
VERTEX
  5
5D74
  8
0
 10
4.5813399281999967
 20
1.8766117964999991
 30
0.0
  0
VERTEX
  5
5D75
  8
0
 10
4.6114430945000002
 20
1.958974694099993
 30
0.0
  0
VERTEX
  5
5D76
  8
0
 10
4.6395485012000002
 20
2.042245938299998
 30
0.0
  0
VERTEX
  5
5D77
  8
0
 10
4.6656165807000001
 20
2.1264118011999922
 30
0.0
  0
VERTEX
  5
5D78
  8
0
 10
4.6896074529999972
 20
2.2114521348999912
 30
0.0
  0
VERTEX
  5
5D79
  8
0
 10
4.7114667583000012
 20
2.2972520607999982
 30
0.0
  0
VERTEX
  5
5D7A
  8
0
 10
4.731164418399997
 20
2.3838238411999981
 30
0.0
  0
VERTEX
  5
5D7B
  8
0
 10
4.7486587598999987
 20
2.4711188403999951
 30
0.0
  0
VERTEX
  5
5D7C
  8
0
 10
4.763893877400001
 20
2.5589312062999952
 30
0.0
  0
VERTEX
  5
5D7D
  8
0
 10
4.7768493753000003
 20
2.6472581658999981
 30
0.0
  0
VERTEX
  5
5D7E
  8
0
 10
4.7874980071
 20
2.7360570728
 30
0.0
  0
VERTEX
  5
5D7F
  8
0
 10
4.795800164800001
 20
2.825059424899997
 30
0.0
  0
VERTEX
  5
5D80
  8
0
 10
4.8017436146000012
 20
2.914186147999998
 30
0.0
  0
VERTEX
  5
5D81
  8
0
 10
4.8053237031
 20
3.003458747199991
 30
0.0
  0
VERTEX
  5
5D82
  8
0
 10
4.806532398699999
 20
3.0927564935999992
 30
0.0
  0
VERTEX
  5
5D83
  8
0
 10
4.8053665433999981
 20
3.182042027800001
 30
0.0
  0
VERTEX
  5
5D84
  8
0
 10
4.8018303096000032
 20
3.2712855037999931
 30
0.0
  0
SEQEND
  5
5D85
  8
0
  0
POLYLINE
  5
552E
  8
0
 66
     1
 10
0.0
 20
0.0
 30
0.0
  0
VERTEX
  5
5D86
  8
0
 10
4.3055799710999967
 20
2.6360618452999982
 30
0.0
  0
VERTEX
  5
5D87
  8
0
 10
4.3149392485999982
 20
2.7059157546999941
 30
0.0
  0
VERTEX
  5
5D88
  8
0
 10
4.324086770600001
 20
2.789859081899996
 30
0.0
  0
VERTEX
  5
5D89
  8
0
 10
4.3309875741999999
 20
2.874201983199995
 30
0.0
  0
VERTEX
  5
5D8A
  8
0
 10
4.335615875400002
 20
2.958764643099995
 30
0.0
  0
VERTEX
  5
5D8B
  8
0
 10
4.3379625876999999
 20
3.043477282399996
 30
0.0
  0
VERTEX
  5
5D8C
  8
0
 10
4.3380210762000004
 20
3.1283264415000001
 30
0.0
  0
VERTEX
  5
5D8D
  8
0
 10
4.3357892423000006
 20
3.2132150855999981
 30
0.0
  0
VERTEX
  5
5D8E
  8
0
 10
4.3312708592999982
 20
3.298131038299998
 30
0.0
  0
VERTEX
  5
5D8F
  8
0
 10
4.3244723158000014
 20
3.3830008802999951
 30
0.0
  0
VERTEX
  5
5D90
  8
0
 10
4.315415787900001
 20
3.4676354622999952
 30
0.0
  0
VERTEX
  5
5D91
  8
0
 10
4.3041203449000003
 20
3.5519803390999982
 30
0.0
  0
VERTEX
  5
5D92
  8
0
 10
4.2906020016999999
 20
3.6360063177999962
 30
0.0
  0
VERTEX
  5
5D93
  8
0
 10
4.2748978538999989
 20
3.719563779599993
 30
0.0
  0
VERTEX
  5
5D94
  8
0
 10
4.2570349604000013
 20
3.8026049940999922
 30
0.0
  0
VERTEX
  5
5D95
  8
0
 10
4.2370379450999991
 20
3.8850991271999922
 30
0.0
  0
VERTEX
  5
5D96
  8
0
 10
4.2149601115999991
 20
3.9669254601999939
 30
0.0
  0
VERTEX
  5
5D97
  8
0
 10
4.1908380976000004
 20
4.0480593822999964
 30
0.0
  0
VERTEX
  5
5D98
  8
0
 10
4.1647144283999991
 20
4.128456363099998
 30
0.0
  0
VERTEX
  5
5D99
  8
0
 10
4.1366675530999988
 20
4.2079701346999911
 30
0.0
  0
VERTEX
  5
5D9A
  8
0
 10
4.1067483330999988
 20
4.2865608952999992
 30
0.0
  0
VERTEX
  5
5D9B
  8
0
 10
4.0749999440999991
 20
4.3642093434999918
 30
0.0
  0
VERTEX
  5
5D9C
  8
0
 10
4.041502947899998
 20
4.4408050852999992
 30
0.0
  0
VERTEX
  5
5D9D
  8
0
 10
4.0063137027999991
 20
4.5163126466999932
 30
0.0
  0
VERTEX
  5
5D9E
  8
0
 10
3.9694790584999988
 20
4.5907196356999957
 30
0.0
  0
VERTEX
  5
5D9F
  8
0
 10
3.9310780576000002
 20
4.6639564784999958
 30
0.0
  0
VERTEX
  5
5DA0
  8
0
 10
3.8911671858000001
 20
4.7360103357000014
 30
0.0
  0
VERTEX
  5
5DA1
  8
0
 10
3.849807524400001
 20
4.8068607316999969
 30
0.0
  0
VERTEX
  5
5DA2
  8
0
 10
3.8070923363000002
 20
4.8764317378999991
 30
0.0
  0
VERTEX
  5
5DA3
  8
0
 10
3.763081777700001
 20
4.9447116894999947
 30
0.0
  0
VERTEX
  5
5DA4
  8
0
 10
3.7178348717000009
 20
5.0116901170999952
 30
0.0
  0
VERTEX
  5
5DA5
  8
0
 10
3.6714496746999989
 20
5.0772984236999932
 30
0.0
  0
VERTEX
  5
5DA6
  8
0
 10
3.6240025767000041
 20
5.1415102141999949
 30
0.0
  0
VERTEX
  5
5DA7
  8
0
 10
3.575537760899997
 20
5.2043420298999958
 30
0.0
  0
VERTEX
  5
5DA8
  8
0
 10
3.526109131400001
 20
5.2657946632999986
 30
0.0
  0
VERTEX
  5
5DA9
  8
0
 10
3.4757685549000001
 20
5.3258785697999951
 30
0.0
  0
VERTEX
  5
5DAA
  8
0
 10
3.424584368600001
 20
5.3845851707000003
 30
0.0
  0
VERTEX
  5
5DAB
  8
0
 10
3.3726365815000001
 20
5.4418903559999929
 30
0.0
  0
VERTEX
  5
5DAC
  8
0
 10
3.3199827566999991
 20
5.4977991454999948
 30
0.0
  0
VERTEX
  5
5DAD
  8
0
 10
3.2666799883999991
 20
5.5523167436999961
 30
0.0
  0
VERTEX
  5
5DAE
  8
0
 10
3.2128085170999992
 20
5.6054228871999907
 30
0.0
  0
VERTEX
  5
5DAF
  8
0
 10
3.1584415879000001
 20
5.6571098206999988
 30
0.0
  0
VERTEX
  5
5DB0
  8
0
 10
3.1036152195999982
 20
5.7074040229999952
 30
0.0
  0
VERTEX
  5
5DB1
  8
0
 10
3.048351471100001
 20
5.756337714899991
 30
0.0
  0
VERTEX
  5
5DB2
  8
0
 10
2.9926941446999979
 20
5.803926278799997
 30
0.0
  0
VERTEX
  5
5DB3
  8
0
 10
2.9366993930000009
 20
5.8501779392999964
 30
0.0
  0
VERTEX
  5
5DB4
  8
0
 10
2.8804033932999991
 20
5.8951133594999927
 30
0.0
  0
VERTEX
  5
5DB5
  8
0
 10
2.823848866999997
 20
5.9387493974999961
 30
0.0
  0
VERTEX
  5
5DB6
  8
0
 10
2.7670858016
 20
5.981097728699992
 30
0.0
  0
VERTEX
  5
5DB7
  8
0
 10
2.7101584693999992
 20
6.0221714374999991
 30
0.0
  0
VERTEX
  5
5DB8
  8
0
 10
2.653118833899998
 20
6.0619798681999981
 30
0.0
  0
VERTEX
  5
5DB9
  8
0
 10
2.5959995004
 20
6.1005455660999939
 30
0.0
  0
VERTEX
  5
5DBA
  8
0
 10
2.5388126216
 20
6.1379009610999997
 30
0.0
  0
VERTEX
  5
5DBB
  8
0
 10
2.4816000261000002
 20
6.1740599448999927
 30
0.0
  0
VERTEX
  5
5DBC
  8
0
 10
2.4243944303999991
 20
6.209040687899992
 30
0.0
  0
VERTEX
  5
5DBD
  8
0
 10
2.367190149899999
 20
6.242879881199995
 30
0.0
  0
VERTEX
  5
5DBE
  8
0
 10
2.3100202188000001
 20
6.2755938730999921
 30
0.0
  0
VERTEX
  5
5DBF
  8
0
 10
2.2529189771999989
 20
6.3072002967999961
 30
0.0
  0
VERTEX
  5
5DC0
  8
0
 10
2.1958789040999971
 20
6.3377354264999948
 30
0.0
  0
VERTEX
  5
5DC1
  8
0
 10
2.1389285754999992
 20
6.3672164088999921
 30
0.0
  0
VERTEX
  5
5DC2
  8
0
 10
2.0820990450000032
 20
6.3956594859999907
 30
0.0
  0
VERTEX
  5
5DC3
  8
0
 10
2.025382954099999
 20
6.4230969500999961
 30
0.0
  0
VERTEX
  5
5DC4
  8
0
 10
1.9688046814
 20
6.4495455597999918
 30
0.0
  0
VERTEX
  5
5DC5
  8
0
 10
1.9123919524999999
 20
6.4750201908999951
 30
0.0
  0
VERTEX
  5
5DC6
  8
0
 10
1.8561395536000009
 20
6.4995481080999919
 30
0.0
  0
VERTEX
  5
5DC7
  8
0
 10
1.8000763455000011
 20
6.5231422417999951
 30
0.0
  0
VERTEX
  5
5DC8
  8
0
 10
1.7442193219999991
 20
6.5458200826000006
 30
0.0
  0
VERTEX
  5
5DC9
  8
0
 10
1.6885427373999971
 20
6.5676131565999949
 30
0.0
  0
VERTEX
  5
5DCA
  8
0
 10
1.633074077799999
 20
6.5885327745999964
 30
0.0
  0
VERTEX
  5
5DCB
  8
0
 10
1.5778256475000021
 20
6.608595656299995
 30
0.0
  0
VERTEX
  5
5DCC
  8
0
 10
1.5227463314999981
 20
6.6278384714999969
 30
0.0
  0
VERTEX
  5
5DCD
  8
0
 10
1.467847894000001
 20
6.6462759176999953
 30
0.0
  0
VERTEX
  5
5DCE
  8
0
 10
1.4131536267000011
 20
6.6639196018999982
 30
0.0
  0
VERTEX
  5
5DCF
  8
0
 10
1.3586270701000021
 20
6.6807977036999926
 30
0.0
  0
VERTEX
  5
5DD0
  8
0
 10
1.304271866199999
 20
6.6969250827999991
 30
0.0
  0
VERTEX
  5
5DD1
  8
0
 10
1.2501146749000001
 20
6.7123096091999983
 30
0.0
  0
VERTEX
  5
5DD2
  8
0
 10
1.196151858100001
 20
6.7269666387999987
 30
0.0
  0
VERTEX
  5
5DD3
  8
0
 10
1.142403564499999
 20
6.7409054811999951
 30
0.0
  0
VERTEX
  5
5DD4
  8
0
 10
1.0888768856000011
 20
6.7541388670999947
 30
0.0
  0
VERTEX
  5
5DD5
  8
0
 10
1.035547328900001
 20
6.7666855186999921
 30
0.0
  0
VERTEX
  5
5DD6
  8
0
 10
0.982443077100001
 20
6.7785518256999993
 30
0.0
  0
VERTEX
  5
5DD7
  8
0
 10
0.9295599985
 20
6.7897513419999953
 30
0.0
  0
VERTEX
  5
5DD8
  8
0
 10
0.876823421400001
 20
6.8003096685999989
 30
0.0
  0
VERTEX
  5
5DD9
  8
0
 10
0.8242472678000004
 20
6.8102335205999918
 30
0.0
  0
VERTEX
  5
5DDA
  8
0
 10
0.7718381236000022
 20
6.8195306549999932
 30
0.0
  0
VERTEX
  5
5DDB
  8
0
 10
0.7195086046999997
 20
6.8282232596999961
 30
0.0
  0
VERTEX
  5
5DDC
  8
0
 10
0.667242700500001
 20
6.836320306599994
 30
0.0
  0
VERTEX
  5
5DDD
  8
0
 10
0.6150745985000015
 20
6.84382325989999
 30
0.0
  0
VERTEX
  5
5DDE
  8
0
 10
0.5629912198999989
 20
6.8507398513999931
 30
0.0
  0
VERTEX
  5
5DDF
  8
0
 10
0.510990829699999
 20
6.8570759801999932
 30
0.0
  0
VERTEX
  5
5DE0
  8
0
 10
0.4590921481999999
 20
6.862835171199996
 30
0.0
  0
VERTEX
  5
5DE1
  8
0
 10
0.4073124545999997
 20
6.868021200899995
 30
0.0
  0
VERTEX
  5
5DE2
  8
0
 10
0.355661372900002
 20
6.8726389184999928
 30
0.0
  0
VERTEX
  5
5DE3
  8
0
 10
0.3041454146000007
 20
6.8766936906999998
 30
0.0
  0
VERTEX
  5
5DE4
  8
0
 10
0.2527769982000017
 20
6.8801904789999986
 30
0.0
  0
VERTEX
  5
5DE5
  8
0
 10
0.2015657686000019
 20
6.8831343023000002
 30
0.0
  0
VERTEX
  5
5DE6
  8
0
 10
0.1505172578000007
 20
6.885530639999998
 30
0.0
  0
VERTEX
  5
5DE7
  8
0
 10
0.0996374787000001
 20
6.8873852419999917
 30
0.0
  0
VERTEX
  5
5DE8
  8
0
 10
0.0489331660000012
 20
6.8887034645999972
 30
0.0
  0
VERTEX
  5
5DE9
  8
0
 10
-0.0015882171999984
 20
6.8894903141999961
 30
0.0
  0
VERTEX
  5
5DEA
  8
0
 10
-0.0519198074999991
 20
6.8897509732
 30
0.0
  0
SEQEND
  5
5DEB
  8
0
  0
LINE
  5
552F
  8
0
 10
4.3053954050000014
 20
2.634794386599991
 30
0.0
 11
4.3055799710999967
 21
2.6360618452999982
 31
0.0
  0
POLYLINE
  5
5530
  8
0
 66
     1
 10
0.0
 20
0.0
 30
0.0
  0
VERTEX
  5
5DEC
  8
0
 10
4.3055736183999951
 20
2.6360131331999952
 30
0.0
  0
VERTEX
  5
5DED
  8
0
 10
4.2949132503999987
 20
2.568122851199993
 30
0.0
  0
VERTEX
  5
5DEE
  8
0
 10
4.2803386431000012
 20
2.488261855299994
 30
0.0
  0
VERTEX
  5
5DEF
  8
0
 10
4.2636149074
 20
2.4087315355999959
 30
0.0
  0
VERTEX
  5
5DF0
  8
0
 10
4.2447683828000002
 20
2.3296353634
 30
0.0
  0
VERTEX
  5
5DF1
  8
0
 10
4.2238856644
 20
2.2512562110999981
 30
0.0
  0
VERTEX
  5
5DF2
  8
0
 10
4.2009988788000019
 20
2.1736012603999981
 30
0.0
  0
VERTEX
  5
5DF3
  8
0
 10
4.176140241099997
 20
2.096685347299994
 30
0.0
  0
VERTEX
  5
5DF4
  8
0
 10
4.1494421544000009
 20
2.020798406399996
 30
0.0
  0
VERTEX
  5
5DF5
  8
0
 10
4.1209588804999981
 20
1.9459520790999949
 30
0.0
  0
VERTEX
  5
5DF6
  8
0
 10
4.0907372138000042
 20
1.8721539457999921
 30
0.0
  0
VERTEX
  5
5DF7
  8
0
 10
4.058943843199998
 20
1.7996816130999971
 30
0.0
  0
VERTEX
  5
5DF8
  8
0
 10
4.0256714716999991
 20
1.728591677299995
 30
0.0
  0
VERTEX
  5
5DF9
  8
0
 10
3.9909662236999992
 20
1.6588376824999991
 30
0.0
  0
VERTEX
  5
5DFA
  8
0
 10
3.9549576625999969
 20
1.5905368011999941
 30
0.0
  0
VERTEX
  5
5DFB
  8
0
 10
3.9177454648999959
 20
1.5237284745999971
 30
0.0
  0
VERTEX
  5
5DFC
  8
0
 10
3.8793872350999958
 20
1.458376878799994
 30
0.0
  0
VERTEX
  5
5DFD
  8
0
 10
3.8399592915000009
 20
1.394483101599995
 30
0.0
  0
VERTEX
  5
5DFE
  8
0
 10
3.7995494182999989
 20
1.3320642165999941
 30
0.0
  0
VERTEX
  5
5DFF
  8
0
 10
3.7582216506999959
 20
1.2711051853999951
 30
0.0
  0
VERTEX
  5
5E00
  8
0
 10
3.7160121711999992
 20
1.211557450600004
 30
0.0
  0
VERTEX
  5
5E01
  8
0
 10
3.673007628199997
 20
1.1534448925999981
 30
0.0
  0
VERTEX
  5
5E02
  8
0
 10
3.6292595075000009
 20
1.096742425599998
 30
0.0
  0
VERTEX
  5
5E03
  8
0
 10
3.5847375488000019
 20
1.041328438799999
 30
0.0
  0
VERTEX
  5
5E04
  8
0
 10
3.539501353299999
 20
0.9872026903999966
 30
0.0
  0
VERTEX
  5
5E05
  8
0
 10
3.4936098463
 20
0.9343628115999962
 30
0.0
  0
VERTEX
  5
5E06
  8
0
 10
3.4470128728999989
 20
0.8826874561999956
 30
0.0
  0
VERTEX
  5
5E07
  8
0
 10
3.399753923799997
 20
0.8321689292999963
 30
0.0
  0
VERTEX
  5
5E08
  8
0
 10
3.3518917174
 20
0.7828155910999968
 30
0.0
  0
VERTEX
  5
5E09
  8
0
 10
3.303379590600001
 20
0.7345340027000021
 30
0.0
  0
VERTEX
  5
5E0A
  8
0
 10
3.2542553351999981
 20
0.6873220708999952
 30
0.0
  0
VERTEX
  5
5E0B
  8
0
 10
3.204565270199998
 20
0.6411846312999998
 30
0.0
  0
VERTEX
  5
5E0C
  8
0
 10
3.1542586814999991
 20
0.5960419721999986
 30
0.0
  0
VERTEX
  5
5E0D
  8
0
 10
3.103366572600001
 20
0.5518940461999975
 30
0.0
  0
VERTEX
  5
5E0E
  8
0
 10
3.0519264867000002
 20
0.5087445909000011
 30
0.0
  0
VERTEX
  5
5E0F
  8
0
 10
2.9998849984999989
 20
0.4665229174999938
 30
0.0
  0
VERTEX
  5
5E10
  8
0
 10
2.9472424697999982
 20
0.4252076654999968
 30
0.0
  0
VERTEX
  5
5E11
  8
0
 10
2.8940611155999991
 20
0.3848252831999943
 30
0.0
  0
VERTEX
  5
5E12
  8
0
 10
2.8403749427000009
 20
0.3453790565999952
 30
0.0
  0
VERTEX
  5
5E13
  8
0
 10
2.7862008922000001
 20
0.3068606606999964
 30
0.0
  0
VERTEX
  5
5E14
  8
0
 10
2.7315879831000021
 20
0.269283467399994
 30
0.0
  0
VERTEX
  5
5E15
  8
0
 10
2.676621358000002
 20
0.2326828269999979
 30
0.0
  0
VERTEX
  5
5E16
  8
0
 10
2.6213379625000002
 20
0.1970596236999924
 30
0.0
  0
VERTEX
  5
5E17
  8
0
 10
2.5657756666999969
 20
0.162413833500004
 30
0.0
  0
VERTEX
  5
5E18
  8
0
 10
2.510026727299997
 20
0.1287769983999993
 30
0.0
  0
VERTEX
  5
5E19
  8
0
 10
2.4541467073999992
 20
0.0961555514999901
 30
0.0
  0
VERTEX
  5
5E1A
  8
0
 10
2.398162096699997
 20
0.0645370365999938
 30
0.0
  0
VERTEX
  5
5E1B
  8
0
 10
2.3421255684000002
 20
0.0339223984000015
 30
0.0
  0
VERTEX
  5
5E1C
  8
0
 10
2.286106869499998
 20
0.0043190762999998
 30
0.0
  0
VERTEX
  5
5E1D
  8
0
 10
2.2301285883999991
 20
-0.0242923647000026
 30
0.0
  0
VERTEX
  5
5E1E
  8
0
 10
2.1741720815000001
 20
-0.0519507890000028
 30
0.0
  0
VERTEX
  5
5E1F
  8
0
 10
2.118284539299998
 20
-0.0786600114999985
 30
0.0
  0
VERTEX
  5
5E20
  8
0
 10
2.0625065503000002
 20
-0.1044281389999995
 30
0.0
  0
VERTEX
  5
5E21
  8
0
 10
2.0068030305999991
 20
-0.1292973545000038
 30
0.0
  0
VERTEX
  5
5E22
  8
0
 10
1.9512163381000001
 20
-0.1532727410999968
 30
0.0
  0
VERTEX
  5
5E23
  8
0
 10
1.895786015699999
 20
-0.1763616300000024
 30
0.0
  0
VERTEX
  5
5E24
  8
0
 10
1.8404655828000001
 20
-0.1986062522999958
 30
0.0
  0
VERTEX
  5
5E25
  8
0
 10
1.785293392999999
 20
-0.2200119547000057
 30
0.0
  0
VERTEX
  5
5E26
  8
0
 10
1.730306697600003
 20
-0.2405853570000005
 30
0.0
  0
VERTEX
  5
5E27
  8
0
 10
1.675450247399999
 20
-0.2603669077000106
 30
0.0
  0
VERTEX
  5
5E28
  8
0
 10
1.6207603370000001
 20
-0.2793623685000099
 30
0.0
  0
VERTEX
  5
5E29
  8
0
 10
1.5662709489000011
 20
-0.2975794545000028
 30
0.0
  0
VERTEX
  5
5E2A
  8
0
 10
1.5119166758000011
 20
-0.3150581443000036
 30
0.0
  0
VERTEX
  5
5E2B
  8
0
 10
1.4577315002000011
 20
-0.3318044250000014
 30
0.0
  0
VERTEX
  5
5E2C
  8
0
 10
1.4037491131000011
 20
-0.3478251810000046
 30
0.0
  0
VERTEX
  5
5E2D
  8
0
 10
1.349897558600001
 20
-0.3631573867000029
 30
0.0
  0
VERTEX
  5
5E2E
  8
0
 10
1.2962066209000001
 20
-0.3778065894000022
 30
0.0
  0
VERTEX
  5
5E2F
  8
0
 10
1.2427078556999991
 20
-0.3917784600000047
 30
0.0
  0
VERTEX
  5
5E30
  8
0
 10
1.1893250956000001
 20
-0.4051055847999976
 30
0.0
  0
VERTEX
  5
5E31
  8
0
 10
1.136079156600001
 20
-0.4177939946000039
 30
0.0
  0
VERTEX
  5
5E32
  8
0
 10
1.0830050118999981
 20
-0.4298469403000027
 30
0.0
  0
VERTEX
  5
5E33
  8
0
 10
1.030041996
 20
-0.441288604600004
 30
0.0
  0
VERTEX
  5
5E34
  8
0
 10
0.9772129423999976
 20
-0.4521233581999981
 30
0.0
  0
VERTEX
  5
5E35
  8
0
 10
0.9245470158999999
 20
-0.4623548679000038
 30
0.0
  0
VERTEX
  5
5E36
  8
0
 10
0.8719883023000001
 20
-0.4720025075000011
 30
0.0
  0
VERTEX
  5
5E37
  8
0
 10
0.8195608450999998
 20
-0.4810698114999994
 30
0.0
  0
VERTEX
  5
5E38
  8
0
 10
0.7672890436000018
 20
-0.4895614047000052
 30
0.0
  0
VERTEX
  5
5E39
  8
0
 10
0.7151132247999997
 20
-0.4974947207999989
 30
0.0
  0
VERTEX
  5
5E3A
  8
0
 10
0.6630563014000011
 20
-0.5048734060000089
 30
0.0
  0
VERTEX
  5
5E3B
  8
0
 10
0.6111424262000007
 20
-0.511701999100005
 30
0.0
  0
VERTEX
  5
5E3C
  8
0
 10
0.5593100711999988
 20
-0.517995266800007
 30
0.0
  0
VERTEX
  5
5E3D
  8
0
 10
0.5075816080000024
 20
-0.5237561821000014
 30
0.0
  0
VERTEX
  5
5E3E
  8
0
 10
0.4559793124000004
 20
-0.5289885457000028
 30
0.0
  0
VERTEX
  5
5E3F
  8
0
 10
0.404438108800001
 20
-0.5337039397000041
 30
0.0
  0
VERTEX
  5
5E40
  8
0
 10
0.3529789868000002
 20
-0.5379044264999993
 30
0.0
  0
VERTEX
  5
5E41
  8
0
 10
0.3016234003000022
 20
-0.5415929621000049
 30
0.0
  0
VERTEX
  5
5E42
  8
0
 10
0.2503043070000004
 20
-0.544777785800001
 30
0.0
  0
VERTEX
  5
5E43
  8
0
 10
0.1990418228000017
 20
-0.5474599737000006
 30
0.0
  0
VERTEX
  5
5E44
  8
0
 10
0.1478558750000012
 20
-0.5496415195
 30
0.0
  0
VERTEX
  5
5E45
  8
0
 10
0.0966772826000018
 20
-0.5513271492000058
 30
0.0
  0
VERTEX
  5
5E46
  8
0
 10
0.0454961547999986
 20
-0.5525174317000037
 30
0.0
  0
VERTEX
  5
5E47
  8
0
 10
-0.0056357267999978
 20
-0.5532122409000027
 30
0.0
  0
VERTEX
  5
5E48
  8
0
 10
-0.0519198076000009
 20
-0.5534149827999997
 30
0.0
  0
SEQEND
  5
5E49
  8
0
  0
POLYLINE
  5
5533
  8
0
 66
     1
 10
0.0
 20
0.0
 30
0.0
  0
VERTEX
  5
5E4A
  8
0
 10
-0.0519198076000009
 20
-0.553414982700005
 30
0.0
  0
VERTEX
  5
5E4B
  8
0
 10
-0.0985952096999974
 20
-0.5532087993999966
 30
0.0
  0
VERTEX
  5
5E4C
  8
0
 10
-0.1497232538999995
 20
-0.552510280500002
 30
0.0
  0
VERTEX
  5
5E4D
  8
0
 10
-0.2009004302000008
 20
-0.5513163600000013
 30
0.0
  0
VERTEX
  5
5E4E
  8
0
 10
-0.2520749828
 20
-0.5496271696000008
 30
0.0
  0
VERTEX
  5
5E4F
  8
0
 10
-0.3032568263000002
 20
-0.5474421427000067
 30
0.0
  0
VERTEX
  5
5E50
  8
0
 10
-0.3545151454000006
 20
-0.5447565445000038
 30
0.0
  0
VERTEX
  5
5E51
  8
0
 10
-0.4058300135999994
 20
-0.5415683837000032
 30
0.0
  0
VERTEX
  5
5E52
  8
0
 10
-0.457181318
 20
-0.5378765883000014
 30
0.0
  0
VERTEX
  5
5E53
  8
0
 10
-0.5086361049999975
 20
-0.5336729106999985
 30
0.0
  0
VERTEX
  5
5E54
  8
0
 10
-0.5601729257999999
 20
-0.528954396099998
 30
0.0
  0
VERTEX
  5
5E55
  8
0
 10
-0.6117708035000007
 20
-0.523718985900004
 30
0.0
  0
VERTEX
  5
5E56
  8
0
 10
-0.6634948198999986
 20
-0.517955089600001
 30
0.0
  0
VERTEX
  5
5E57
  8
0
 10
-0.7153226997
 20
-0.5116589068999958
 30
0.0
  0
VERTEX
  5
5E58
  8
0
 10
-0.7672320831999997
 20
-0.5048274673999984
 30
0.0
  0
VERTEX
  5
5E59
  8
0
 10
-0.8192845094999974
 20
-0.4974459952000104
 30
0.0
  0
VERTEX
  5
5E5A
  8
0
 10
-0.8714558307000004
 20
-0.4895099510999971
 30
0.0
  0
VERTEX
  5
5E5B
  8
0
 10
-0.9237231530000007
 20
-0.4810156922000033
 30
0.0
  0
VERTEX
  5
5E5C
  8
0
 10
-0.9761461567999988
 20
-0.4719457768000055
 30
0.0
  0
VERTEX
  5
5E5D
  8
0
 10
-1.0287004417999981
 20
-0.4622955797999994
 30
0.0
  0
VERTEX
  5
5E5E
  8
0
 10
-1.0813619759999991
 20
-0.4520615702000086
 30
0.0
  0
VERTEX
  5
5E5F
  8
0
 10
-1.134186680399998
 20
-0.4412243664000073
 30
0.0
  0
VERTEX
  5
5E60
  8
0
 10
-1.1871453961
 20
-0.4297802980000043
 30
0.0
  0
VERTEX
  5
5E61
  8
0
 10
-1.240215294599998
 20
-0.4177249935000093
 30
0.0
  0
VERTEX
  5
5E62
  8
0
 10
-1.2934570253999971
 20
-0.4050342664999961
 30
0.0
  0
VERTEX
  5
5E63
  8
0
 10
-1.346835624399999
 20
-0.3917048626000081
 30
0.0
  0
VERTEX
  5
5E64
  8
0
 10
-1.4003302754000011
 20
-0.3777307510000085
 30
0.0
  0
VERTEX
  5
5E65
  8
0
 10
-1.4540170945999971
 20
-0.3630793522999979
 30
0.0
  0
VERTEX
  5
5E66
  8
0
 10
-1.5078645245999971
 20
-0.3477449959000083
 30
0.0
  0
VERTEX
  5
5E67
  8
0
 10
-1.5618427896999969
 20
-0.3317221332000031
 30
0.0
  0
VERTEX
  5
5E68
  8
0
 10
-1.616023794899998
 20
-0.3149737999000024
 30
0.0
  0
VERTEX
  5
5E69
  8
0
 10
-1.670373846899998
 20
-0.2974931146000017
 30
0.0
  0
VERTEX
  5
5E6A
  8
0
 10
-1.7248589832999981
 20
-0.2792740882999993
 30
0.0
  0
VERTEX
  5
5E6B
  8
0
 10
-1.779544570499999
 20
-0.2602767542000066
 30
0.0
  0
VERTEX
  5
5E6C
  8
0
 10
-1.834396621199998
 20
-0.2404934035999986
 30
0.0
  0
VERTEX
  5
5E6D
  8
0
 10
-1.8893788558
 20
-0.2199182760000085
 30
0.0
  0
VERTEX
  5
5E6E
  8
0
 10
-1.9445464986000001
 20
-0.1985109334000015
 30
0.0
  0
VERTEX
  5
5E6F
  8
0
 10
-1.9998622995999991
 20
-0.1762647621000042
 30
0.0
  0
VERTEX
  5
5E70
  8
0
 10
-2.0552879167999998
 20
-0.1531744131000039
 30
0.0
  0
VERTEX
  5
5E71
  8
0
 10
-2.110869811899998
 20
-0.129197661900001
 30
0.0
  0
VERTEX
  5
5E72
  8
0
 10
-2.1665684381000001
 20
-0.1043271870000026
 30
0.0
  0
VERTEX
  5
5E73
  8
0
 10
-2.2223414547999969
 20
-0.0785579022000036
 30
0.0
  0
VERTEX
  5
5E74
  8
0
 10
-2.2782239544999991
 20
-0.051847620300002
 30
0.0
  0
VERTEX
  5
5E75
  8
0
 10
-2.3341753433000001
 20
-0.0241882455000067
 30
0.0
  0
VERTEX
  5
5E76
  8
0
 10
-2.3901484512999991
 20
0.0044240434000002
 30
0.0
  0
VERTEX
  5
5E77
  8
0
 10
-2.4461619623999962
 20
0.0340281337999997
 30
0.0
  0
VERTEX
  5
5E78
  8
0
 10
-2.502193285900002
 20
0.064643454699997
 30
0.0
  0
VERTEX
  5
5E79
  8
0
 10
-2.5581726889999992
 20
0.0962625665999966
 30
0.0
  0
VERTEX
  5
5E7A
  8
0
 10
-2.6140475593999981
 20
0.1288845529999989
 30
0.0
  0
VERTEX
  5
5E7B
  8
0
 10
-2.6697914203000002
 20
0.1625218755999995
 30
0.0
  0
VERTEX
  5
5E7C
  8
0
 10
-2.725348698299999
 20
0.1971680951999985
 30
0.0
  0
VERTEX
  5
5E7D
  8
0
 10
-2.780627146299997
 20
0.2327916787999982
 30
0.0
  0
VERTEX
  5
5E7E
  8
0
 10
-2.835588897399997
 20
0.2693926498999914
 30
0.0
  0
VERTEX
  5
5E7F
  8
0
 10
-2.8901970046999992
 20
0.3069701235000011
 30
0.0
  0
VERTEX
  5
5E80
  8
0
 10
-2.9443663315999959
 20
0.3454887592999967
 30
0.0
  0
VERTEX
  5
5E81
  8
0
 10
-2.998047879999997
 20
0.3849351977000026
 30
0.0
  0
VERTEX
  5
5E82
  8
0
 10
-3.0512246896999962
 20
0.4253177518000017
 30
0.0
  0
VERTEX
  5
5E83
  8
0
 10
-3.1038627032999981
 20
0.4666331061999928
 30
0.0
  0
VERTEX
  5
5E84
  8
0
 10
-3.1558997091999981
 20
0.5088548097999919
 30
0.0
  0
VERTEX
  5
5E85
  8
0
 10
-3.2073353470999981
 20
0.5520042218999919
 30
0.0
  0
VERTEX
  5
5E86
  8
0
 10
-3.2582230024999981
 20
0.5961519983999966
 30
0.0
  0
VERTEX
  5
5E87
  8
0
 10
-3.3085251383000021
 20
0.6412943973999961
 30
0.0
  0
VERTEX
  5
5E88
  8
0
 10
-3.358210763399998
 20
0.6874314679999998
 30
0.0
  0
VERTEX
  5
5E89
  8
0
 10
-3.4073305576999982
 20
0.7346428990999954
 30
0.0
  0
VERTEX
  5
5E8A
  8
0
 10
-3.4558381964999989
 20
0.782923842599999
 30
0.0
  0
VERTEX
  5
5E8B
  8
0
 10
-3.5036959109999959
 20
0.8322763993999942
 30
0.0
  0
VERTEX
  5
5E8C
  8
0
 10
-3.5509503711999981
 20
0.8827940187999985
 30
0.0
  0
VERTEX
  5
5E8D
  8
0
 10
-3.597542833599999
 20
0.9344683112999943
 30
0.0
  0
VERTEX
  5
5E8E
  8
0
 10
-3.643429847399998
 20
0.9873069999999939
 30
0.0
  0
VERTEX
  5
5E8F
  8
0
 10
-3.6886616586999992
 20
1.041431537599997
 30
0.0
  0
VERTEX
  5
5E90
  8
0
 10
-3.7331793453999991
 20
1.0968443020999941
 30
0.0
  0
VERTEX
  5
5E91
  8
0
 10
-3.7769233046999982
 20
1.1535455333999991
 30
0.0
  0
VERTEX
  5
5E92
  8
0
 10
-3.8199238633999988
 20
1.2116569443999901
 30
0.0
  0
VERTEX
  5
5E93
  8
0
 10
-3.8621296069999982
 20
1.271203747399994
 30
0.0
  0
VERTEX
  5
5E94
  8
0
 10
-3.9034537900999999
 20
1.3321619399999971
 30
0.0
  0
VERTEX
  5
5E95
  8
0
 10
-3.943860049799996
 20
1.3945798083999961
 30
0.0
  0
VERTEX
  5
5E96
  8
0
 10
-3.9832844074999958
 20
1.458472485499996
 30
0.0
  0
VERTEX
  5
5E97
  8
0
 10
-4.0216390328999987
 20
1.523822804899992
 30
0.0
  0
VERTEX
  5
5E98
  8
0
 10
-4.0588473260000004
 20
1.5906291234999941
 30
0.0
  0
VERTEX
  5
5E99
  8
0
 10
-4.0948516540999993
 20
1.658927096999995
 30
0.0
  0
VERTEX
  5
5E9A
  8
0
 10
-4.1295524953999987
 20
1.728677442999994
 30
0.0
  0
VERTEX
  5
5E9B
  8
0
 10
-4.1628203256000003
 20
1.7997629257999961
 30
0.0
  0
VERTEX
  5
5E9C
  8
0
 10
-4.1946090191999987
 20
1.872229846299994
 30
0.0
  0
VERTEX
  5
5E9D
  8
0
 10
-4.2248260147999961
 20
1.9460217496999941
 30
0.0
  0
VERTEX
  5
5E9E
  8
0
 10
-4.253304843699997
 20
2.020861417899992
 30
0.0
  0
VERTEX
  5
5E9F
  8
0
 10
-4.2799987306
 20
2.0967412695999941
 30
0.0
  0
VERTEX
  5
5EA0
  8
0
 10
-4.3048534468999993
 20
2.173649667999995
 30
0.0
  0
VERTEX
  5
5EA1
  8
0
 10
-4.3277367466000003
 20
2.2512970873999958
 30
0.0
  0
VERTEX
  5
5EA2
  8
0
 10
-4.3486164114000001
 20
2.3296687011999921
 30
0.0
  0
VERTEX
  5
5EA3
  8
0
 10
-4.3674603096999984
 20
2.4087573306999981
 30
0.0
  0
VERTEX
  5
5EA4
  8
0
 10
-4.3841819243999982
 20
2.4882805132999959
 30
0.0
  0
VERTEX
  5
5EA5
  8
0
 10
-4.3987549012000002
 20
2.5681349186999962
 30
0.0
  0
VERTEX
  5
5EA6
  8
0
 10
-4.4094132884999979
 20
2.6360135222999959
 30
0.0
  0
SEQEND
  5
5EA7
  8
0
  0
POLYLINE
  5
5542
  8
0
 66
     1
 10
0.0
 20
0.0
 30
0.0
  0
VERTEX
  5
5EA8
  8
0
 10
4.8010058050999991
 20
3.2862486205999981
 30
0.0
  0
VERTEX
  5
5EA9
  8
0
 10
4.797050355299997
 20
3.346167333799996
 30
0.0
  0
VERTEX
  5
5EAA
  8
0
 10
4.7893829577000009
 20
3.4339501687999952
 30
0.0
  0
VERTEX
  5
5EAB
  8
0
 10
4.7795219006999972
 20
3.5213998012999981
 30
0.0
  0
VERTEX
  5
5EAC
  8
0
 10
4.7674811670999997
 20
3.6085011477999971
 30
0.0
  0
VERTEX
  5
5EAD
  8
0
 10
4.7532745448999982
 20
3.6952393980999911
 30
0.0
  0
VERTEX
  5
5EAE
  8
0
 10
4.7369433186999981
 20
3.7814424871999961
 30
0.0
  0
VERTEX
  5
5EAF
  8
0
 10
4.718506259299998
 20
3.867096138199996
 30
0.0
  0
VERTEX
  5
5EB0
  8
0
 10
4.6979826694
 20
3.9521848350999971
 30
0.0
  0
VERTEX
  5
5EB1
  8
0
 10
4.6754337372999988
 20
4.0365355744999931
 30
0.0
  0
VERTEX
  5
5EB2
  8
0
 10
4.6508875802000009
 20
4.1201302511999938
 30
0.0
  0
VERTEX
  5
5EB3
  8
0
 10
4.624370342399998
 20
4.2029599444999928
 30
0.0
  0
VERTEX
  5
5EB4
  8
0
 10
4.5959610098000034
 20
4.2848668762999989
 30
0.0
  0
VERTEX
  5
5EB5
  8
0
 10
4.565702341999998
 20
4.365825013699995
 30
0.0
  0
VERTEX
  5
5EB6
  8
0
 10
4.5336280658000012
 20
4.4458355548999924
 30
0.0
  0
VERTEX
  5
5EB7
  8
0
 10
4.4998213646999989
 20
4.5247834826000002
 30
0.0
  0
VERTEX
  5
5EB8
  8
0
 10
4.464327710400001
 20
4.6026544909
 30
0.0
  0
VERTEX
  5
5EB9
  8
0
 10
4.4271888636999988
 20
4.6794444701
 30
0.0
  0
VERTEX
  5
5EBA
  8
0
 10
4.3884938623999989
 20
4.7550558917999961
 30
0.0
  0
VERTEX
  5
5EBB
  8
0
 10
4.3482904906000002
 20
4.829472658599995
 30
0.0
  0
VERTEX
  5
5EBC
  8
0
 10
4.3066187680999999
 20
4.9026942712999979
 30
0.0
  0
VERTEX
  5
5EBD
  8
0
 10
4.2635635521999991
 20
4.9746474780000014
 30
0.0
  0
VERTEX
  5
5EBE
  8
0
 10
4.2191765529999987
 20
5.045319910199999
 30
0.0
  0
VERTEX
  5
5EBF
  8
0
 10
4.1735042571000012
 20
5.1147095941999989
 30
0.0
  0
VERTEX
  5
5EC0
  8
0
 10
4.1266325932000001
 20
5.1827601931999947
 30
0.0
  0
VERTEX
  5
5EC1
  8
0
 10
4.078619048900002
 20
5.2494612348999947
 30
0.0
  0
VERTEX
  5
5EC2
  8
0
 10
4.0295138627999982
 20
5.3148141651999961
 30
0.0
  0
VERTEX
  5
5EC3
  8
0
 10
3.9793989208999991
 20
5.3787826326000001
 30
0.0
  0
VERTEX
  5
5EC4
  8
0
 10
3.928347718399996
 20
5.441344883899994
 30
0.0
  0
VERTEX
  5
5EC5
  8
0
 10
3.8764033963000011
 20
5.5025183533999993
 30
0.0
  0
VERTEX
  5
5EC6
  8
0
 10
3.8236035400000001
 20
5.5623263863999952
 30
0.0
  0
VERTEX
  5
5EC7
  8
0
 10
3.770008424999999
 20
5.6207634159999937
 30
0.0
  0
VERTEX
  5
5EC8
  8
0
 10
3.7156700232999991
 20
5.6778333977999988
 30
0.0
  0
VERTEX
  5
5EC9
  8
0
 10
3.660608582999997
 20
5.7335737776000002
 30
0.0
  0
VERTEX
  5
5ECA
  8
0
 10
3.6048736181000001
 20
5.7879876279999962
 30
0.0
  0
VERTEX
  5
5ECB
  8
0
 10
3.548520581099996
 20
5.841071569199995
 30
0.0
  0
VERTEX
  5
5ECC
  8
0
 10
3.4915737941999989
 20
5.8928531346999957
 30
0.0
  0
VERTEX
  5
5ECD
  8
0
 10
3.4340681858000002
 20
5.9433469880999947
 30
0.0
  0
VERTEX
  5
5ECE
  8
0
 10
3.376070748300001
 20
5.9925387612999961
 30
0.0
  0
VERTEX
  5
5ECF
  8
0
 10
3.3176543093999982
 20
6.0404138992999901
 30
0.0
  0
VERTEX
  5
5ED0
  8
0
 10
3.2588725520999962
 20
6.086976759099997
 30
0.0
  0
VERTEX
  5
5ED1
  8
0
 10
3.199783751799997
 20
6.1322295005999958
 30
0.0
  0
VERTEX
  5
5ED2
  8
0
 10
3.140472299699999
 20
6.1761577525999982
 30
0.0
  0
VERTEX
  5
5ED3
  8
0
 10
3.0810329735999979
 20
6.2187431504999964
 30
0.0
  0
VERTEX
  5
5ED4
  8
0
 10
3.0214911873000001
 20
6.2600177921999931
 30
0.0
  0
VERTEX
  5
5ED5
  8
0
 10
2.9618247434999989
 20
6.3000441180999971
 30
0.0
  0
VERTEX
  5
5ED6
  8
0
 10
2.9021128638999998
 20
6.3388138451999918
 30
0.0
  0
VERTEX
  5
5ED7
  8
0
 10
2.8423877598999989
 20
6.3763496105000002
 30
0.0
  0
VERTEX
  5
5ED8
  8
0
 10
2.7825430671000002
 20
6.4127569184999933
 30
0.0
  0
VERTEX
  5
5ED9
  8
0
 10
2.722620542
 20
6.4480444971999926
 30
0.0
  0
VERTEX
  5
5EDA
  8
0
 10
2.6626737620999981
 20
6.482214563599995
 30
0.0
  0
VERTEX
  5
5EDB
  8
0
 10
2.6025970684999979
 20
6.5153577391999971
 30
0.0
  0
VERTEX
  5
5EDC
  8
0
 10
2.5424046560999991
 20
6.5474923050999987
 30
0.0
  0
VERTEX
  5
5EDD
  8
0
 10
2.482164728599999
 20
6.5786079813999958
 30
0.0
  0
VERTEX
  5
5EDE
  8
0
 10
2.4218405835999999
 20
6.608749156799993
 30
0.0
  0
VERTEX
  5
5EDF
  8
0
 10
2.3614630920999979
 20
6.6379241748999931
 30
0.0
  0
VERTEX
  5
5EE0
  8
0
 10
2.301080391399998
 20
6.6661334705000002
 30
0.0
  0
VERTEX
  5
5EE1
  8
0
 10
2.2406747477
 20
6.6934083267999949
 30
0.0
  0
VERTEX
  5
5EE2
  8
0
 10
2.180285081800001
 20
6.7197534968999957
 30
0.0
  0
VERTEX
  5
5EE3
  8
0
 10
2.119950273699998
 20
6.7451750524999952
 30
0.0
  0
VERTEX
  5
5EE4
  8
0
 10
2.059646402299999
 20
6.7697051759999951
 30
0.0
  0
VERTEX
  5
5EE5
  8
0
 10
1.9994172419
 20
6.7933473088000014
 30
0.0
  0
VERTEX
  5
5EE6
  8
0
 10
1.939294156599999
 20
6.816110567299992
 30
0.0
  0
VERTEX
  5
5EE7
  8
0
 10
1.8792275459000001
 20
6.8380335207999963
 30
0.0
  0
VERTEX
  5
5EE8
  8
0
 10
1.8192541897000001
 20
6.8591211068999982
 30
0.0
  0
VERTEX
  5
5EE9
  8
0
 10
1.7594065602999991
 20
6.8793802878999983
 30
0.0
  0
VERTEX
  5
5EEA
  8
0
 10
1.6996206917999981
 20
6.8988493520999921
 30
0.0
  0
VERTEX
  5
5EEB
  8
0
 10
1.6399274398000001
 20
6.917533309999996
 30
0.0
  0
VERTEX
  5
5EEC
  8
0
 10
1.580359357600001
 20
6.9354373339999986
 30
0.0
  0
VERTEX
  5
5EED
  8
0
 10
1.520847145699999
 20
6.9525960051999931
 30
0.0
  0
VERTEX
  5
5EEE
  8
0
 10
1.461415928400001
 20
6.9690142736999956
 30
0.0
  0
VERTEX
  5
5EEF
  8
0
 10
1.402099793200001
 20
6.9846957110999952
 30
0.0
  0
VERTEX
  5
5EF0
  8
0
 10
1.342835605200001
 20
6.9996687409999918
 30
0.0
  0
VERTEX
  5
5EF1
  8
0
 10
1.2836446101000001
 20
7.0139383962999968
 30
0.0
  0
VERTEX
  5
5EF2
  8
0
 10
1.224562114
 20
7.0275081539999951
 30
0.0
  0
VERTEX
  5
5EF3
  8
0
 10
1.1655399608000001
 20
7.0404003340999921
 30
0.0
  0
VERTEX
  5
5EF4
  8
0
 10
1.1066040181000001
 20
7.0526192605999949
 30
0.0
  0
VERTEX
  5
5EF5
  8
0
 10
1.047781894599999
 20
7.0641694216999991
 30
0.0
  0
VERTEX
  5
5EF6
  8
0
 10
0.9890230051000015
 20
7.0750697512999992
 30
0.0
  0
VERTEX
  5
5EF7
  8
0
 10
0.9303518304000027
 20
7.085323672999996
 30
0.0
  0
VERTEX
  5
5EF8
  8
0
 10
0.8717948098000006
 20
7.0949356710999947
 30
0.0
  0
VERTEX
  5
5EF9
  8
0
 10
0.8132998059000016
 20
7.1039223996999947
 30
0.0
  0
VERTEX
  5
5EFA
  8
0
 10
0.7548914828000016
 20
7.1122871106999952
 30
0.0
  0
VERTEX
  5
5EFB
  8
0
 10
0.6965938782000019
 20
7.1200345952999982
 30
0.0
  0
VERTEX
  5
5EFC
  8
0
 10
0.6383500001000009
 20
7.1271795961999933
 30
0.0
  0
VERTEX
  5
5EFD
  8
0
 10
0.5801836167000012
 20
7.1337250233999949
 30
0.0
  0
VERTEX
  5
5EFE
  8
0
 10
0.5221163476000008
 20
7.1396743248999908
 30
0.0
  0
VERTEX
  5
5EFF
  8
0
 10
0.4640847527
 20
7.1450384495999932
 30
0.0
  0
VERTEX
  5
5F00
  8
0
 10
0.4061102940000012
 20
7.1498188801999927
 30
0.0
  0
VERTEX
  5
5F01
  8
0
 10
0.3482158435000002
 20
7.1540189223999899
 30
0.0
  0
VERTEX
  5
5F02
  8
0
 10
0.2903375247999982
 20
7.157647359799995
 30
0.0
  0
VERTEX
  5
5F03
  8
0
 10
0.2324971857999998
 20
7.1607056941999971
 30
0.0
  0
VERTEX
  5
5F04
  8
0
 10
0.1747147708999996
 20
7.1631964120999987
 30
0.0
  0
VERTEX
  5
5F05
  8
0
 10
0.1169218653000001
 20
7.1651246953999941
 30
0.0
  0
VERTEX
  5
5F06
  8
0
 10
0.0591090745999985
 20
7.1664912938000001
 30
0.0
  0
VERTEX
  5
5F07
  8
0
 10
0.0013286195999989
 20
7.1672956751000001
 30
0.0
  0
VERTEX
  5
5F08
  8
0
 10
-0.0519021994000006
 20
7.1675397302999979
 30
0.0
  0
SEQEND
  5
5F09
  8
0
  0
LINE
  5
5546
  8
0
 10
5.2172159717000017
 20
-3.8874720483000029
 30
0.0
 11
5.1376450462000003
 21
-2.5227555818999989
 31
0.0
  0
LINE
  5
5548
  8
0
 10
5.1376450462000003
 20
-2.5227555818999989
 30
0.0
 11
5.030492203399997
 21
-0.6804206939000042
 31
0.0
  0
LINE
  5
5549
  8
0
 10
5.030492203399997
 20
-0.6804206939000042
 30
0.0
 11
4.9350498311999988
 21
0.9653148514999896
 31
0.0
  0
LINE
  5
554A
  8
0
 10
4.9350498311999988
 20
0.9653148514999896
 30
0.0
 11
4.8491757982999992
 21
2.450669489899993
 31
0.0
  0
LINE
  5
554B
  8
0
 10
4.8491757982999992
 20
2.450669489899993
 30
0.0
 11
4.8009597085000006
 21
3.287043792899992
 31
0.0
  0
POLYLINE
  5
557A
  8
0
 66
     1
 10
0.0
 20
0.0
 30
0.0
  0
VERTEX
  5
5F0A
  8
0
 10
-0.0519198074999991
 20
6.8897509732
 30
0.0
  0
VERTEX
  5
5F0B
  8
0
 10
-0.1022511950999991
 20
6.889490316399991
 30
0.0
  0
VERTEX
  5
5F0C
  8
0
 10
-0.1527723892999973
 20
6.8887034727999961
 30
0.0
  0
VERTEX
  5
5F0D
  8
0
 10
-0.2034765266999976
 20
6.887385259599994
 30
0.0
  0
VERTEX
  5
5F0E
  8
0
 10
-0.2543561444999973
 20
6.8855306702999979
 30
0.0
  0
VERTEX
  5
5F0F
  8
0
 10
-0.3054045077999987
 20
6.8831343479999969
 30
0.0
  0
VERTEX
  5
5F10
  8
0
 10
-0.3566156033999981
 20
6.8801905424999941
 30
0.0
  0
VERTEX
  5
5F11
  8
0
 10
-0.4079838956999994
 20
6.8766937738999934
 30
0.0
  0
VERTEX
  5
5F12
  8
0
 10
-0.4594997435000005
 20
6.8726390232000014
 30
0.0
  0
VERTEX
  5
5F13
  8
0
 10
-0.5111507386999996
 20
6.8680213269999921
 30
0.0
  0
VERTEX
  5
5F14
  8
0
 10
-0.5629303732999987
 20
6.8628353178999921
 30
0.0
  0
VERTEX
  5
5F15
  8
0
 10
-0.6148290199000002
 20
6.8570761458999954
 30
0.0
  0
VERTEX
  5
5F16
  8
0
 10
-0.666829399000001
 20
6.8507400340999922
 30
0.0
  0
VERTEX
  5
5F17
  8
0
 10
-0.7189127980000019
 20
6.8438234555999937
 30
0.0
  0
VERTEX
  5
5F18
  8
0
 10
-0.7710809440999995
 20
6.8363205116999932
 30
0.0
  0
VERTEX
  5
5F19
  8
0
 10
-0.8233468931000016
 20
6.8282234728999986
 30
0.0
  0
VERTEX
  5
5F1A
  8
0
 10
-0.8756764554999991
 20
6.819530875499999
 30
0.0
  0
VERTEX
  5
5F1B
  8
0
 10
-0.9280856439000011
 20
6.8102337470999981
 30
0.0
  0
VERTEX
  5
5F1C
  8
0
 10
-0.9806618257000003
 20
6.8003099035999952
 30
0.0
  0
VERTEX
  5
5F1D
  8
0
 10
-1.0333984058999981
 20
6.7897515903999928
 30
0.0
  0
VERTEX
  5
5F1E
  8
0
 10
-1.086281472099996
 20
6.7785520910999963
 30
0.0
  0
VERTEX
  5
5F1F
  8
0
 10
-1.1393857059999981
 20
6.7666858026999961
 30
0.0
  0
VERTEX
  5
5F20
  8
0
 10
-1.1927152384999991
 20
6.754139171699995
 30
0.0
  0
VERTEX
  5
5F21
  8
0
 10
-1.246241887900001
 20
6.7409058083999991
 30
0.0
  0
VERTEX
  5
5F22
  8
0
 10
-1.2999901596999981
 20
6.7269669873999964
 30
0.0
  0
VERTEX
  5
5F23
  8
0
 10
-1.3539529684
 20
6.7123099762999967
 30
0.0
  0
VERTEX
  5
5F24
  8
0
 10
-1.408110158899996
 20
6.6969254665999909
 30
0.0
  0
VERTEX
  5
5F25
  8
0
 10
-1.4624653641999981
 20
6.6807981039999964
 30
0.0
  0
VERTEX
  5
5F26
  8
0
 10
-1.516991924599999
 20
6.6639200181999954
 30
0.0
  0
VERTEX
  5
5F27
  8
0
 10
-1.5716861978000001
 20
6.6462763495999919
 30
0.0
  0
VERTEX
  5
5F28
  8
0
 10
-1.6265846364999981
 20
6.6278389205999968
 30
0.0
  0
VERTEX
  5
5F29
  8
0
 10
-1.681663944699997
 20
6.6085961257999983
 30
0.0
  0
VERTEX
  5
5F2A
  8
0
 10
-1.7369123629000001
 20
6.5885332664999989
 30
0.0
  0
VERTEX
  5
5F2B
  8
0
 10
-1.792381012299997
 20
6.5676136709999948
 30
0.0
  0
VERTEX
  5
5F2C
  8
0
 10
-1.848057590199998
 20
6.545820619099997
 30
0.0
  0
VERTEX
  5
5F2D
  8
0
 10
-1.903914608899999
 20
6.5231428004999961
 30
0.0
  0
VERTEX
  5
5F2E
  8
0
 10
-1.959977816599997
 20
6.4995486874999937
 30
0.0
  0
VERTEX
  5
5F2F
  8
0
 10
-2.0162302229000022
 20
6.4750207876999948
 30
0.0
  0
VERTEX
  5
5F30
  8
0
 10
-2.0726429632999999
 20
6.4495461723999901
 30
0.0
  0
VERTEX
  5
5F31
  8
0
 10
-2.1292212428999981
 20
6.423097580799995
 30
0.0
  0
VERTEX
  5
5F32
  8
0
 10
-2.1859373322999951
 20
6.3956601392999968
 30
0.0
  0
VERTEX
  5
5F33
  8
0
 10
-2.242766856999999
 20
6.3672170875999949
 30
0.0
  0
VERTEX
  5
5F34
  8
0
 10
-2.2997171775999981
 20
6.3377361326999928
 30
0.0
  0
VERTEX
  5
5F35
  8
0
 10
-2.3567572384999971
 20
6.3072010337999984
 30
0.0
  0
VERTEX
  5
5F36
  8
0
 10
-2.4138584660999971
 20
6.2755946430999909
 30
0.0
  0
VERTEX
  5
5F37
  8
0
 10
-2.471028390899999
 20
6.242880680899999
 30
0.0
  0
VERTEX
  5
5F38
  8
0
 10
-2.5282326782000002
 20
6.2090415102999961
 30
0.0
  0
VERTEX
  5
5F39
  8
0
 10
-2.5854382879000002
 20
6.174060786199993
 30
0.0
  0
VERTEX
  5
5F3A
  8
0
 10
-2.642650897399998
 20
6.1379018214999927
 30
0.0
  0
VERTEX
  5
5F3B
  8
0
 10
-2.699837789499997
 20
6.1005464463999939
 30
0.0
  0
VERTEX
  5
5F3C
  8
0
 10
-2.7569571365999961
 20
6.0619807689999927
 30
0.0
  0
VERTEX
  5
5F3D
  8
0
 10
-2.8139967808000002
 20
6.0221723625999939
 30
0.0
  0
VERTEX
  5
5F3E
  8
0
 10
-2.8709241136000001
 20
5.9810986847999938
 30
0.0
  0
VERTEX
  5
5F3F
  8
0
 10
-2.9276871752999991
 20
5.9387503888999964
 30
0.0
  0
VERTEX
  5
5F40
  8
0
 10
-2.984241700999998
 20
5.8951143854000003
 30
0.0
  0
VERTEX
  5
5F41
  8
0
 10
-3.0405377047999971
 20
5.8501789973999934
 30
0.0
  0
VERTEX
  5
5F42
  8
0
 10
-3.0965324635
 20
5.8039273680999983
 30
0.0
  0
VERTEX
  5
5F43
  8
0
 10
-3.1521898006999991
 20
5.7563388334999939
 30
0.0
  0
VERTEX
  5
5F44
  8
0
 10
-3.2074535645999962
 20
5.7074051676000011
 30
0.0
  0
VERTEX
  5
5F45
  8
0
 10
-3.2622799518000001
 20
5.657110989099996
 30
0.0
  0
VERTEX
  5
5F46
  8
0
 10
-3.316646900699999
 20
5.605424079199997
 30
0.0
  0
VERTEX
  5
5F47
  8
0
 10
-3.3705183923999962
 20
5.5523179595999963
 30
0.0
  0
VERTEX
  5
5F48
  8
0
 10
-3.4238211820000002
 20
5.4978003850999979
 30
0.0
  0
VERTEX
  5
5F49
  8
0
 10
-3.4764750274999958
 20
5.4418916210999981
 30
0.0
  0
VERTEX
  5
5F4A
  8
0
 10
-3.5284228337999961
 20
5.3845864640999963
 30
0.0
  0
VERTEX
  5
5F4B
  8
0
 10
-3.5796070388999981
 20
5.325879893399998
 30
0.0
  0
VERTEX
  5
5F4C
  8
0
 10
-3.6299476352000002
 20
5.265796017299996
 30
0.0
  0
VERTEX
  5
5F4D
  8
0
 10
-3.6793762841999991
 20
5.2043434158999968
 30
0.0
  0
VERTEX
  5
5F4E
  8
0
 10
-3.7278411207999991
 20
5.1415116322999932
 30
0.0
  0
VERTEX
  5
5F4F
  8
0
 10
-3.7752882456000001
 20
5.0772998674999954
 30
0.0
  0
VERTEX
  5
5F50
  8
0
 10
-3.8216734795999989
 20
5.0116915736999967
 30
0.0
  0
VERTEX
  5
5F51
  8
0
 10
-3.8669204276000002
 20
4.9447131515999967
 30
0.0
  0
VERTEX
  5
5F52
  8
0
 10
-3.9109310243999982
 20
4.8764332111000002
 30
0.0
  0
VERTEX
  5
5F53
  8
0
 10
-3.9536462433999988
 20
4.8068622280999929
 30
0.0
  0
VERTEX
  5
5F54
  8
0
 10
-3.9950059331999981
 20
4.7360118613999926
 30
0.0
  0
VERTEX
  5
5F55
  8
0
 10
-4.0349168348999971
 20
4.6639580327999948
 30
0.0
  0
VERTEX
  5
5F56
  8
0
 10
-4.0733178668999983
 20
4.5907212184999917
 30
0.0
  0
VERTEX
  5
5F57
  8
0
 10
-4.1101525437999991
 20
4.516314257299995
 30
0.0
  0
VERTEX
  5
5F58
  8
0
 10
-4.1453418270999993
 20
4.4408067140999901
 30
0.0
  0
VERTEX
  5
5F59
  8
0
 10
-4.1788388703999981
 20
4.3642109711000003
 30
0.0
  0
VERTEX
  5
5F5A
  8
0
 10
-4.2105873099999958
 20
4.2865625115999961
 30
0.0
  0
VERTEX
  5
5F5B
  8
0
 10
-4.2405065761999987
 20
4.2079717491999968
 30
0.0
  0
VERTEX
  5
5F5C
  8
0
 10
-4.2685534901000004
 20
4.1284579965999981
 30
0.0
  0
VERTEX
  5
5F5D
  8
0
 10
-4.2946771956000003
 20
4.0480610447999918
 30
0.0
  0
VERTEX
  5
5F5E
  8
0
 10
-4.3187992480999986
 20
3.9669271482999928
 30
0.0
  0
VERTEX
  5
5F5F
  8
0
 10
-4.3408771228000003
 20
3.885100834999994
 30
0.0
  0
VERTEX
  5
5F60
  8
0
 10
-4.360874180999998
 20
3.8026067179999989
 30
0.0
  0
VERTEX
  5
5F61
  8
0
 10
-4.3787371199999967
 20
3.7195655105999981
 30
0.0
  0
VERTEX
  5
5F62
  8
0
 10
-4.3944413166999983
 20
3.636008038199996
 30
0.0
  0
VERTEX
  5
5F63
  8
0
 10
-4.4079597092999983
 20
3.5519820395999981
 30
0.0
  0
VERTEX
  5
5F64
  8
0
 10
-4.4192551991999984
 20
3.467637153799997
 30
0.0
  0
VERTEX
  5
5F65
  8
0
 10
-4.4283117712999971
 20
3.3830025865999911
 30
0.0
  0
VERTEX
  5
5F66
  8
0
 10
-4.4351103590000003
 20
3.298132770599997
 30
0.0
  0
VERTEX
  5
5F67
  8
0
 10
-4.4396287879000003
 20
3.213216836599996
 30
0.0
  0
VERTEX
  5
5F68
  8
0
 10
-4.4418606687999969
 20
3.1283281978999962
 30
0.0
  0
VERTEX
  5
5F69
  8
0
 10
-4.4418022277000002
 20
3.043479036799992
 30
0.0
  0
VERTEX
  5
5F6A
  8
0
 10
-4.4394555623999992
 20
2.9587663882999991
 30
0.0
  0
VERTEX
  5
5F6B
  8
0
 10
-4.434827306799999
 20
2.8742037060999959
 30
0.0
  0
VERTEX
  5
5F6C
  8
0
 10
-4.4279265471999967
 20
2.7898607753999922
 30
0.0
  0
VERTEX
  5
5F6D
  8
0
 10
-4.4187790689999993
 20
2.705917429399995
 30
0.0
  0
VERTEX
  5
5F6E
  8
0
 10
-4.409419645699999
 20
2.636062254899997
 30
0.0
  0
SEQEND
  5
5F6F
  8
0
  0
LINE
  5
557B
  8
___COSMETIC_SKETCH
 10
0.448080192500001
 20
6.154726914499995
 30
0.0
 11
-0.5519198074999993
 21
6.154726914499995
 31
0.0
  0
LINE
  5
557C
  8
___COSMETIC_SKETCH
 10
-0.5519198074999993
 20
6.3047269144999927
 30
0.0
 11
0.448080192500001
 21
6.3047269144999927
 31
0.0
  0
POLYLINE
  5
5580
  8
0
 66
     1
 10
0.0
 20
0.0
 30
0.0
  0
VERTEX
  5
5F70
  8
0
 10
-0.0519021992000006
 20
7.1675397336999964
 30
0.0
  0
VERTEX
  5
5F71
  8
0
 10
-0.1047700833
 20
7.1672992754999987
 30
0.0
  0
VERTEX
  5
5F72
  8
0
 10
-0.1625547286999982
 20
7.1664986907999957
 30
0.0
  0
VERTEX
  5
5F73
  8
0
 10
-0.2203717967999985
 20
7.1651358077999969
 30
0.0
  0
VERTEX
  5
5F74
  8
0
 10
-0.2781690618999981
 20
7.1632111563
 30
0.0
  0
VERTEX
  5
5F75
  8
0
 10
-0.3359559024999967
 20
7.1607239892999939
 30
0.0
  0
VERTEX
  5
5F76
  8
0
 10
-0.3938007086999988
 20
7.1576691333999971
 30
0.0
  0
VERTEX
  5
5F77
  8
0
 10
-0.4516835378000012
 20
7.1540441020999932
 30
0.0
  0
VERTEX
  5
5F78
  8
0
 10
-0.5095825372000001
 20
7.149847390899998
 30
0.0
  0
VERTEX
  5
5F79
  8
0
 10
-0.5675615516000008
 20
7.1450702218999993
 30
0.0
  0
VERTEX
  5
5F7A
  8
0
 10
-0.6255977016000003
 20
7.1397092861999951
 30
0.0
  0
VERTEX
  5
5F7B
  8
0
 10
-0.683669520399999
 20
7.1337631003999951
 30
0.0
  0
VERTEX
  5
5F7C
  8
0
 10
-0.7418404227000011
 20
7.1272207251999964
 30
0.0
  0
VERTEX
  5
5F7D
  8
0
 10
-0.8000887753000006
 20
7.1200787155999929
 30
0.0
  0
VERTEX
  5
5F7E
  8
0
 10
-0.8583908166999981
 20
7.1123341637999991
 30
0.0
  0
VERTEX
  5
5F7F
  8
0
 10
-0.9168035432000004
 20
7.1039723337999927
 30
0.0
  0
VERTEX
  5
5F80
  8
0
 10
-0.9753029105999999
 20
7.0949884366999987
 30
0.0
  0
VERTEX
  5
5F81
  8
0
 10
-1.033864256299998
 20
7.0853792188999929
 30
0.0
  0
VERTEX
  5
5F82
  8
0
 10
-1.0925397359999991
 20
7.0751280260999962
 30
0.0
  0
VERTEX
  5
5F83
  8
0
 10
-1.151302905299999
 20
7.0642303727999964
 30
0.0
  0
VERTEX
  5
5F84
  8
0
 10
-1.210129279299998
 20
7.0526828370999919
 30
0.0
  0
VERTEX
  5
5F85
  8
0
 10
-1.269069461899998
 20
7.040466487499998
 30
0.0
  0
VERTEX
  5
5F86
  8
0
 10
-1.328095839899996
 20
7.0275768375999998
 30
0.0
  0
VERTEX
  5
5F87
  8
0
 10
-1.3871825452000011
 20
7.0140095630999948
 30
0.0
  0
VERTEX
  5
5F88
  8
0
 10
-1.446377757999999
 20
6.9997423419999958
 30
0.0
  0
VERTEX
  5
5F89
  8
0
 10
-1.5056461677999999
 20
6.9847716957999992
 30
0.0
  0
VERTEX
  5
5F8A
  8
0
 10
-1.5649665245999991
 20
6.9690925904999972
 30
0.0
  0
VERTEX
  5
5F8B
  8
0
 10
-1.6244019857999981
 20
6.9526765987999948
 30
0.0
  0
VERTEX
  5
5F8C
  8
0
 10
-1.6839184604999979
 20
6.9355201463999929
 30
0.0
  0
VERTEX
  5
5F8D
  8
0
 10
-1.7434908171999961
 20
6.9176182839999987
 30
0.0
  0
VERTEX
  5
5F8E
  8
0
 10
-1.803188371099999
 20
6.8989364301
 30
0.0
  0
VERTEX
  5
5F8F
  8
0
 10
-1.862978565199997
 20
6.8794694116999988
 30
0.0
  0
VERTEX
  5
5F90
  8
0
 10
-1.9228305401999981
 20
6.8592122183999962
 30
0.0
  0
VERTEX
  5
5F91
  8
0
 10
-1.982808277299998
 20
6.8381265609999939
 30
0.0
  0
VERTEX
  5
5F92
  8
0
 10
-2.0428793178000002
 20
6.8162054698999901
 30
0.0
  0
VERTEX
  5
5F93
  8
0
 10
-2.103006860099998
 20
6.7934440132999949
 30
0.0
  0
VERTEX
  5
5F94
  8
0
 10
-2.1632404666999991
 20
6.7698036398999957
 30
0.0
  0
VERTEX
  5
5F95
  8
0
 10
-2.2235488069999949
 20
6.7452752188999971
 30
0.0
  0
VERTEX
  5
5F96
  8
0
 10
-2.2838880672999959
 20
6.7198553223999919
 30
0.0
  0
VERTEX
  5
5F97
  8
0
 10
-2.3442820292999991
 20
6.6935118318999951
 30
0.0
  0
VERTEX
  5
5F98
  8
0
 10
-2.4046918210000001
 20
6.6662386770999964
 30
0.0
  0
VERTEX
  5
5F99
  8
0
 10
-2.465078520999997
 20
6.6380311101
 30
0.0
  0
VERTEX
  5
5F9A
  8
0
 10
-2.5254597229999991
 20
6.6088579256999989
 30
0.0
  0
VERTEX
  5
5F9B
  8
0
 10
-2.5857872875000001
 20
6.578718701299997
 30
0.0
  0
VERTEX
  5
5F9C
  8
0
 10
-2.6460303688
 20
6.5476050947999971
 30
0.0
  0
VERTEX
  5
5F9D
  8
0
 10
-2.7062255811999969
 20
6.5154727837999991
 30
0.0
  0
VERTEX
  5
5F9E
  8
0
 10
-2.7663046652999999
 20
6.482332096999996
 30
0.0
  0
VERTEX
  5
5F9F
  8
0
 10
-2.8262535211999982
 20
6.4481647223999934
 30
0.0
  0
VERTEX
  5
5FA0
  8
0
 10
-2.886177944599996
 20
6.4128799858999983
 30
0.0
  0
VERTEX
  5
5FA1
  8
0
 10
-2.9460243425999999
 20
6.3764756911999907
 30
0.0
  0
VERTEX
  5
5FA2
  8
0
 10
-3.0057509996999969
 20
6.3389430980000014
 30
0.0
  0
VERTEX
  5
5FA3
  8
0
 10
-3.0654644824999959
 20
6.3001765941999963
 30
0.0
  0
VERTEX
  5
5FA4
  8
0
 10
-3.1251325357000002
 20
6.2601535758999969
 30
0.0
  0
VERTEX
  5
5FA5
  8
0
 10
-3.1846759878000022
 20
6.2188822917999911
 30
0.0
  0
VERTEX
  5
5FA6
  8
0
 10
-3.2441173496999962
 20
6.176300084599994
 30
0.0
  0
VERTEX
  5
5FA7
  8
0
 10
-3.303431226599999
 20
6.1323748257999986
 30
0.0
  0
VERTEX
  5
5FA8
  8
0
 10
-3.3625227846999999
 20
6.0871248936999924
 30
0.0
  0
VERTEX
  5
5FA9
  8
0
 10
-3.4213078013999998
 20
6.0405645008999951
 30
0.0
  0
VERTEX
  5
5FAA
  8
0
 10
-3.4797279986999992
 20
5.9926914524999972
 30
0.0
  0
VERTEX
  5
5FAB
  8
0
 10
-3.5377296315999991
 20
5.9435014029999991
 30
0.0
  0
VERTEX
  5
5FAC
  8
0
 10
-3.5952399289999981
 20
5.8930088167999983
 30
0.0
  0
VERTEX
  5
5FAD
  8
0
 10
-3.6521919166999992
 20
5.8412279955999917
 30
0.0
  0
VERTEX
  5
5FAE
  8
0
 10
-3.7085505615999992
 20
5.7881443184999952
 30
0.0
  0
VERTEX
  5
5FAF
  8
0
 10
-3.7642914203000002
 20
5.7337303334999969
 30
0.0
  0
VERTEX
  5
5FB0
  8
0
 10
-3.8193590265999982
 20
5.6779894029999971
 30
0.0
  0
VERTEX
  5
5FB1
  8
0
 10
-3.8737038197999989
 20
5.620918458699995
 30
0.0
  0
VERTEX
  5
5FB2
  8
0
 10
-3.9273054082000001
 20
5.5624801833999982
 30
0.0
  0
VERTEX
  5
5FB3
  8
0
 10
-3.9801117993999982
 20
5.5026706274999952
 30
0.0
  0
VERTEX
  5
5FB4
  8
0
 10
-4.0320627003
 20
5.4414953464999982
 30
0.0
  0
VERTEX
  5
5FB5
  8
0
 10
-4.0831204128999987
 20
5.378931110199999
 30
0.0
  0
VERTEX
  5
5FB6
  8
0
 10
-4.1332417577999987
 20
5.3149605253000001
 30
0.0
  0
VERTEX
  5
5FB7
  8
0
 10
-4.1823532582999992
 20
5.2496053022999956
 30
0.0
  0
VERTEX
  5
5FB8
  8
0
 10
-4.2303730190999991
 20
5.1829017943999931
 30
0.0
  0
VERTEX
  5
5FB9
  8
0
 10
-4.2772507869999981
 20
5.1148485761999964
 30
0.0
  0
VERTEX
  5
5FBA
  8
0
 10
-4.3229290749999958
 20
5.0454561034999932
 30
0.0
  0
VERTEX
  5
5FBB
  8
0
 10
-4.3673219697999981
 20
4.9747806637999972
 30
0.0
  0
VERTEX
  5
5FBC
  8
0
 10
-4.4103829773999959
 20
4.9028242242999971
 30
0.0
  0
VERTEX
  5
5FBD
  8
0
 10
-4.4520603649999959
 20
4.8295991597999972
 30
0.0
  0
VERTEX
  5
5FBE
  8
0
 10
-4.4922692750999991
 20
4.7551786993999983
 30
0.0
  0
VERTEX
  5
5FBF
  8
0
 10
-4.530969686999998
 20
4.6795633456999948
 30
0.0
  0
VERTEX
  5
5FC0
  8
0
 10
-4.568113798799998
 20
4.602769200199992
 30
0.0
  0
VERTEX
  5
5FC1
  8
0
 10
-4.6036125540999979
 20
4.5248937732999934
 30
0.0
  0
VERTEX
  5
5FC2
  8
0
 10
-4.6374241916999992
 20
4.4459411766999963
 30
0.0
  0
VERTEX
  5
5FC3
  8
0
 10
-4.6695032328000003
 20
4.3659257192999927
 30
0.0
  0
VERTEX
  5
5FC4
  8
0
 10
-4.6997664710000002
 20
4.2849624073000001
 30
0.0
  0
VERTEX
  5
5FC5
  8
0
 10
-4.7281801677999979
 20
4.203050022099994
 30
0.0
  0
VERTEX
  5
5FC6
  8
0
 10
-4.754701533999997
 20
4.120214620799997
 30
0.0
  0
VERTEX
  5
5FC7
  8
0
 10
-4.7792515464000003
 20
4.0366140364999961
 30
0.0
  0
VERTEX
  5
5FC8
  8
0
 10
-4.8018040577000001
 20
3.9522572001
 30
0.0
  0
VERTEX
  5
5FC9
  8
0
 10
-4.8223309487999986
 20
3.8671622162999939
 30
0.0
  0
VERTEX
  5
5FCA
  8
0
 10
-4.8407709996999984
 20
3.781502130599995
 30
0.0
  0
VERTEX
  5
5FCB
  8
0
 10
-4.8571049046999981
 20
3.6952924604999988
 30
0.0
  0
VERTEX
  5
5FCC
  8
0
 10
-4.871313889999997
 20
3.6085474915999911
 30
0.0
  0
VERTEX
  5
5FCD
  8
0
 10
-4.883356639499997
 20
3.5214393403999922
 30
0.0
  0
VERTEX
  5
5FCE
  8
0
 10
-4.893219368899997
 20
3.433982823199996
 30
0.0
  0
VERTEX
  5
5FCF
  8
0
 10
-4.9008881064000001
 20
3.3461930262999982
 30
0.0
  0
SEQEND
  5
5FD0
  8
0
  0
ENDSEC
  0
EOF
