  0
SECTION
  2
HEADER
  9
$ACADVER
  1
AC1009
  9
$INSBASE
 10
0.0
 20
0.0
 30
0.0
  9
$EXTMIN
 10
-0.3863445952562246
 20
-30.50006372561026
 30
0.0
  9
$EXTMAX
 10
16.755938092758
 20
0.0000003987100108
 30
15.5
  9
$LIMMIN
 10
0.0
 20
0.0
  9
$LIMMAX
 10
12.0
 20
9.0
  9
$ORTHOMODE
 70
     0
  9
$REGENMODE
 70
     1
  9
$FILLMODE
 70
     1
  9
$QTEXTMODE
 70
     0
  9
$MIRRTEXT
 70
     1
  9
$DRAGMODE
 70
     2
  9
$LTSCALE
 40
0.8899990607613865
  9
$OSMODE
 70
     0
  9
$ATTMODE
 70
     1
  9
$TEXTSIZE
 40
0.2
  9
$TRACEWID
 40
0.05
  9
$TEXTSTYLE
  7
STANDARD
  9
$CLAYER
  8
0
  9
$CELTYPE
  6
BYLAYER
  9
$CECOLOR
 62
     1
  9
$DIMSCALE
 40
1.0
  9
$DIMASZ
 40
0.18
  9
$DIMEXO
 40
0.0625
  9
$DIMDLI
 40
0.38
  9
$DIMRND
 40
0.0
  9
$DIMDLE
 40
0.0
  9
$DIMEXE
 40
0.18
  9
$DIMTP
 40
0.0
  9
$DIMTM
 40
0.0
  9
$DIMTXT
 40
0.18
  9
$DIMCEN
 40
0.09
  9
$DIMTSZ
 40
0.0
  9
$DIMTOL
 70
     0
  9
$DIMLIM
 70
     0
  9
$DIMTIH
 70
     1
  9
$DIMTOH
 70
     1
  9
$DIMSE1
 70
     0
  9
$DIMSE2
 70
     0
  9
$DIMTAD
 70
     0
  9
$DIMZIN
 70
     0
  9
$DIMBLK
  1

  9
$DIMASO
 70
     1
  9
$DIMSHO
 70
     1
  9
$DIMPOST
  1

  9
$DIMAPOST
  1

  9
$DIMALT
 70
     0
  9
$DIMALTD
 70
     2
  9
$DIMALTF
 40
25.4
  9
$DIMLFAC
 40
1.0
  9
$DIMTOFL
 70
     0
  9
$DIMTVP
 40
0.0
  9
$DIMTIX
 70
     0
  9
$DIMSOXD
 70
     0
  9
$DIMSAH
 70
     0
  9
$DIMBLK1
  1

  9
$DIMBLK2
  1

  9
$DIMSTYLE
  2
*UNNAMED
  9
$DIMCLRD
 70
     0
  9
$DIMCLRE
 70
     0
  9
$DIMCLRT
 70
     0
  9
$DIMTFAC
 40
1.0
  9
$DIMGAP
 40
0.09
  9
$LUNITS
 70
     2
  9
$LUPREC
 70
     4
  9
$SKETCHINC
 40
0.1
  9
$FILLETRAD
 40
2.0
  9
$AUNITS
 70
     0
  9
$AUPREC
 70
     0
  9
$MENU
  1
acad
  9
$ELEVATION
 40
0.0
  9
$PELEVATION
 40
0.0
  9
$THICKNESS
 40
0.0
  9
$LIMCHECK
 70
     0
  9
$BLIPMODE
 70
     0
  9
$CHAMFERA
 40
0.0
  9
$CHAMFERB
 40
0.0
  9
$SKPOLY
 70
     0
  9
$TDCREATE
 40
2449693.525174768
  9
$TDUPDATE
 40
2449757.629310069
  9
$TDINDWG
 40
0.0001175926
  9
$TDUSRTIMER
 40
0.0001175926
  9
$USRTIMER
 70
     1
  9
$ANGBASE
 50
0.0
  9
$ANGDIR
 70
     0
  9
$PDMODE
 70
     3
  9
$PDSIZE
 40
0.0
  9
$PLINEWID
 40
0.0
  9
$COORDS
 70
     2
  9
$SPLFRAME
 70
     1
  9
$SPLINETYPE
 70
     6
  9
$SPLINESEGS
 70
     8
  9
$ATTDIA
 70
     0
  9
$ATTREQ
 70
     1
  9
$HANDLING
 70
     1
  9
$HANDSEED
  5
285B
  9
$SURFTAB1
 70
    16
  9
$SURFTAB2
 70
     6
  9
$SURFTYPE
 70
     6
  9
$SURFU
 70
     6
  9
$SURFV
 70
     6
  9
$UCSNAME
  2

  9
$UCSORG
 10
0.0
 20
0.0
 30
0.0
  9
$UCSXDIR
 10
1.0
 20
0.0
 30
0.0
  9
$UCSYDIR
 10
0.0
 20
1.0
 30
0.0
  9
$PUCSNAME
  2

  9
$PUCSORG
 10
0.0
 20
0.0
 30
0.0
  9
$PUCSXDIR
 10
1.0
 20
0.0
 30
0.0
  9
$PUCSYDIR
 10
0.0
 20
1.0
 30
0.0
  9
$USERI1
 70
     0
  9
$USERI2
 70
     0
  9
$USERI3
 70
     0
  9
$USERI4
 70
     0
  9
$USERI5
 70
     0
  9
$USERR1
 40
0.0
  9
$USERR2
 40
0.0
  9
$USERR3
 40
0.0
  9
$USERR4
 40
0.0
  9
$USERR5
 40
0.0
  9
$WORLDVIEW
 70
     1
  9
$SHADEDGE
 70
     3
  9
$SHADEDIF
 70
    70
  9
$TILEMODE
 70
     1
  9
$MAXACTVP
 70
    16
  9
$PINSBASE
 10
0.0
 20
0.0
 30
2.039159783308523
  9
$PLIMCHECK
 70
     0
  9
$PEXTMIN
 10
1.000000000000000E+20
 20
1.000000000000000E+20
 30
1.000000000000000E+20
  9
$PEXTMAX
 10
-1.000000000000000E+20
 20
-1.000000000000000E+20
 30
-1.000000000000000E+20
  9
$PLIMMIN
 10
0.0
 20
0.0
  9
$PLIMMAX
 10
12.0
 20
9.0
  9
$UNITMODE
 70
     0
  9
$VISRETAIN
 70
     0
  9
$PLINEGEN
 70
     0
  9
$PSLTSCALE
 70
     1
  9
$TREEDEPTH
 70
  3020
  9
$DWGCODEPAGE
  3
ascii
  0
ENDSEC
  0
SECTION
  2
TABLES
  0
TABLE
  2
VPORT
 70
     1
  0
VPORT
  2
*ACTIVE
 70
     0
 10
0.0
 20
0.0
 11
1.0
 21
1.0
 12
28.48906394763231
 22
-4.618303378151356
 13
0.0
 23
0.0
 14
0.0625
 24
0.0625
 15
0.0
 25
0.0
 16
-0.241844762647975
 26
-0.6644630243886748
 36
0.7071067811865475
 17
0.0
 27
0.0
 37
0.0
 40
30.93502633174833
 41
1.661211129296235
 42
50.0
 43
0.0
 44
0.0
 50
0.0
 51
0.0
 71
     0
 72
  5000
 73
     1
 74
     1
 75
     0
 76
     0
 77
     0
 78
     0
  0
ENDTAB
  0
TABLE
  2
LTYPE
 70
     1
  0
LTYPE
  2
CONTINUOUS
 70
    64
  3
Solid line
 72
    65
 73
     0
 40
0.0
  0
ENDTAB
  0
TABLE
  2
LAYER
 70
     3
  0
LAYER
  2
0
 70
    64
 62
     7
  6
CONTINUOUS
  0
LAYER
  2
RK-BIDET
 70
    64
 62
     7
  6
CONTINUOUS
  0
LAYER
  2
FK-FOOTP
 70
    64
 62
     7
  6
CONTINUOUS
  0
ENDTAB
  0
TABLE
  2
STYLE
 70
     1
  0
STYLE
  2
STANDARD
 70
     0
 40
0.0
 41
1.0
 50
0.0
 71
     0
 42
0.2
  3
txt
  4

  0
ENDTAB
  0
TABLE
  2
VIEW
 70
     0
  0
ENDTAB
  0
TABLE
  2
UCS
 70
     0
  0
ENDTAB
  0
TABLE
  2
APPID
 70
     2
  0
APPID
  2
ACAD
 70
    64
  0
APPID
  2
CDKT-SIZ
 70
    64
  0
ENDTAB
  0
TABLE
  2
DIMSTYLE
 70
     0
  0
ENDTAB
  0
ENDSEC
  0
SECTION
  2
BLOCKS
  0
BLOCK
  8
0
  5
235F
  2
04864PLN
 70
    64
 10
0.0
 20
0.0
 30
0.0
  3
04864PLN
  0
LINE
  8
FK-FOOTP
  6
BYBLOCK
  5
2360
 10
9.687500000000493
 20
5.812499999784959
 30
0.0
 11
9.687500000000493
 21
5.812499999784959
 31
0.0
  0
LINE
  8
FK-FOOTP
  6
BYBLOCK
  5
2361
 10
9.687500000000493
 20
7.812499999784959
 30
0.0
 11
9.687500000000493
 21
7.812499999784959
 31
0.0
  0
LINE
  8
FK-FOOTP
  6
BYBLOCK
  5
2362
 10
9.687500000000493
 20
9.812499999784959
 30
0.0
 11
9.687500000000493
 21
9.812499999784959
 31
0.0
  0
ARC
  8
FK-FOOTP
  6
BYBLOCK
  5
2363
 10
25.12501088331809
 20
7.812501264214004
 30
0.0
 40
5.249999116682551
 50
320.7236832151614
 51
39.27817074242378
  0
ARC
  8
FK-FOOTP
  6
BYBLOCK
  5
2364
 10
25.14441767923816
 20
7.803406072855951
 30
0.0
 40
2.730607463864624
 50
309.5960836331981
 51
50.35155504039461
  0
ARC
  8
FK-FOOTP
  6
BYBLOCK
  5
2365
 10
65.95669044483297
 20
7.812493360729048
 30
0.0
 40
59.95669044483324
 50
175.9690809683479
 51
184.0309081911454
  0
CIRCLE
  8
FK-FOOTP
  6
BYBLOCK
  5
2366
 10
14.6245000000005
 20
7.812499999784959
 30
0.0
 40
0.8749997999999969
  0
ARC
  8
FK-FOOTP
  6
BYBLOCK
  5
2367
 10
41.61530207074508
 20
7.795887387433337
 30
0.0
 40
29.61531132801211
 50
174.9542589564182
 51
184.9933425900921
  0
ARC
  8
FK-FOOTP
  6
BYBLOCK
  5
2368
 10
18.88916000000049
 20
2.353509999784959
 30
0.0
 40
11.0
 50
43.36007999999999
 51
56.96149000000001
  0
ARC
  8
FK-FOOTP
  6
BYBLOCK
  5
2369
 10
19.1177900000005
 20
-0.0751700002150546
 30
0.0
 40
13.0
 50
63.65735
 51
120.0377999999999
  0
ARC
  8
FK-FOOTP
  6
BYBLOCK
  5
236A
 10
13.11093000000049
 20
10.31317999978497
 30
0.0
 40
0.9999998999999998
 50
120.0377
 51
174.9864999999999
  0
ARC
  8
FK-FOOTP
  6
BYBLOCK
  5
236B
 10
13.1086400000005
 20
5.304669999784946
 30
0.0
 40
1.0
 50
184.9608
 51
239.9096999999999
  0
ARC
  8
FK-FOOTP
  6
BYBLOCK
  5
236C
 10
18.89416000000049
 20
13.25902999978495
 30
0.0
 40
11.0
 50
302.9859999999999
 51
316.5874
  0
ARC
  8
FK-FOOTP
  6
BYBLOCK
  5
236D
 10
19.12501000000049
 20
15.68749999978495
 30
0.0
 40
13.0
 50
239.9096999999999
 51
296.2902
  0
ARC
  8
FK-FOOTP
  6
BYBLOCK
  5
236E
 10
21.08200000000048
 20
5.281499999784953
 30
0.0
 40
9.999999
 50
35.83622
 51
72.42553
  0
ARC
  8
FK-FOOTP
  6
BYBLOCK
  5
236F
 10
19.12501000000049
 20
-0.0625000002150404
 30
0.0
 40
15.6875
 50
71.50570999999999
 51
90.00030999999999
  0
ARC
  8
FK-FOOTP
  6
BYBLOCK
  5
2370
 10
23.23657616425804
 20
-33.79993352620116
 30
0.0
 40
49.59565874128397
 50
94.75536209343264
 51
109.2301761745695
  0
ARC
  8
FK-FOOTP
  6
BYBLOCK
  5
2371
 10
7.125010000000497
 20
12.31249999978496
 30
0.0
 40
0.7500001999999999
 50
107.3341
 51
150.0
  0
LINE
  8
FK-FOOTP
  6
BYBLOCK
  5
2372
 10
6.475490000000501
 20
12.68749999978496
 30
0.0
 11
6.258990000000476
 21
12.31249999978496
 31
0.0
  0
ARC
  8
FK-FOOTP
  6
BYBLOCK
  5
2373
 10
7.125010000000497
 20
11.81249999978495
 30
0.0
 40
0.9999988
 50
150.0
 51
167.6057999999999
  0
ARC
  8
FK-FOOTP
  6
BYBLOCK
  5
2374
 10
21.08200000000048
 20
10.34349999978496
 30
0.0
 40
10.0
 50
287.5745
 51
324.1641
  0
ARC
  8
FK-FOOTP
  6
BYBLOCK
  5
2375
 10
19.12501000000049
 20
15.68749999978495
 30
0.0
 40
15.6875
 50
269.9997
 51
288.4943
  0
ARC
  8
FK-FOOTP
  6
BYBLOCK
  5
2376
 10
23.23641399793851
 20
49.42492734745251
 30
0.0
 40
49.59559925298458
 50
250.7699998692539
 51
265.2448312344209
  0
ARC
  8
FK-FOOTP
  6
BYBLOCK
  5
2377
 10
7.125010000000497
 20
3.312499999784959
 30
0.0
 40
0.75
 50
209.9999999999999
 51
252.666
  0
ARC
  8
FK-FOOTP
  6
BYBLOCK
  5
2378
 10
7.125010000000497
 20
3.812499999784959
 30
0.0
 40
1.0
 50
192.3942999999999
 51
209.9999999999999
  0
LINE
  8
FK-FOOTP
  6
BYBLOCK
  5
2379
 10
6.475490000000501
 20
2.937499999784959
 30
0.0
 11
6.258990000000476
 21
3.312499999784959
 31
0.0
  0
ENDBLK
  8
0
  5
237A
  0
ENDSEC
  0
SECTION
  2
ENTITIES
  0
POLYLINE
  8
RK-BIDET
  5
25EB
 66
     1
 10
0.0
 20
0.0
 30
0.0
 70
    64
 71
     6
 72
     3
1001
CDKT-SIZ
1002
{
1010
15.6252824739619
1020
-24.24942418042741
1030
15.5
1002
}
  0
VERTEX
  8
RK-BIDET
  5
25EC
 10
10.24194209419738
 20
-19.44408101242688
 30
13.24258015634368
 70
   192
  0
VERTEX
  8
RK-BIDET
  5
25ED
 10
8.353057099981951
 20
-21.1431100900002
 30
13.24258015634368
 70
   192
  0
VERTEX
  8
RK-BIDET
  5
25EE
 10
8.459214511533419
 20
-21.48968375392325
 30
15.5
 70
   192
  0
VERTEX
  8
RK-BIDET
  5
25EF
 10
9.957172284618287
 20
-20.47700589147403
 30
15.5
 70
   192
  0
VERTEX
  8
RK-BIDET
  5
25F0
 10
8.030090813574066
 20
-20.08871730132769
 30
11.21982298633134
 70
   192
  0
VERTEX
  8
RK-BIDET
  5
25F1
 10
6.578684456677468
 20
-19.32558730393833
 30
11.21982298633134
 70
   192
  0
VERTEX
  8
RK-BIDET
  5
25F2
 10
6.454170924100434
 20
-20.59007338458958
 30
13.24258015634368
 70
   192
  0
VERTEX
  8
RK-BIDET
  5
25F3
 10
5.668110189343622
 20
-20.47700589147403
 30
15.5
 70
   192
  0
VERTEX
  8
RK-BIDET
  5
25F4
 10
7.166067962428485
 20
-21.48968375392325
 30
15.5
 70
   192
  0
VERTEX
  8
RK-BIDET
  5
25F5
 10
12.52101590353186
 20
-12.1563918784904
 30
13.24258015634368
 70
   192
  0
VERTEX
  8
RK-BIDET
  5
25F6
 10
12.37396599040923
 20
-13.43688434366899
 30
13.24258015634368
 70
   192
  0
VERTEX
  8
RK-BIDET
  5
25F7
 10
12.76524578419477
 20
-13.78985922669125
 30
15.5
 70
   192
  0
VERTEX
  8
RK-BIDET
  5
25F8
 10
12.88067744371384
 20
-11.95981739972163
 30
15.5
 70
   192
  0
VERTEX
  8
RK-BIDET
  5
25F9
 10
12.22691607728659
 20
-14.71737680884758
 30
13.24258015634368
 70
   192
  0
VERTEX
  8
RK-BIDET
  5
25FA
 10
12.40669322916066
 20
-15.58814107939293
 30
15.5
 70
   192
  0
VERTEX
  8
RK-BIDET
  5
25FB
 10
11.4909540407371
 20
-17.18846037866863
 30
13.24258015634368
 70
   192
  0
VERTEX
  8
RK-BIDET
  5
25FC
 10
11.81143039492416
 20
-17.32251119982696
 30
15.5
 70
   192
  0
VERTEX
  8
RK-BIDET
  5
25FD
 10
9.109763430575441
 20
-15.57693841107295
 30
9.738933608049823
 70
   192
  0
VERTEX
  8
RK-BIDET
  5
25FE
 10
8.463016810485134
 20
-17.0361334880213
 30
9.738933608049823
 70
   192
  0
VERTEX
  8
RK-BIDET
  5
25FF
 10
9.581690788645129
 20
-18.54074074106031
 30
11.21982298633134
 70
   192
  0
VERTEX
  8
RK-BIDET
  5
2600
 10
10.59285885180897
 20
-16.55735631976318
 30
11.21982298633134
 70
   192
  0
VERTEX
  8
RK-BIDET
  5
2601
 10
9.721326719744119
 20
-12.4534333387004
 30
9.738933608049823
 70
   192
  0
VERTEX
  8
RK-BIDET
  5
2602
 10
9.532288850774376
 20
-14.03808704924157
 30
9.738933608049823
 70
   192
  0
VERTEX
  8
RK-BIDET
  5
2603
 10
11.21142496977171
 20
-14.41817837610818
 30
11.21982298633134
 70
   192
  0
VERTEX
  8
RK-BIDET
  5
2604
 10
11.46143287339407
 20
-12.2054570273248
 30
11.21982298633134
 70
   192
  0
VERTEX
  8
RK-BIDET
  5
2605
 10
4.635182396652506
 20
-18.96196051769087
 30
15.5
 70
   192
  0
VERTEX
  8
RK-BIDET
  5
2606
 10
4.849123768936923
 20
-18.61525627358798
 30
13.24258015634368
 70
   192
  0
VERTEX
  8
RK-BIDET
  5
2607
 10
3.813715867134678
 20
-16.25451073167725
 30
13.24258015634368
 70
   192
  0
VERTEX
  8
RK-BIDET
  5
2608
 10
3.813852079037744
 20
-17.32251119982694
 30
15.5
 70
   192
  0
VERTEX
  8
RK-BIDET
  5
2609
 10
3.205282591140477
 20
-13.74898570782521
 30
13.24258015634368
 70
   192
  0
VERTEX
  8
RK-BIDET
  5
260A
 10
3.176633956150446
 20
-12.46014892609667
 30
13.24258015634368
 70
   192
  0
VERTEX
  8
RK-BIDET
  5
260B
 10
2.744605030248049
 20
-11.95981739972162
 30
15.5
 70
   192
  0
VERTEX
  8
RK-BIDET
  5
260C
 10
2.860036689767127
 20
-13.78985922669124
 30
15.5
 70
   192
  0
VERTEX
  8
RK-BIDET
  5
260D
 10
3.218589244801236
 20
-15.58814107939292
 30
15.5
 70
   192
  0
VERTEX
  8
RK-BIDET
  5
260E
 10
3.509499229137578
 20
-15.00174821975123
 30
13.24258015634368
 70
   192
  0
VERTEX
  8
RK-BIDET
  5
260F
 10
6.092993623187528
 20
-14.03808704924159
 30
9.738933608049823
 70
   192
  0
VERTEX
  8
RK-BIDET
  5
2610
 10
5.903955754217776
 20
-12.45343333870041
 30
9.738933608049823
 70
   192
  0
VERTEX
  8
RK-BIDET
  5
2611
 10
4.223646573683861
 20
-13.1534721765867
 30
11.21982298633134
 70
   192
  0
VERTEX
  8
RK-BIDET
  5
2612
 10
4.616394713561962
 20
-15.34520587663593
 30
11.21982298633134
 70
   192
  0
VERTEX
  8
RK-BIDET
  5
2613
 10
6.515519043386472
 20
-15.57693841107296
 30
9.738933608049823
 70
   192
  0
VERTEX
  8
RK-BIDET
  5
2614
 10
5.429015704767227
 20
-17.41876549145419
 30
11.21982298633134
 70
   192
  0
VERTEX
  8
RK-BIDET
  5
2615
 10
7.81264123698096
 20
-18.33237283547849
 30
9.738933608049823
 70
   192
  0
VERTEX
  8
RK-BIDET
  5
2616
 10
7.162265663476784
 20
-17.03613348802132
 30
9.738933608049823
 70
   192
  0
VERTEX
  8
RK-BIDET
  5
2617
 10
10.9901000773094
 20
-18.96196051769088
 30
15.5
 70
   192
  0
VERTEX
  8
RK-BIDET
  5
2618
 10
12.284846995294
 20
-9.590503525223763
 30
13.24258015634368
 70
   192
  0
VERTEX
  8
RK-BIDET
  5
2619
 10
12.40293144941293
 20
-10.87344770185708
 30
13.24258015634368
 70
   192
  0
VERTEX
  8
RK-BIDET
  5
261A
 10
12.75092438731244
 20
-10.13073519795154
 30
15.5
 70
   192
  0
VERTEX
  8
RK-BIDET
  5
261B
 10
12.37830648985493
 20
-8.335315063561825
 30
15.5
 70
   192
  0
VERTEX
  8
RK-BIDET
  5
261C
 10
10.85052226305549
 20
-6.000000000000028
 30
15.5
 70
   192
  0
VERTEX
  8
RK-BIDET
  5
261D
 10
10.7465863352779
 20
-6.346573663923082
 30
13.24258015634368
 70
   192
  0
VERTEX
  8
RK-BIDET
  5
261E
 10
11.11395387048022
 20
-6.588693091077967
 30
13.24258015634368
 70
   192
  0
VERTEX
  8
RK-BIDET
  5
261F
 10
11.04354382668109
 20
-6.01880548514809
 30
15.5
 70
   192
  0
VERTEX
  8
RK-BIDET
  5
2620
 10
11.48132140568254
 20
-6.830812518232852
 30
13.24258015634368
 70
   192
  0
VERTEX
  8
RK-BIDET
  5
2621
 10
11.76948584407577
 20
-6.605657589450052
 30
15.5
 70
   192
  0
VERTEX
  8
RK-BIDET
  5
2622
 10
11.67608769941304
 20
-6.435693602471385
 30
15.5
 70
   192
  0
VERTEX
  8
RK-BIDET
  5
2623
 10
11.55163923764596
 20
-6.286953726648082
 30
15.5
 70
   192
  0
VERTEX
  8
RK-BIDET
  5
2624
 10
11.40082108617345
 20
-6.165032213031579
 30
15.5
 70
   192
  0
VERTEX
  8
RK-BIDET
  5
2625
 10
11.22930566201065
 20
-6.074514648048971
 30
15.5
 70
   192
  0
VERTEX
  8
RK-BIDET
  5
2626
 10
8.248050886364422
 20
-8.712987425726183
 30
9.5
 70
   192
  0
VERTEX
  8
RK-BIDET
  5
2627
 10
8.099653811254775
 20
-8.307090350616537
 30
9.5
 70
   192
  0
VERTEX
  8
RK-BIDET
  5
2628
 10
9.672646470375179
 20
-10.8578218391035
 30
9.738933608049823
 70
   192
  0
VERTEX
  8
RK-BIDET
  5
2629
 10
9.510539100344836
 20
-9.266864078018205
 30
9.738933608049823
 70
   192
  0
VERTEX
  8
RK-BIDET
  5
262A
 10
7.812641236980931
 20
-7.86956038979239
 30
9.738933608049823
 70
   192
  0
VERTEX
  8
RK-BIDET
  5
262B
 10
9.154509465057246
 20
-7.869560389792395
 30
9.738933608049823
 70
   192
  0
VERTEX
  8
RK-BIDET
  5
262C
 10
10.11843855082027
 20
-6.811577928171203
 30
11.21982298633134
 70
   192
  0
VERTEX
  8
RK-BIDET
  5
262D
 10
7.337691660387829
 20
-6.811577928171196
 30
11.21982298633134
 70
   192
  0
VERTEX
  8
RK-BIDET
  5
262E
 10
10.81210880420394
 20
-7.806324173657035
 30
11.21982298633134
 70
   192
  0
VERTEX
  8
RK-BIDET
  5
262F
 10
11.29002522141315
 20
-9.985800022775054
 30
11.21982298633134
 70
   192
  0
VERTEX
  8
RK-BIDET
  5
2630
 10
7.272225373979942
 20
-6.346573663923066
 30
13.24258015634368
 70
   192
  0
VERTEX
  8
RK-BIDET
  5
2631
 10
3.147985321160419
 20
-11.17131214436812
 30
13.24258015634368
 70
   192
  0
VERTEX
  8
RK-BIDET
  5
2632
 10
3.645973194719886
 20
-9.001062331300481
 30
13.24258015634368
 70
   192
  0
VERTEX
  8
RK-BIDET
  5
2633
 10
3.24697598410696
 20
-8.335315063561814
 30
15.5
 70
   192
  0
VERTEX
  8
RK-BIDET
  5
2634
 10
2.874358086649451
 20
-10.13073519795152
 30
15.5
 70
   192
  0
VERTEX
  8
RK-BIDET
  5
2635
 10
3.855796629886118
 20
-6.605657589450046
 30
15.5
 70
   192
  0
VERTEX
  8
RK-BIDET
  5
2636
 10
4.143961068279349
 20
-6.830812518232841
 30
13.24258015634368
 70
   192
  0
VERTEX
  8
RK-BIDET
  5
2637
 10
4.511328603481672
 20
-6.588693091077949
 30
13.24258015634368
 70
   192
  0
VERTEX
  8
RK-BIDET
  5
2638
 10
3.94919477454885
 20
-6.435693602471381
 30
15.5
 70
   192
  0
VERTEX
  8
RK-BIDET
  5
2639
 10
4.878696138683991
 20
-6.346573663923058
 30
13.24258015634368
 70
   192
  0
VERTEX
  8
RK-BIDET
  5
263A
 10
4.774760210906414
 20
-6.000000000000001
 30
15.5
 70
   192
  0
VERTEX
  8
RK-BIDET
  5
263B
 10
4.581738647280804
 20
-6.018805485148092
 30
15.5
 70
   192
  0
VERTEX
  8
RK-BIDET
  5
263C
 10
4.395976811951243
 20
-6.074514648048971
 30
15.5
 70
   192
  0
VERTEX
  8
RK-BIDET
  5
263D
 10
4.224461387788444
 20
-6.165032213031579
 30
15.5
 70
   192
  0
VERTEX
  8
RK-BIDET
  5
263E
 10
4.07364323631593
 20
-6.286953726648079
 30
15.5
 70
   192
  0
VERTEX
  8
RK-BIDET
  5
263F
 10
3.855796629886114
 20
-6.605657589450043
 30
15.5
 70
   192
  0
VERTEX
  8
RK-BIDET
  5
2640
 10
5.952636003586711
 20
-10.85782183910352
 30
9.738933608049823
 70
   192
  0
VERTEX
  8
RK-BIDET
  5
2641
 10
6.114743373617056
 20
-9.266864078018219
 30
9.738933608049823
 70
   192
  0
VERTEX
  8
RK-BIDET
  5
2642
 10
4.59567972189296
 20
-8.730981754252619
 30
11.21982298633134
 70
   192
  0
VERTEX
  8
RK-BIDET
  5
2643
 10
4.222359998757159
 20
-10.92698643090084
 30
11.21982298633134
 70
   192
  0
VERTEX
  8
RK-BIDET
  5
2644
 10
6.470773008904615
 20
-7.869560389792383
 30
9.738933608049823
 70
   192
  0
VERTEX
  8
RK-BIDET
  5
2645
 10
5.363735349070537
 20
-6.811577928171187
 30
11.21982298633134
 70
   192
  0
VERTEX
  8
RK-BIDET
  5
2646
 10
7.812641236980958
 20
-8.250000000000001
 30
9.5
 70
   192
  0
VERTEX
  8
RK-BIDET
  5
2647
 10
7.525628662707141
 20
-8.307090350616537
 30
9.5
 70
   192
  0
VERTEX
  8
RK-BIDET
  5
2648
 10
8.248050886364422
 20
-9.28701257427382
 30
9.5
 70
   192
  0
VERTEX
  8
RK-BIDET
  5
2649
 10
8.759370060805967
 20
-24.24942418042741
 30
12.625
 70
   192
  0
VERTEX
  8
RK-BIDET
  5
264A
 10
8.680265654560374
 20
-23.49901780963979
 30
15.5
 70
   192
  0
VERTEX
  8
RK-BIDET
  5
264B
 10
6.945016819401537
 20
-23.49901780963979
 30
15.5
 70
   192
  0
VERTEX
  8
RK-BIDET
  5
264C
 10
6.865912413155925
 20
-24.24942418042741
 30
12.625
 70
   192
  0
VERTEX
  8
RK-BIDET
  5
264D
 10
12.6119110748513
 20
-21.51554634544651
 30
12.625
 70
   192
  0
VERTEX
  8
RK-BIDET
  5
264E
 10
12.18396909613541
 20
-20.81577394243378
 30
15.5
 70
   192
  0
VERTEX
  8
RK-BIDET
  5
264F
 10
10.7103428798298
 20
-22.52824168736645
 30
15.5
 70
   192
  0
VERTEX
  8
RK-BIDET
  5
2650
 10
10.96279230671393
 20
-23.27700521374592
 30
12.625
 70
   192
  0
VERTEX
  8
RK-BIDET
  5
2651
 10
12.35907258295778
 20
-20.43249009315085
 30
10.11099223818644
 70
   192
  0
VERTEX
  8
RK-BIDET
  5
2652
 10
10.79240975322728
 20
-22.10526515502083
 30
10.06578111137857
 70
   192
  0
VERTEX
  8
RK-BIDET
  5
2653
 10
10.96279230671393
 20
-23.27700521374592
 30
12.625
 70
   192
  0
VERTEX
  8
RK-BIDET
  5
2654
 10
12.6119110748513
 20
-21.51554634544651
 30
12.625
 70
   192
  0
VERTEX
  8
RK-BIDET
  5
2655
 10
8.699158619614719
 20
-23.02872594449961
 30
10.04082216512996
 70
   192
  0
VERTEX
  8
RK-BIDET
  5
2656
 10
8.75937006080597
 20
-24.24942418042741
 30
12.625
 70
   192
  0
VERTEX
  8
RK-BIDET
  5
2657
 10
6.926123854347178
 20
-23.02872594449961
 30
10.04082216512996
 70
   192
  0
VERTEX
  8
RK-BIDET
  5
2658
 10
4.662490167247955
 20
-23.27700521374592
 30
12.625
 70
   192
  0
VERTEX
  8
RK-BIDET
  5
2659
 10
4.914939594132103
 20
-22.52824168736645
 30
15.5
 70
   192
  0
VERTEX
  8
RK-BIDET
  5
265A
 10
3.441313377826496
 20
-20.81577394243378
 30
15.5
 70
   192
  0
VERTEX
  8
RK-BIDET
  5
265B
 10
3.013371399110582
 20
-21.51554634544651
 30
12.625
 70
   192
  0
VERTEX
  8
RK-BIDET
  5
265C
 10
3.013371399110592
 20
-21.51554634544652
 30
12.625
 70
   192
  0
VERTEX
  8
RK-BIDET
  5
265D
 10
3.26620989100429
 20
-20.43249009315111
 30
10.11099223818644
 70
   192
  0
VERTEX
  8
RK-BIDET
  5
265E
 10
4.832872720734609
 20
-22.10526515502083
 30
10.06578111137857
 70
   192
  0
VERTEX
  8
RK-BIDET
  5
265F
 10
4.662490167247959
 20
-23.27700521374592
 30
12.625
 70
   192
  0
VERTEX
  8
RK-BIDET
  5
2660
 10
14.79218586592397
 20
-17.20090801064577
 30
12.625
 70
   192
  0
VERTEX
  8
RK-BIDET
  5
2661
 10
14.1517934179365
 20
-16.74409071701796
 30
15.5
 70
   192
  0
VERTEX
  8
RK-BIDET
  5
2662
 10
13.31512343658999
 20
-18.85109374530771
 30
15.5
 70
   192
  0
VERTEX
  8
RK-BIDET
  5
2663
 10
13.86127560085042
 20
-19.43868789610976
 30
12.625
 70
   192
  0
VERTEX
  8
RK-BIDET
  5
2664
 10
15.6252824739619
 20
-12.43901215223028
 30
12.625
 70
   192
  0
VERTEX
  8
RK-BIDET
  5
2665
 10
14.8785121838313
 20
-12.28059246061628
 30
15.5
 70
   192
  0
VERTEX
  8
RK-BIDET
  5
2666
 10
14.67656398523288
 20
-14.53862154457233
 30
15.5
 70
   192
  0
VERTEX
  8
RK-BIDET
  5
2667
 10
15.38446686275812
 20
-14.8507046240863
 30
12.625
 70
   192
  0
VERTEX
  8
RK-BIDET
  5
2668
 10
14.99300058146926
 20
-14.10320178364552
 30
10.28205783025998
 70
   192
  0
VERTEX
  8
RK-BIDET
  5
2669
 10
14.43033363447681
 20
-16.33507996491386
 30
10.22173547743853
 70
   192
  0
VERTEX
  8
RK-BIDET
  5
266A
 10
15.38446686275811
 20
-14.8507046240863
 30
12.625
 70
   192
  0
VERTEX
  8
RK-BIDET
  5
266B
 10
13.54596888265696
 20
-18.46019480791461
 30
10.16429868343181
 70
   192
  0
VERTEX
  8
RK-BIDET
  5
266C
 10
13.86127560085043
 20
-19.43868789610975
 30
12.625
 70
   192
  0
VERTEX
  8
RK-BIDET
  5
266D
 10
1.764006873111462
 20
-19.43868789610976
 30
12.625
 70
   192
  0
VERTEX
  8
RK-BIDET
  5
266E
 10
2.310159037371914
 20
-18.85109374530771
 30
15.5
 70
   192
  0
VERTEX
  8
RK-BIDET
  5
266F
 10
1.4734890560254
 20
-16.74409071701795
 30
15.5
 70
   192
  0
VERTEX
  8
RK-BIDET
  5
2670
 10
0.8330966080379269
 20
-17.20090801064577
 30
12.625
 70
   192
  0
VERTEX
  8
RK-BIDET
  5
2671
 10
0.2408156112037787
 20
-14.8507046240863
 30
12.625
 70
   192
  0
VERTEX
  8
RK-BIDET
  5
2672
 10
0.9487184887290212
 20
-14.53862154457233
 30
15.5
 70
   192
  0
VERTEX
  8
RK-BIDET
  5
2673
 10
0.7467702901305949
 20
-12.28059246061627
 30
15.5
 70
   192
  0
VERTEX
  8
RK-BIDET
  5
2674
 10
0.0
 20
-12.43901215223027
 30
12.625
 70
   192
  0
VERTEX
  8
RK-BIDET
  5
2675
 10
1.194948839485181
 20
-16.33507996491415
 30
10.22173547743852
 70
   192
  0
VERTEX
  8
RK-BIDET
  5
2676
 10
0.6322818924926957
 20
-14.10320178364584
 30
10.28205783025998
 70
   192
  0
VERTEX
  8
RK-BIDET
  5
2677
 10
2.07931359130508
 20
-18.4601948079149
 30
10.1642986834318
 70
   192
  0
VERTEX
  8
RK-BIDET
  5
2678
 10
7.194081575017161
 20
-21.52765824184624
 30
0.0
 70
   192
  0
VERTEX
  8
RK-BIDET
  5
2679
 10
8.431200898944744
 20
-21.52765824184624
 30
0.0
 70
   192
  0
VERTEX
  8
RK-BIDET
  5
267A
 10
8.287095158175302
 20
-19.78567812510791
 30
7.408498167283856
 70
   192
  0
VERTEX
  8
RK-BIDET
  5
267B
 10
7.338187315786584
 20
-19.78567812510791
 30
7.408498167283856
 70
   192
  0
VERTEX
  8
RK-BIDET
  5
267C
 10
12.87584512097319
 20
-12.41098684568239
 30
1.125
 70
   192
  0
VERTEX
  8
RK-BIDET
  5
267D
 10
11.53545444012349
 20
-12.95362286660912
 30
1.125
 70
   192
  0
VERTEX
  8
RK-BIDET
  5
267E
 10
12.12763672050871
 20
-13.54580514699434
 30
1.125
 70
   192
  0
VERTEX
  8
RK-BIDET
  5
267F
 10
12.8251561114912
 20
-13.27695573187399
 30
1.125
 70
   192
  0
VERTEX
  8
RK-BIDET
  5
2680
 10
12.71981900089393
 20
-14.13798742737957
 30
1.125
 70
   192
  0
VERTEX
  8
RK-BIDET
  5
2681
 10
12.71981900089393
 20
-14.13798742737956
 30
1.125
 70
   192
  0
VERTEX
  8
RK-BIDET
  5
2682
 10
12.71981900089393
 20
-14.13798742737956
 30
0.0
 70
   192
  0
VERTEX
  8
RK-BIDET
  5
2683
 10
12.8251561114912
 20
-13.27695573187399
 30
0.0
 70
   192
  0
VERTEX
  8
RK-BIDET
  5
2684
 10
12.87584512097319
 20
-12.41098684568239
 30
0.0
 70
   192
  0
VERTEX
  8
RK-BIDET
  5
2685
 10
10.91531001649985
 20
-19.11721524246163
 30
0.0
 70
   192
  0
VERTEX
  8
RK-BIDET
  5
2686
 10
11.73074010153151
 20
-17.54027558606134
 30
0.0
 70
   192
  0
VERTEX
  8
RK-BIDET
  5
2687
 10
11.19444915609418
 20
-16.55569220050016
 30
7.552623281058162
 70
   192
  0
VERTEX
  8
RK-BIDET
  5
2688
 10
10.43506750361638
 20
-17.82829837873831
 30
7.495838355516812
 70
   192
  0
VERTEX
  8
RK-BIDET
  5
2689
 10
12.33562210987208
 20
-15.87120918250261
 30
0.0
 70
   192
  0
VERTEX
  8
RK-BIDET
  5
268A
 10
11.77448981767475
 20
-15.19214444260544
 30
7.613466108342971
 70
   192
  0
VERTEX
  8
RK-BIDET
  5
268B
 10
12.71981900089393
 20
-14.13798742737958
 30
0.0
 70
   192
  0
VERTEX
  8
RK-BIDET
  5
268C
 10
12.1645217887413
 20
-13.76273251575623
 30
7.677247858912831
 70
   192
  0
VERTEX
  8
RK-BIDET
  5
268D
 10
2.749437352988699
 20
-12.41098684568239
 30
1.125
 70
   192
  0
VERTEX
  8
RK-BIDET
  5
268E
 10
2.800126362470681
 20
-13.27695573187399
 30
1.125
 70
   192
  0
VERTEX
  8
RK-BIDET
  5
268F
 10
3.497645753453173
 20
-13.54580514699434
 30
1.125
 70
   192
  0
VERTEX
  8
RK-BIDET
  5
2690
 10
4.089828033838397
 20
-12.95362286660912
 30
1.125
 70
   192
  0
VERTEX
  8
RK-BIDET
  5
2691
 10
2.905463473067953
 20
-14.13798742737956
 30
1.125
 70
   192
  0
VERTEX
  8
RK-BIDET
  5
2692
 10
2.905463473067953
 20
-14.13798742737957
 30
1.125
 70
   192
  0
VERTEX
  8
RK-BIDET
  5
2693
 10
2.800126362470681
 20
-13.27695573187399
 30
0.0
 70
   192
  0
VERTEX
  8
RK-BIDET
  5
2694
 10
2.905463473067953
 20
-14.13798742737956
 30
0.0
 70
   192
  0
VERTEX
  8
RK-BIDET
  5
2695
 10
2.749437352988699
 20
-12.41098684568239
 30
0.0
 70
   192
  0
VERTEX
  8
RK-BIDET
  5
2696
 10
2.905463473067953
 20
-14.13798742737958
 30
0.0
 70
   192
  0
VERTEX
  8
RK-BIDET
  5
2697
 10
3.289660364089805
 20
-15.8712091825026
 30
0.0
 70
   192
  0
VERTEX
  8
RK-BIDET
  5
2698
 10
3.850792656287133
 20
-15.19214444260543
 30
7.613466108342972
 70
   192
  0
VERTEX
  8
RK-BIDET
  5
2699
 10
3.460760685220577
 20
-13.76273251575623
 30
7.677247858912832
 70
   192
  0
VERTEX
  8
RK-BIDET
  5
269A
 10
3.894542372430382
 20
-17.54027558606133
 30
0.0
 70
   192
  0
VERTEX
  8
RK-BIDET
  5
269B
 10
4.430833317867705
 20
-16.55569220050016
 30
7.552623281058162
 70
   192
  0
VERTEX
  8
RK-BIDET
  5
269C
 10
4.709972457462054
 20
-19.11721524246162
 30
0.0
 70
   192
  0
VERTEX
  8
RK-BIDET
  5
269D
 10
5.190214970345497
 20
-17.82829837873831
 30
7.495838355516812
 70
   192
  0
VERTEX
  8
RK-BIDET
  5
269E
 10
5.724200739073896
 20
-20.57404802094505
 30
0.0
 70
   192
  0
VERTEX
  8
RK-BIDET
  5
269F
 10
6.108676615147864
 20
-18.99190541909004
 30
7.443917077531787
 70
   192
  0
VERTEX
  8
RK-BIDET
  5
26A0
 10
9.901081734888013
 20
-20.57404802094507
 30
0.0
 70
   192
  0
VERTEX
  8
RK-BIDET
  5
26A1
 10
9.516605858814022
 20
-18.99190541909004
 30
7.443917077531787
 70
   192
  0
VERTEX
  8
RK-BIDET
  5
26A2
 10
8.309001200783967
 20
-19.77911694304057
 30
7.408790933609786
 70
   192
  0
VERTEX
  8
RK-BIDET
  5
26A3
 10
7.316281273177928
 20
-19.77911694304057
 30
7.408790933609786
 70
   192
  0
VERTEX
  8
RK-BIDET
  5
26A4
 10
12.2112311333884
 20
-13.51579406022676
 30
7.688266492996435
 70
   192
  0
VERTEX
  8
RK-BIDET
  5
26A5
 10
11.84012747009718
 20
-14.99726273925372
 30
7.622161919508623
 70
   192
  0
VERTEX
  8
RK-BIDET
  5
26A6
 10
11.26586022734981
 20
-16.41255993672314
 30
7.559009981893134
 70
   192
  0
VERTEX
  8
RK-BIDET
  5
26A7
 10
4.359422246612069
 20
-16.41255993672314
 30
7.559009981893134
 70
   192
  0
VERTEX
  8
RK-BIDET
  5
26A8
 10
3.785155003864709
 20
-14.99726273925372
 30
7.622161919508623
 70
   192
  0
VERTEX
  8
RK-BIDET
  5
26A9
 10
3.414051340573493
 20
-13.51579406022677
 30
7.688266492996434
 70
   192
  0
VERTEX
  8
RK-BIDET
  5
26AA
 10
10.49965083879789
 20
-17.7340301250052
 30
7.500044696693436
 70
   192
  0
VERTEX
  8
RK-BIDET
  5
26AB
 10
9.560642624207433
 20
-18.9393496930969
 30
7.446262165146736
 70
   192
  0
VERTEX
  8
RK-BIDET
  5
26AC
 10
6.06463984975446
 20
-18.93934969309691
 30
7.446262165146736
 70
   192
  0
VERTEX
  8
RK-BIDET
  5
26AD
 10
5.125631635163998
 20
-17.73403012500521
 30
7.500044696693436
 70
   192
  0
VERTEX
  8
RK-BIDET
  5
26AE
 10
13.5313110649828
 20
-5.641820460625407
 30
15.5
 70
   192
  0
VERTEX
  8
RK-BIDET
  5
26AF
 10
13.09291492523285
 20
-4.605476493438539
 30
15.5
 70
   192
  0
VERTEX
  8
RK-BIDET
  5
26B0
 10
13.53936818252243
 20
-5.660746174569212
 30
15.5
 70
   192
  0
VERTEX
  8
RK-BIDET
  5
26B1
 10
14.30393444387006
 20
-7.794971291776283
 30
15.5
 70
   192
  0
VERTEX
  8
RK-BIDET
  5
26B2
 10
14.22534312148926
 20
-5.357532746256005
 30
12.625
 70
   192
  0
VERTEX
  8
RK-BIDET
  5
26B3
 10
15.03937157207587
 20
-7.640427929798619
 30
12.625
 70
   192
  0
VERTEX
  8
RK-BIDET
  5
26B4
 10
14.75343451766708
 20
-10.01700371785944
 30
15.5
 70
   192
  0
VERTEX
  8
RK-BIDET
  5
26B5
 10
15.50941366081632
 20
-10.01809762347328
 30
12.625
 70
   192
  0
VERTEX
  8
RK-BIDET
  5
26B6
 10
12.3190532120303
 20
-10.47086379949256
 30
7.824134243044428
 70
   192
  0
VERTEX
  8
RK-BIDET
  5
26B7
 10
12.37191968897057
 20
-11.99710244702778
 30
7.756031990013877
 70
   192
  0
VERTEX
  8
RK-BIDET
  5
26B8
 10
15.22177541211285
 20
-11.81293029537902
 30
10.34395841512686
 70
   192
  0
VERTEX
  8
RK-BIDET
  5
26B9
 10
15.11170003962456
 20
-9.513901051208753
 30
10.40609570128236
 70
   192
  0
VERTEX
  8
RK-BIDET
  5
26BA
 10
11.58094007012239
 20
-7.514603600786699
 30
7.956045448675046
 70
   192
  0
VERTEX
  8
RK-BIDET
  5
26BB
 10
12.05366473670085
 20
-8.966901489816063
 30
7.891242504211454
 70
   192
  0
VERTEX
  8
RK-BIDET
  5
26BC
 10
14.66516005532112
 20
-7.255939403326003
 30
10.46712302809797
 70
   192
  0
VERTEX
  8
RK-BIDET
  5
26BD
 10
13.89183302726385
 20
-5.087980672856186
 30
10.52571779036561
 70
   192
  0
VERTEX
  8
RK-BIDET
  5
26BE
 10
14.22534312148926
 20
-5.357532746255996
 30
12.625
 70
   192
  0
VERTEX
  8
RK-BIDET
  5
26BF
 10
2.532367548729062
 20
-4.60547649343856
 30
15.5
 70
   192
  0
VERTEX
  8
RK-BIDET
  5
26C0
 10
2.093971408979111
 20
-5.641820460625407
 30
15.5
 70
   192
  0
VERTEX
  8
RK-BIDET
  5
26C1
 10
1.321348030091833
 20
-7.794971291776274
 30
15.5
 70
   192
  0
VERTEX
  8
RK-BIDET
  5
26C2
 10
2.085914291439458
 20
-5.660746174569213
 30
15.5
 70
   192
  0
VERTEX
  8
RK-BIDET
  5
26C3
 10
0.5859109018860345
 20
-7.640427929798605
 30
12.625
 70
   192
  0
VERTEX
  8
RK-BIDET
  5
26C4
 10
1.399939352472628
 20
-5.357532746255998
 30
12.625
 70
   192
  0
VERTEX
  8
RK-BIDET
  5
26C5
 10
0.1158688131455712
 20
-10.01809762347328
 30
12.625
 70
   192
  0
VERTEX
  8
RK-BIDET
  5
26C6
 10
0.8718479562948147
 20
-10.01700371785944
 30
15.5
 70
   192
  0
VERTEX
  8
RK-BIDET
  5
26C7
 10
3.25336278499131
 20
-11.99710244702779
 30
7.756031990013876
 70
   192
  0
VERTEX
  8
RK-BIDET
  5
26C8
 10
3.306229261931576
 20
-10.47086379949262
 30
7.824134243044425
 70
   192
  0
VERTEX
  8
RK-BIDET
  5
26C9
 10
0.5135824343373053
 20
-9.51390105120906
 30
10.40609570128235
 70
   192
  0
VERTEX
  8
RK-BIDET
  5
26CA
 10
0.4035070618490622
 20
-11.81293029537933
 30
10.34395841512685
 70
   192
  0
VERTEX
  8
RK-BIDET
  5
26CB
 10
3.571617737261025
 20
-8.966901489816116
 30
7.891242504211451
 70
   192
  0
VERTEX
  8
RK-BIDET
  5
26CC
 10
0.9601224186406973
 20
-7.255939403326305
 30
10.46712302809796
 70
   192
  0
VERTEX
  8
RK-BIDET
  5
26CD
 10
4.04434240383949
 20
-7.514603600786708
 30
7.956045448675045
 70
   192
  0
VERTEX
  8
RK-BIDET
  5
26CE
 10
1.733449446698049
 20
-5.08798067285619
 30
10.52571779036561
 70
   192
  0
VERTEX
  8
RK-BIDET
  5
26CF
 10
1.399939352472628
 20
-5.357532746256
 30
12.625
 70
   192
  0
VERTEX
  8
RK-BIDET
  5
26D0
 10
13.32325336286808
 20
-3.460056971552329
 30
12.625
 70
   192
  0
VERTEX
  8
RK-BIDET
  5
26D1
 10
12.87220848355768
 20
-2.511319084200401
 30
12.625
 70
   192
  0
VERTEX
  8
RK-BIDET
  5
26D2
 10
12.14567708776737
 20
-2.564182916282069
 30
15.5
 70
   192
  0
VERTEX
  8
RK-BIDET
  5
26D3
 10
12.63095654849161
 20
-3.579418769998568
 30
15.5
 70
   192
  0
VERTEX
  8
RK-BIDET
  5
26D4
 10
12.42116360424728
 20
-1.562581196848473
 30
12.625
 70
   192
  0
VERTEX
  8
RK-BIDET
  5
26D5
 10
11.63732987021626
 20
-1.560298908998198
 30
15.5
 70
   192
  0
VERTEX
  8
RK-BIDET
  5
26D6
 10
11.97011872493688
 20
-0.6138433094965415
 30
12.625
 70
   192
  0
VERTEX
  8
RK-BIDET
  5
26D7
 10
11.20566285520183
 20
0.0
 30
12.625
 70
   192
  0
VERTEX
  8
RK-BIDET
  5
26D8
 10
10.20229898902372
 20
-0.0000000000000036
 30
15.5
 70
   192
  0
VERTEX
  8
RK-BIDET
  5
26D9
 10
11.10618026489954
 20
-0.5682907989284694
 30
15.5
 70
   192
  0
VERTEX
  8
RK-BIDET
  5
26DA
 10
11.02313677429079
 20
-0.5
 30
10.64971998332077
 70
   192
  0
VERTEX
  8
RK-BIDET
  5
26DB
 10
11.72381392792762
 20
-1.012492308092159
 30
10.63586853654985
 70
   192
  0
VERTEX
  8
RK-BIDET
  5
26DC
 10
12.15741774779487
 20
-1.827589981044964
 30
10.613838387313
 70
   192
  0
VERTEX
  8
RK-BIDET
  5
26DD
 10
12.59102156766212
 20
-2.64268765399777
 30
10.59180823807615
 70
   192
  0
VERTEX
  8
RK-BIDET
  5
26DE
 10
13.02462538752937
 20
-3.457785326950578
 30
10.5697780888393
 70
   192
  0
VERTEX
  8
RK-BIDET
  5
26DF
 10
13.45822920739662
 20
-4.272882999903384
 30
10.54774793960245
 70
   192
  0
VERTEX
  8
RK-BIDET
  5
26E0
 10
13.77429824217848
 20
-4.40879485890426
 30
12.625
 70
   192
  0
VERTEX
  8
RK-BIDET
  5
26E1
 10
3.204118869714633
 20
-1.562581196848471
 30
12.625
 70
   192
  0
VERTEX
  8
RK-BIDET
  5
26E2
 10
2.753073990404232
 20
-2.511319084200399
 30
12.625
 70
   192
  0
VERTEX
  8
RK-BIDET
  5
26E3
 10
3.479605386194549
 20
-2.564182916282073
 30
15.5
 70
   192
  0
VERTEX
  8
RK-BIDET
  5
26E4
 10
3.987952603745672
 20
-1.560298908998188
 30
15.5
 70
   192
  0
VERTEX
  8
RK-BIDET
  5
26E5
 10
2.30202911109383
 20
-3.460056971552329
 30
12.625
 70
   192
  0
VERTEX
  8
RK-BIDET
  5
26E6
 10
2.994325925470324
 20
-3.579418769998548
 30
15.5
 70
   192
  0
VERTEX
  8
RK-BIDET
  5
26E7
 10
4.41961961876008
 20
-0.0000000000000036
 30
12.625
 70
   192
  0
VERTEX
  8
RK-BIDET
  5
26E8
 10
3.655163749025035
 20
-0.6138433094965415
 30
12.625
 70
   192
  0
VERTEX
  8
RK-BIDET
  5
26E9
 10
4.519102209062392
 20
-0.5682907989284587
 30
15.5
 70
   192
  0
VERTEX
  8
RK-BIDET
  5
26EA
 10
5.422983484938193
 20
0.0
 30
15.5
 70
   192
  0
VERTEX
  8
RK-BIDET
  5
26EB
 10
3.901468546034294
 20
-1.012492308092156
 30
10.63586853654985
 70
   192
  0
VERTEX
  8
RK-BIDET
  5
26EC
 10
4.60214569967113
 20
-0.5000000000000036
 30
10.64971998332077
 70
   192
  0
VERTEX
  8
RK-BIDET
  5
26ED
 10
3.467864726167046
 20
-1.827589981044962
 30
10.613838387313
 70
   192
  0
VERTEX
  8
RK-BIDET
  5
26EE
 10
3.034260906299795
 20
-2.642687653997768
 30
10.59180823807615
 70
   192
  0
VERTEX
  8
RK-BIDET
  5
26EF
 10
2.600657086432548
 20
-3.457785326950576
 30
10.5697780888393
 70
   192
  0
VERTEX
  8
RK-BIDET
  5
26F0
 10
1.850984231783431
 20
-4.40879485890426
 30
12.625
 70
   192
  0
VERTEX
  8
RK-BIDET
  5
26F1
 10
2.1670532665653
 20
-4.272882999903382
 30
10.54774793960245
 70
   192
  0
VERTEX
  8
RK-BIDET
  5
26F2
 10
4.41961961876008
 20
-0.497545173323676
 30
10.55889338519544
 70
   192
  0
VERTEX
  8
RK-BIDET
  5
26F3
 10
11.20566285520183
 20
-0.497545173323676
 30
10.55889338519544
 70
   192
  0
VERTEX
  8
RK-BIDET
  5
26F4
 10
11.20566285520183
 20
-0.0000000000000036
 30
12.625
 70
   192
  0
VERTEX
  8
RK-BIDET
  5
26F5
 10
5.422983484938193
 20
-0.0000000000000036
 30
15.5
 70
   192
  0
VERTEX
  8
RK-BIDET
  5
26F6
 10
14.22534312148928
 20
-5.357532746255998
 30
12.625
 70
   192
  0
VERTEX
  8
RK-BIDET
  5
26F7
 10
13.89183302726387
 20
-5.087980672856188
 30
10.52571779036561
 70
   192
  0
VERTEX
  8
RK-BIDET
  5
26F8
 10
1.733449446698049
 20
-5.087980672856188
 30
10.52571779036561
 70
   192
  0
VERTEX
  8
RK-BIDET
  5
26F9
 10
11.44798230297824
 20
-7.240668324101894
 30
7.968268707178498
 70
   192
  0
VERTEX
  8
RK-BIDET
  5
26FA
 10
11.26234814434747
 20
-6.999231768379988
 30
7.979041841140969
 70
   192
  0
VERTEX
  8
RK-BIDET
  5
26FB
 10
11.031699558464
 20
-6.800259116043992
 30
7.987920194429578
 70
   192
  0
VERTEX
  8
RK-BIDET
  5
26FC
 10
10.76555645927402
 20
-6.65196287150025
 30
7.994537317109381
 70
   192
  0
VERTEX
  8
RK-BIDET
  5
26FD
 10
10.474903780381
 20
-6.560463893808847
 30
7.998620090495339
 70
   192
  0
VERTEX
  8
RK-BIDET
  5
26FE
 10
10.17173807698034
 20
-6.529538761050464
 30
8.0
 70
   192
  0
VERTEX
  8
RK-BIDET
  5
26FF
 10
5.453544396981541
 20
-6.529538761050464
 30
8.0
 70
   192
  0
VERTEX
  8
RK-BIDET
  5
2700
 10
5.150378693580879
 20
-6.560463893808847
 30
7.998620090495339
 70
   192
  0
VERTEX
  8
RK-BIDET
  5
2701
 10
4.859726014687858
 20
-6.651962871500252
 30
7.994537317109381
 70
   192
  0
VERTEX
  8
RK-BIDET
  5
2702
 10
4.593582915497879
 20
-6.800259116043994
 30
7.987920194429578
 70
   192
  0
VERTEX
  8
RK-BIDET
  5
2703
 10
4.362934329614411
 20
-6.999231768379992
 30
7.979041841140969
 70
   192
  0
VERTEX
  8
RK-BIDET
  5
2704
 10
4.177300170983645
 20
-7.240668324101903
 30
7.968268707178498
 70
   192
  0
VERTEX
  8
RK-BIDET
  5
2705
 10
4.774760210906404
 20
-6.000000000000028
 30
15.5
 70
   192
  0
VERTEX
  8
RK-BIDET
  5
2706
 10
10.8505222630555
 20
-6.000000000000001
 30
15.5
 70
   192
  0
VERTEX
  8
RK-BIDET
  5
2707
 10
12.87168321234772
 20
-11.54354568568895
 30
0.0
 70
   192
  0
VERTEX
  8
RK-BIDET
  5
2708
 10
12.81268703825408
 20
-10.67810305964347
 30
0.0
 70
   192
  0
VERTEX
  8
RK-BIDET
  5
2709
 10
12.81268703825408
 20
-10.67810305964347
 30
1.125
 70
   192
  0
VERTEX
  8
RK-BIDET
  5
270A
 10
12.87168321234772
 20
-11.54354568568895
 30
1.125
 70
   192
  0
VERTEX
  8
RK-BIDET
  5
270B
 10
12.69909265433232
 20
-9.818121778756726
 30
0.0
 70
   192
  0
VERTEX
  8
RK-BIDET
  5
270C
 10
12.69909265433232
 20
-9.818121778756728
 30
1.125
 70
   192
  0
VERTEX
  8
RK-BIDET
  5
270D
 10
12.53135457471693
 20
-8.967042802291485
 30
0.0
 70
   192
  0
VERTEX
  8
RK-BIDET
  5
270E
 10
12.53135457471693
 20
-8.967042802291487
 30
1.125
 70
   192
  0
VERTEX
  8
RK-BIDET
  5
270F
 10
10.05514123698094
 20
-10.2168998226395
 30
1.125
 70
   192
  0
VERTEX
  8
RK-BIDET
  5
2710
 10
10.05514123698094
 20
-11.0543720349573
 30
1.125
 70
   192
  0
VERTEX
  8
RK-BIDET
  5
2711
 10
10.05514123698094
 20
-11.47330966346658
 30
1.125
 70
   192
  0
VERTEX
  8
RK-BIDET
  5
2712
 10
12.03634589897659
 20
-7.305163874610176
 30
0.0
 70
   192
  0
VERTEX
  8
RK-BIDET
  5
2713
 10
11.64255020901326
 20
-6.53890819951065
 30
0.0
 70
   192
  0
VERTEX
  8
RK-BIDET
  5
2714
 10
11.64255020901326
 20
-6.53890819951065
 30
1.125
 70
   192
  0
VERTEX
  8
RK-BIDET
  5
2715
 10
12.03634589897659
 20
-7.30516387461018
 30
1.125
 70
   192
  0
VERTEX
  8
RK-BIDET
  5
2716
 10
10.91777854521903
 20
-6.084291530481733
 30
0.0
 70
   192
  0
VERTEX
  8
RK-BIDET
  5
2717
 10
10.91777854521903
 20
-6.084291530481735
 30
1.125
 70
   192
  0
VERTEX
  8
RK-BIDET
  5
2718
 10
12.31014395343371
 20
-8.128271469587694
 30
0.0
 70
   192
  0
VERTEX
  8
RK-BIDET
  5
2719
 10
12.31014395343371
 20
-8.128271469587698
 30
1.125
 70
   192
  0
VERTEX
  8
RK-BIDET
  5
271A
 10
10.05514123698094
 20
-6.029538761050462
 30
1.125
 70
   192
  0
VERTEX
  8
RK-BIDET
  5
271B
 10
10.05514123698094
 20
-6.86701097336827
 30
1.125
 70
   192
  0
VERTEX
  8
RK-BIDET
  5
271C
 10
10.05514123698094
 20
-6.02953876105046
 30
0.0
 70
   192
  0
VERTEX
  8
RK-BIDET
  5
271D
 10
10.05514123698094
 20
-7.704483185686076
 30
1.125
 70
   192
  0
VERTEX
  8
RK-BIDET
  5
271E
 10
10.05514123698094
 20
-9.379427610321691
 30
1.125
 70
   192
  0
VERTEX
  8
RK-BIDET
  5
271F
 10
10.05514123698094
 20
-8.541955398003885
 30
1.125
 70
   192
  0
VERTEX
  8
RK-BIDET
  5
2720
 10
3.093927899244953
 20
-8.967042802291487
 30
1.125
 70
   192
  0
VERTEX
  8
RK-BIDET
  5
2721
 10
2.92618981962957
 20
-9.818121778756728
 30
1.125
 70
   192
  0
VERTEX
  8
RK-BIDET
  5
2722
 10
5.570141236980944
 20
-11.0543720349573
 30
1.125
 70
   192
  0
VERTEX
  8
RK-BIDET
  5
2723
 10
5.570141236980944
 20
-10.2168998226395
 30
1.125
 70
   192
  0
VERTEX
  8
RK-BIDET
  5
2724
 10
2.812595435707809
 20
-10.67810305964347
 30
1.125
 70
   192
  0
VERTEX
  8
RK-BIDET
  5
2725
 10
5.570141236980944
 20
-11.47330966346658
 30
1.125
 70
   192
  0
VERTEX
  8
RK-BIDET
  5
2726
 10
2.812595435707809
 20
-10.67810305964347
 30
0.0
 70
   192
  0
VERTEX
  8
RK-BIDET
  5
2727
 10
2.753599261614162
 20
-11.54354568568895
 30
0.0
 70
   192
  0
VERTEX
  8
RK-BIDET
  5
2728
 10
2.753599261614162
 20
-11.54354568568895
 30
1.125
 70
   192
  0
VERTEX
  8
RK-BIDET
  5
2729
 10
2.92618981962957
 20
-9.818121778756726
 30
0.0
 70
   192
  0
VERTEX
  8
RK-BIDET
  5
272A
 10
3.093927899244953
 20
-8.967042802291485
 30
0.0
 70
   192
  0
VERTEX
  8
RK-BIDET
  5
272B
 10
5.570141236980944
 20
-6.029538761050462
 30
1.125
 70
   192
  0
VERTEX
  8
RK-BIDET
  5
272C
 10
4.707503928742855
 20
-6.084291530481735
 30
1.125
 70
   192
  0
VERTEX
  8
RK-BIDET
  5
272D
 10
5.570141236980944
 20
-6.86701097336827
 30
1.125
 70
   192
  0
VERTEX
  8
RK-BIDET
  5
272E
 10
3.982732264948626
 20
-6.53890819951065
 30
1.125
 70
   192
  0
VERTEX
  8
RK-BIDET
  5
272F
 10
5.570141236980944
 20
-7.704483185686076
 30
1.125
 70
   192
  0
VERTEX
  8
RK-BIDET
  5
2730
 10
3.588936574985293
 20
-7.305163874610176
 30
0.0
 70
   192
  0
VERTEX
  8
RK-BIDET
  5
2731
 10
3.588936574985293
 20
-7.30516387461018
 30
1.125
 70
   192
  0
VERTEX
  8
RK-BIDET
  5
2732
 10
3.982732264948626
 20
-6.53890819951065
 30
0.0
 70
   192
  0
VERTEX
  8
RK-BIDET
  5
2733
 10
4.707503928742855
 20
-6.084291530481733
 30
0.0
 70
   192
  0
VERTEX
  8
RK-BIDET
  5
2734
 10
5.570141236980944
 20
-6.02953876105046
 30
0.0
 70
   192
  0
VERTEX
  8
RK-BIDET
  5
2735
 10
3.315138520528172
 20
-8.128271469587694
 30
0.0
 70
   192
  0
VERTEX
  8
RK-BIDET
  5
2736
 10
3.315138520528172
 20
-8.128271469587698
 30
1.125
 70
   192
  0
VERTEX
  8
RK-BIDET
  5
2737
 10
5.570141236980944
 20
-9.379427610321691
 30
1.125
 70
   192
  0
VERTEX
  8
RK-BIDET
  5
2738
 10
5.570141236980944
 20
-8.541955398003885
 30
1.125
 70
   192
  0
VERTEX
  8
RK-BIDET
  5
2739
 10
10.51620608284962
 20
-6.029538761050462
 30
1.125
 70
   192
  0
VERTEX
  8
RK-BIDET
  5
273A
 10
10.51620608284962
 20
-6.029538761050464
 30
0.0
 70
   192
  0
VERTEX
  8
RK-BIDET
  5
273B
 10
5.570141236980944
 20
-6.029538761050464
 30
1.125
 70
   192
  0
VERTEX
  8
RK-BIDET
  5
273C
 10
5.570141236980944
 20
-6.029538761050464
 30
0.0
 70
   192
  0
VERTEX
  8
RK-BIDET
  5
273D
 10
10.05514123698094
 20
-6.029538761050464
 30
0.0
 70
   192
  0
VERTEX
  8
RK-BIDET
  5
273E
 10
5.453544396981541
 20
-6.529538761050464
 30
7.999999999999999
 70
   192
  0
VERTEX
  8
RK-BIDET
  5
273F
 10
5.570141236980944
 20
-6.029538761050464
 30
1.125
 70
   192
  0
VERTEX
  8
RK-BIDET
  5
2740
 10
5.570141236980944
 20
-11.47330966346657
 30
1.125
 70
   192
  0
VERTEX
  8
RK-BIDET
  5
2741
 10
3.56896703660514
 20
-10.62155514723368
 30
7.81741024853023
 70
   192
  0
VERTEX
  8
RK-BIDET
  5
2742
 10
12.05631543735675
 20
-10.62155514723369
 30
7.817410248530229
 70
   192
  0
VERTEX
  8
RK-BIDET
  5
2743
 10
10.17173807698034
 20
-6.529538761050464
 30
7.999999999999998
 70
   192
  0
VERTEX
  8
RK-BIDET
  5
2744
 10
10.05514123698094
 20
-6.029538761050464
 30
1.125
 70
   192
  0
VERTEX
  8
RK-BIDET
  5
2745
 10
10.05514123698094
 20
-11.47330966346657
 30
0.0000000000000004
 70
   192
  0
VERTEX
  8
RK-BIDET
  5
2746
 10
5.453544396981545
 20
-6.529538761050464
 30
7.999999999999998
 70
   192
  0
VERTEX
  8
RK-BIDET
  5
2747
 10
15.6252824739619
 20
-12.43901215223027
 30
12.625
 70
   192
  0
VERTEX
  8
RK-BIDET
  5
2748
 10
4.682010314223617
 20
-12.3614405862239
 30
1.125
 70
   192
  0
VERTEX
  8
RK-BIDET
  5
2749
 10
10.94327215973827
 20
-12.3614405862239
 30
1.125
 70
   192
  0
VERTEX
  8
RK-BIDET
  5
274A
 10
12.1645217887413
 20
-13.76273251575623
 30
7.677247858912831
 70
   192
  0
VERTEX
  8
RK-BIDET
  5
274B
 10
12.71981900089394
 20
-14.13798742737957
 30
1.124999999999999
 70
   192
  0
VERTEX
  8
RK-BIDET
  5
274C
 10
3.460760685220577
 20
-13.76273251575623
 30
7.677247858912831
 70
   192
  0
VERTEX
  8
RK-BIDET
  5
274D
 10
0.0
 20
0.0
 30
0.0
 70
   128
 71
     2
 72
     3
 73
     4
 74
     1
  0
VERTEX
  8
RK-BIDET
  5
274E
 10
0.0
 20
0.0
 30
0.0
 70
   128
 71
     6
 72
     7
 73
     2
 74
     5
  0
VERTEX
  8
RK-BIDET
  5
274F
 10
0.0
 20
0.0
 30
0.0
 70
   128
 71
     9
 72
     7
 73
     8
  0
VERTEX
  8
RK-BIDET
  5
2750
 10
0.0
 20
0.0
 30
0.0
 70
   128
 71
     7
 72
     9
 73
     3
 74
     2
  0
VERTEX
  8
RK-BIDET
  5
2751
 10
0.0
 20
0.0
 30
0.0
 70
   128
 71
    11
 72
    12
 73
    13
 74
    10
  0
VERTEX
  8
RK-BIDET
  5
2752
 10
0.0
 20
0.0
 30
0.0
 70
   128
 71
    11
 72
    14
 73
    15
 74
    12
  0
VERTEX
  8
RK-BIDET
  5
2753
 10
0.0
 20
0.0
 30
0.0
 70
   128
 71
    16
 72
    17
 73
    15
 74
    14
  0
VERTEX
  8
RK-BIDET
  5
2754
 10
0.0
 20
0.0
 30
0.0
 70
   128
 71
    19
 72
    20
 73
    21
 74
    18
  0
VERTEX
  8
RK-BIDET
  5
2755
 10
0.0
 20
0.0
 30
0.0
 70
   128
 71
    23
 72
    24
 73
    25
 74
    22
  0
VERTEX
  8
RK-BIDET
  5
2756
 10
0.0
 20
0.0
 30
0.0
 70
   128
 71
    18
 72
    21
 73
    24
 74
    23
  0
VERTEX
  8
RK-BIDET
  5
2757
 10
0.0
 20
0.0
 30
0.0
 70
   128
 71
    24
 72
    14
 73
    10
 74
    25
  0
VERTEX
  8
RK-BIDET
  5
2758
 10
0.0
 20
0.0
 30
0.0
 70
   128
 71
    21
 72
    16
 73
    14
 74
    24
  0
VERTEX
  8
RK-BIDET
  5
2759
 10
0.0
 20
0.0
 30
0.0
 70
   128
 71
    27
 72
    28
 73
    29
 74
    26
  0
VERTEX
  8
RK-BIDET
  5
275A
 10
0.0
 20
0.0
 30
0.0
 70
   128
 71
    31
 72
    32
 73
    33
 74
    30
  0
VERTEX
  8
RK-BIDET
  5
275B
 10
0.0
 20
0.0
 30
0.0
 70
   128
 71
    35
 72
    30
 73
    33
 74
    34
  0
VERTEX
  8
RK-BIDET
  5
275C
 10
0.0
 20
0.0
 30
0.0
 70
   128
 71
    35
 72
    34
 73
    29
 74
    28
  0
VERTEX
  8
RK-BIDET
  5
275D
 10
0.0
 20
0.0
 30
0.0
 70
   128
 71
    37
 72
    38
 73
    39
 74
    36
  0
VERTEX
  8
RK-BIDET
  5
275E
 10
0.0
 20
0.0
 30
0.0
 70
   128
 71
    36
 72
    39
 73
    41
 74
    40
  0
VERTEX
  8
RK-BIDET
  5
275F
 10
0.0
 20
0.0
 30
0.0
 70
   128
 71
    39
 72
    28
 73
    27
 74
    41
  0
VERTEX
  8
RK-BIDET
  5
2760
 10
0.0
 20
0.0
 30
0.0
 70
   128
 71
    38
 72
    30
 73
    28
 74
    39
  0
VERTEX
  8
RK-BIDET
  5
2761
 10
0.0
 20
0.0
 30
0.0
 70
   128
 71
     5
 72
     2
 73
     1
 74
    20
  0
VERTEX
  8
RK-BIDET
  5
2762
 10
0.0
 20
0.0
 30
0.0
 70
   128
 71
    41
 72
    27
 73
     7
 74
     6
  0
VERTEX
  8
RK-BIDET
  5
2763
 10
0.0
 20
0.0
 30
0.0
 70
   128
 71
    20
 72
     1
 73
    16
 74
    21
  0
VERTEX
  8
RK-BIDET
  5
2764
 10
0.0
 20
0.0
 30
0.0
 70
   128
 71
    42
 72
     5
 73
    20
 74
    19
  0
VERTEX
  8
RK-BIDET
  5
2765
 10
0.0
 20
0.0
 30
0.0
 70
   128
 71
    43
 72
     6
 73
     5
 74
    42
  0
VERTEX
  8
RK-BIDET
  5
2766
 10
0.0
 20
0.0
 30
0.0
 70
   128
 71
    40
 72
    41
 73
     6
 74
    43
  0
VERTEX
  8
RK-BIDET
  5
2767
 10
0.0
 20
0.0
 30
0.0
 70
   128
 71
     7
 72
    27
 73
    26
 74
     8
  0
VERTEX
  8
RK-BIDET
  5
2768
 10
0.0
 20
0.0
 30
0.0
 70
   128
 71
    16
 72
     1
 73
    44
 74
    17
  0
VERTEX
  8
RK-BIDET
  5
2769
 10
0.0
 20
0.0
 30
0.0
 70
   128
 71
     1
 72
     4
 73
    44
  0
VERTEX
  8
RK-BIDET
  5
276A
 10
0.0
 20
0.0
 30
0.0
 70
   128
 71
    46
 72
    47
 73
    48
 74
    45
  0
VERTEX
  8
RK-BIDET
  5
276B
 10
0.0
 20
0.0
 30
0.0
 70
   128
 71
    50
 72
    51
 73
    52
 74
    49
  0
VERTEX
  8
RK-BIDET
  5
276C
 10
0.0
 20
0.0
 30
0.0
 70
   128
 71
    53
 72
    54
 73
    55
 74
    51
  0
VERTEX
  8
RK-BIDET
  5
276D
 10
0.0
 20
0.0
 30
0.0
 70
   128
 71
    55
 72
    56
 73
    57
 74
    51
  0
VERTEX
  8
RK-BIDET
  5
276E
 10
0.0
 20
0.0
 30
0.0
 70
   128
 71
    57
 72
    58
 73
    52
 74
    51
  0
VERTEX
  8
RK-BIDET
  5
276F
 10
0.0
 20
0.0
 30
0.0
 70
   128
 71
    53
 72
    45
 73
    48
 74
    54
  0
VERTEX
  8
RK-BIDET
  5
2770
 10
0.0
 20
0.0
 30
0.0
 70
   128
 71
   -60
 72
    61
 73
   -62
 74
   -59
  0
VERTEX
  8
RK-BIDET
  5
2771
 10
0.0
 20
0.0
 30
0.0
 70
   128
 71
    64
 72
    65
 73
    66
 74
    63
  0
VERTEX
  8
RK-BIDET
  5
2772
 10
0.0
 20
0.0
 30
0.0
 70
   128
 71
    62
 72
    67
 73
    65
 74
    64
  0
VERTEX
  8
RK-BIDET
  5
2773
 10
0.0
 20
0.0
 30
0.0
 70
   128
 71
    61
 72
    68
 73
    67
 74
    62
  0
VERTEX
  8
RK-BIDET
  5
2774
 10
0.0
 20
0.0
 30
0.0
 70
   128
 71
   -60
 72
    64
 73
   -63
  0
VERTEX
  8
RK-BIDET
  5
2775
 10
0.0
 20
0.0
 30
0.0
 70
   128
 71
   -59
 72
    62
 73
   -64
 74
   -60
  0
VERTEX
  8
RK-BIDET
  5
2776
 10
0.0
 20
0.0
 30
0.0
 70
   128
 71
    65
 72
    50
 73
    69
 74
    66
  0
VERTEX
  8
RK-BIDET
  5
2777
 10
0.0
 20
0.0
 30
0.0
 70
   128
 71
    67
 72
    53
 73
    50
 74
    65
  0
VERTEX
  8
RK-BIDET
  5
2778
 10
0.0
 20
0.0
 30
0.0
 70
   128
 71
    68
 72
    45
 73
    53
 74
    67
  0
VERTEX
  8
RK-BIDET
  5
2779
 10
0.0
 20
0.0
 30
0.0
 70
   128
 71
    71
 72
    72
 73
    73
 74
    70
  0
VERTEX
  8
RK-BIDET
  5
277A
 10
0.0
 20
0.0
 30
0.0
 70
   128
 71
    75
 72
    76
 73
    77
 74
    74
  0
VERTEX
  8
RK-BIDET
  5
277B
 10
0.0
 20
0.0
 30
0.0
 70
   128
 71
    79
 72
    80
 73
    76
 74
    78
  0
VERTEX
  8
RK-BIDET
  5
277C
 10
0.0
 20
0.0
 30
0.0
 70
   128
 71
    81
 72
    82
 73
    76
 74
    80
  0
VERTEX
  8
RK-BIDET
  5
277D
 10
0.0
 20
0.0
 30
0.0
 70
   128
 71
    82
 72
    83
 73
    77
 74
    76
  0
VERTEX
  8
RK-BIDET
  5
277E
 10
0.0
 20
0.0
 30
0.0
 70
   128
 71
    71
 72
    75
 73
    84
 74
    72
  0
VERTEX
  8
RK-BIDET
  5
277F
 10
0.0
 20
0.0
 30
0.0
 70
   128
 71
    86
 72
    87
 73
    88
 74
    85
  0
VERTEX
  8
RK-BIDET
  5
2780
 10
0.0
 20
0.0
 30
0.0
 70
   128
 71
    89
 72
    90
 73
    87
 74
    86
  0
VERTEX
  8
RK-BIDET
  5
2781
 10
0.0
 20
0.0
 30
0.0
 70
   128
 71
    87
 72
    75
 73
    70
 74
    88
  0
VERTEX
  8
RK-BIDET
  5
2782
 10
0.0
 20
0.0
 30
0.0
 70
   128
 71
    90
 72
    78
 73
    75
 74
    87
  0
VERTEX
  8
RK-BIDET
  5
2783
 10
0.0
 20
0.0
 30
0.0
 70
   128
 71
    66
 72
    69
 73
    78
 74
    90
  0
VERTEX
  8
RK-BIDET
  5
2784
 10
0.0
 20
0.0
 30
0.0
 70
   128
 71
    63
 72
    66
 73
    90
 74
    89
  0
VERTEX
  8
RK-BIDET
  5
2785
 10
0.0
 20
0.0
 30
0.0
 70
   128
 71
   -60
 72
    63
 73
   -89
 74
   -91
  0
VERTEX
  8
RK-BIDET
  5
2786
 10
0.0
 20
0.0
 30
0.0
 70
   128
 71
   -92
 72
    86
 73
   -85
  0
VERTEX
  8
RK-BIDET
  5
2787
 10
0.0
 20
0.0
 30
0.0
 70
   128
 71
   -86
 72
   -92
 73
   -91
 74
    89
  0
VERTEX
  8
RK-BIDET
  5
2788
 10
0.0
 20
0.0
 30
0.0
 70
   128
 71
    50
 72
    49
 73
    79
 74
    78
  0
VERTEX
  8
RK-BIDET
  5
2789
 10
0.0
 20
0.0
 30
0.0
 70
   128
 71
    88
 72
    70
 73
    30
 74
    38
  0
VERTEX
  8
RK-BIDET
  5
278A
 10
0.0
 20
0.0
 30
0.0
 70
   128
 71
    25
 72
    10
 73
    45
 74
    68
  0
VERTEX
  8
RK-BIDET
  5
278B
 10
0.0
 20
0.0
 30
0.0
 70
   128
 71
    85
 72
    88
 73
    38
 74
    37
  0
VERTEX
  8
RK-BIDET
  5
278C
 10
0.0
 20
0.0
 30
0.0
 70
   128
 71
    22
 72
    25
 73
    68
 74
    61
  0
VERTEX
  8
RK-BIDET
  5
278D
 10
0.0
 20
0.0
 30
0.0
 70
   128
 71
   -60
 72
    42
 73
   -19
  0
VERTEX
  8
RK-BIDET
  5
278E
 10
0.0
 20
0.0
 30
0.0
 70
   128
 71
   -60
 72
    43
 73
   -42
  0
VERTEX
  8
RK-BIDET
  5
278F
 10
0.0
 20
0.0
 30
0.0
 70
   128
 71
   -60
 72
    40
 73
   -43
  0
VERTEX
  8
RK-BIDET
  5
2790
 10
0.0
 20
0.0
 30
0.0
 70
   128
 71
   -60
 72
    36
 73
   -40
  0
VERTEX
  8
RK-BIDET
  5
2791
 10
0.0
 20
0.0
 30
0.0
 70
   128
 71
   -91
 72
    37
 73
   -36
 74
   -60
  0
VERTEX
  8
RK-BIDET
  5
2792
 10
0.0
 20
0.0
 30
0.0
 70
   128
 71
   -93
 72
    22
 73
   -61
 74
   -60
  0
VERTEX
  8
RK-BIDET
  5
2793
 10
0.0
 20
0.0
 30
0.0
 70
   128
 71
   -60
 72
    23
 73
   -22
 74
   -93
  0
VERTEX
  8
RK-BIDET
  5
2794
 10
0.0
 20
0.0
 30
0.0
 70
   128
 71
   -60
 72
    18
 73
   -23
  0
VERTEX
  8
RK-BIDET
  5
2795
 10
0.0
 20
0.0
 30
0.0
 70
   128
 71
   -60
 72
    19
 73
   -18
  0
VERTEX
  8
RK-BIDET
  5
2796
 10
0.0
 20
0.0
 30
0.0
 70
   128
 71
    31
 72
    70
 73
    73
 74
    32
  0
VERTEX
  8
RK-BIDET
  5
2797
 10
0.0
 20
0.0
 30
0.0
 70
   128
 71
    46
 72
    10
 73
    13
 74
    47
  0
VERTEX
  8
RK-BIDET
  5
2798
 10
0.0
 20
0.0
 30
0.0
 70
   128
 71
   -37
 72
   -91
 73
   -92
 74
    85
  0
VERTEX
  8
RK-BIDET
  5
2799
 10
0.0
 20
0.0
 30
0.0
 70
   128
 71
    95
 72
    96
 73
    97
 74
    94
  0
VERTEX
  8
RK-BIDET
  5
279A
 10
0.0
 20
0.0
 30
0.0
 70
   128
 71
    99
 72
   100
 73
   101
 74
    98
  0
VERTEX
  8
RK-BIDET
  5
279B
 10
0.0
 20
0.0
 30
0.0
 70
   128
 71
   100
 72
    95
 73
    94
 74
   101
  0
VERTEX
  8
RK-BIDET
  5
279C
 10
0.0
 20
0.0
 30
0.0
 70
   128
 71
     4
 72
    -3
 73
    95
 74
  -100
  0
VERTEX
  8
RK-BIDET
  5
279D
 10
0.0
 20
0.0
 30
0.0
 70
   128
 71
     3
 72
    -9
 73
    96
 74
   -95
  0
VERTEX
  8
RK-BIDET
  5
279E
 10
0.0
 20
0.0
 30
0.0
 70
   128
 71
   103
 72
   104
 73
   105
 74
   102
  0
VERTEX
  8
RK-BIDET
  5
279F
 10
0.0
 20
0.0
 30
0.0
 70
   128
 71
   106
 72
   107
 73
   104
 74
   103
  0
VERTEX
  8
RK-BIDET
  5
27A0
 10
0.0
 20
0.0
 30
0.0
 70
   128
 71
   108
 72
   106
 73
   107
 74
    97
  0
VERTEX
  8
RK-BIDET
  5
27A1
 10
0.0
 20
0.0
 30
0.0
 70
   128
 71
   110
 72
   111
 73
   112
 74
   109
  0
VERTEX
  8
RK-BIDET
  5
27A2
 10
0.0
 20
0.0
 30
0.0
 70
   128
 71
   114
 72
   115
 73
   116
 74
   113
  0
VERTEX
  8
RK-BIDET
  5
27A3
 10
0.0
 20
0.0
 30
0.0
 70
   128
 71
    96
 72
   110
 73
   109
 74
    97
  0
VERTEX
  8
RK-BIDET
  5
27A4
 10
0.0
 20
0.0
 30
0.0
 70
   128
 71
   115
 72
   108
 73
    97
 74
   116
  0
VERTEX
  8
RK-BIDET
  5
27A5
 10
0.0
 20
0.0
 30
0.0
 70
   128
 71
     9
 72
    -8
 73
   110
 74
   -96
  0
VERTEX
  8
RK-BIDET
  5
27A6
 10
0.0
 20
0.0
 30
0.0
 70
   128
 71
   118
 72
   119
 73
   120
 74
   117
  0
VERTEX
  8
RK-BIDET
  5
27A7
 10
0.0
 20
0.0
 30
0.0
 70
   128
 71
   122
 72
   123
 73
   124
 74
   121
  0
VERTEX
  8
RK-BIDET
  5
27A8
 10
0.0
 20
0.0
 30
0.0
 70
   128
 71
   123
 72
   118
 73
   117
 74
   124
  0
VERTEX
  8
RK-BIDET
  5
27A9
 10
0.0
 20
0.0
 30
0.0
 70
   128
 71
    15
 72
   -17
 73
   119
 74
  -118
  0
VERTEX
  8
RK-BIDET
  5
27AA
 10
0.0
 20
0.0
 30
0.0
 70
   128
 71
    12
 72
   -15
 73
   118
 74
  -123
  0
VERTEX
  8
RK-BIDET
  5
27AB
 10
0.0
 20
0.0
 30
0.0
 70
   128
 71
   126
 72
   117
 73
   127
 74
   125
  0
VERTEX
  8
RK-BIDET
  5
27AC
 10
0.0
 20
0.0
 30
0.0
 70
   128
 71
   128
 72
   129
 73
   117
 74
   126
  0
VERTEX
  8
RK-BIDET
  5
27AD
 10
0.0
 20
0.0
 30
0.0
 70
   128
 71
   131
 72
   132
 73
   133
 74
   130
  0
VERTEX
  8
RK-BIDET
  5
27AE
 10
0.0
 20
0.0
 30
0.0
 70
   128
 71
   135
 72
   136
 73
   137
 74
   134
  0
VERTEX
  8
RK-BIDET
  5
27AF
 10
0.0
 20
0.0
 30
0.0
 70
   128
 71
   132
 72
   135
 73
   134
 74
   133
  0
VERTEX
  8
RK-BIDET
  5
27B0
 10
0.0
 20
0.0
 30
0.0
 70
   128
 71
    29
 72
   -34
 73
   132
 74
  -131
  0
VERTEX
  8
RK-BIDET
  5
27B1
 10
0.0
 20
0.0
 30
0.0
 70
   128
 71
    34
 72
   -33
 73
   135
 74
  -132
  0
VERTEX
  8
RK-BIDET
  5
27B2
 10
0.0
 20
0.0
 30
0.0
 70
   128
 71
   139
 72
   134
 73
   133
 74
   138
  0
VERTEX
  8
RK-BIDET
  5
27B3
 10
0.0
 20
0.0
 30
0.0
 70
   128
 71
   138
 72
   133
 73
   130
 74
   140
  0
VERTEX
  8
RK-BIDET
  5
27B4
 10
0.0
 20
0.0
 30
0.0
 70
   128
 71
   119
 72
    99
 73
    98
 74
   120
  0
VERTEX
  8
RK-BIDET
  5
27B5
 10
0.0
 20
0.0
 30
0.0
 70
   128
 71
   111
 72
   131
 73
   130
 74
   112
  0
VERTEX
  8
RK-BIDET
  5
27B6
 10
0.0
 20
0.0
 30
0.0
 70
   128
 71
   102
 72
   105
 73
   129
 74
   128
  0
VERTEX
  8
RK-BIDET
  5
27B7
 10
0.0
 20
0.0
 30
0.0
 70
   128
 71
   140
 72
   114
 73
   113
 74
   130
  0
VERTEX
  8
RK-BIDET
  5
27B8
 10
0.0
 20
0.0
 30
0.0
 70
   128
 71
    17
 72
   -44
 73
    99
 74
  -119
  0
VERTEX
  8
RK-BIDET
  5
27B9
 10
0.0
 20
0.0
 30
0.0
 70
   128
 71
    44
 72
    -4
 73
   100
 74
   -99
  0
VERTEX
  8
RK-BIDET
  5
27BA
 10
0.0
 20
0.0
 30
0.0
 70
   128
 71
     8
 72
   -26
 73
   111
 74
  -110
  0
VERTEX
  8
RK-BIDET
  5
27BB
 10
0.0
 20
0.0
 30
0.0
 70
   128
 71
    26
 72
   -29
 73
   131
 74
  -111
  0
VERTEX
  8
RK-BIDET
  5
27BC
 10
0.0
 20
0.0
 30
0.0
 70
   128
 71
   142
 72
   143
 73
   144
 74
   141
  0
VERTEX
  8
RK-BIDET
  5
27BD
 10
0.0
 20
0.0
 30
0.0
 70
   128
 71
   146
 72
  -147
 73
   148
 74
  -145
  0
VERTEX
  8
RK-BIDET
  5
27BE
 10
0.0
 20
0.0
 30
0.0
 70
   128
 71
   147
 72
   149
 73
   150
 74
  -148
  0
VERTEX
  8
RK-BIDET
  5
27BF
 10
0.0
 20
0.0
 30
0.0
 70
   128
 71
   152
 72
   148
 73
   150
 74
   151
  0
VERTEX
  8
RK-BIDET
  5
27C0
 10
0.0
 20
0.0
 30
0.0
 70
   128
 71
   153
 72
   145
 73
   148
 74
   152
  0
VERTEX
  8
RK-BIDET
  5
27C1
 10
0.0
 20
0.0
 30
0.0
 70
   128
 71
   155
 72
   156
 73
   157
 74
   154
  0
VERTEX
  8
RK-BIDET
  5
27C2
 10
0.0
 20
0.0
 30
0.0
 70
   128
 71
   158
 72
   159
 73
   156
 74
   155
  0
VERTEX
  8
RK-BIDET
  5
27C3
 10
0.0
 20
0.0
 30
0.0
 70
   128
 71
   160
 72
   161
 73
   159
 74
   158
  0
VERTEX
  8
RK-BIDET
  5
27C4
 10
0.0
 20
0.0
 30
0.0
 70
   128
 71
  -163
 72
   164
 73
  -165
 74
   162
  0
VERTEX
  8
RK-BIDET
  5
27C5
 10
0.0
 20
0.0
 30
0.0
 70
   128
 71
   166
 72
   167
 73
  -164
 74
   163
  0
VERTEX
  8
RK-BIDET
  5
27C6
 10
0.0
 20
0.0
 30
0.0
 70
   128
 71
   168
 72
   169
 73
   166
 74
   163
  0
VERTEX
  8
RK-BIDET
  5
27C7
 10
0.0
 20
0.0
 30
0.0
 70
   128
 71
   170
 72
   168
 73
   163
 74
   162
  0
VERTEX
  8
RK-BIDET
  5
27C8
 10
0.0
 20
0.0
 30
0.0
 70
   128
 71
   172
 72
   173
 73
   174
 74
   171
  0
VERTEX
  8
RK-BIDET
  5
27C9
 10
0.0
 20
0.0
 30
0.0
 70
   128
 71
   175
 72
   176
 73
   173
 74
   172
  0
VERTEX
  8
RK-BIDET
  5
27CA
 10
0.0
 20
0.0
 30
0.0
 70
   128
 71
   177
 72
   178
 73
   176
 74
   175
  0
VERTEX
  8
RK-BIDET
  5
27CB
 10
0.0
 20
0.0
 30
0.0
 70
   128
 71
   179
 72
   180
 73
   178
 74
   177
  0
VERTEX
  8
RK-BIDET
  5
27CC
 10
0.0
 20
0.0
 30
0.0
 70
   128
 71
   141
 72
   144
 73
   180
 74
   179
  0
VERTEX
  8
RK-BIDET
  5
27CD
 10
0.0
 20
0.0
 30
0.0
 70
   128
 71
   181
 72
   182
 73
   143
 74
   142
  0
VERTEX
  8
RK-BIDET
  5
27CE
 10
0.0
 20
0.0
 30
0.0
 70
   128
 71
   154
 72
   157
 73
   182
 74
   181
  0
VERTEX
  8
RK-BIDET
  5
27CF
 10
0.0
 20
0.0
 30
0.0
 70
   128
 71
   184
 72
   108
 73
   106
 74
   183
  0
VERTEX
  8
RK-BIDET
  5
27D0
 10
0.0
 20
0.0
 30
0.0
 70
   128
 71
   186
 72
   126
 73
   125
 74
   185
  0
VERTEX
  8
RK-BIDET
  5
27D1
 10
0.0
 20
0.0
 30
0.0
 70
   128
 71
   187
 72
   128
 73
   126
 74
   186
  0
VERTEX
  8
RK-BIDET
  5
27D2
 10
0.0
 20
0.0
 30
0.0
 70
   128
 71
   189
 72
   138
 73
   140
 74
   188
  0
VERTEX
  8
RK-BIDET
  5
27D3
 10
0.0
 20
0.0
 30
0.0
 70
   128
 71
   190
 72
   139
 73
   138
 74
   189
  0
VERTEX
  8
RK-BIDET
  5
27D4
 10
0.0
 20
0.0
 30
0.0
 70
   128
 71
   191
 72
   102
 73
   128
 74
   187
  0
VERTEX
  8
RK-BIDET
  5
27D5
 10
0.0
 20
0.0
 30
0.0
 70
   128
 71
   192
 72
   103
 73
   102
 74
   191
  0
VERTEX
  8
RK-BIDET
  5
27D6
 10
0.0
 20
0.0
 30
0.0
 70
   128
 71
   183
 72
   106
 73
   103
 74
   192
  0
VERTEX
  8
RK-BIDET
  5
27D7
 10
0.0
 20
0.0
 30
0.0
 70
   128
 71
   193
 72
   115
 73
   108
 74
   184
  0
VERTEX
  8
RK-BIDET
  5
27D8
 10
0.0
 20
0.0
 30
0.0
 70
   128
 71
   194
 72
   114
 73
   115
 74
   193
  0
VERTEX
  8
RK-BIDET
  5
27D9
 10
0.0
 20
0.0
 30
0.0
 70
   128
 71
   188
 72
   140
 73
   114
 74
   194
  0
VERTEX
  8
RK-BIDET
  5
27DA
 10
0.0
 20
0.0
 30
0.0
 70
   128
 71
   -54
 72
   195
 73
  -196
 74
    55
  0
VERTEX
  8
RK-BIDET
  5
27DB
 10
0.0
 20
0.0
 30
0.0
 70
   128
 71
    54
 72
   -48
 73
   198
 74
  -197
  0
VERTEX
  8
RK-BIDET
  5
27DC
 10
0.0
 20
0.0
 30
0.0
 70
   128
 71
   197
 72
   198
 73
   200
 74
   199
  0
VERTEX
  8
RK-BIDET
  5
27DD
 10
0.0
 20
0.0
 30
0.0
 70
   128
 71
   198
 72
   201
 73
   202
 74
   200
  0
VERTEX
  8
RK-BIDET
  5
27DE
 10
0.0
 20
0.0
 30
0.0
 70
   128
 71
    48
 72
   -47
 73
   201
 74
  -198
  0
VERTEX
  8
RK-BIDET
  5
27DF
 10
0.0
 20
0.0
 30
0.0
 70
   128
 71
   204
 72
   205
 73
   206
 74
   203
  0
VERTEX
  8
RK-BIDET
  5
27E0
 10
0.0
 20
0.0
 30
0.0
 70
   128
 71
   208
 72
   209
 73
   210
 74
   207
  0
VERTEX
  8
RK-BIDET
  5
27E1
 10
0.0
 20
0.0
 30
0.0
 70
   128
 71
   203
 72
   206
 73
   209
 74
   208
  0
VERTEX
  8
RK-BIDET
  5
27E2
 10
0.0
 20
0.0
 30
0.0
 70
   128
 71
   209
 72
   200
 73
   211
 74
   210
  0
VERTEX
  8
RK-BIDET
  5
27E3
 10
0.0
 20
0.0
 30
0.0
 70
   128
 71
   206
 72
   202
 73
   200
 74
   209
  0
VERTEX
  8
RK-BIDET
  5
27E4
 10
0.0
 20
0.0
 30
0.0
 70
   128
 71
   -77
 72
   212
 73
  -213
 74
    74
  0
VERTEX
  8
RK-BIDET
  5
27E5
 10
0.0
 20
0.0
 30
0.0
 70
   128
 71
    72
 72
   -84
 73
   215
 74
  -214
  0
VERTEX
  8
RK-BIDET
  5
27E6
 10
0.0
 20
0.0
 30
0.0
 70
   128
 71
   214
 72
   215
 73
   217
 74
   216
  0
VERTEX
  8
RK-BIDET
  5
27E7
 10
0.0
 20
0.0
 30
0.0
 70
   128
 71
   219
 72
   214
 73
   216
 74
   218
  0
VERTEX
  8
RK-BIDET
  5
27E8
 10
0.0
 20
0.0
 30
0.0
 70
   128
 71
    73
 72
   -72
 73
   214
 74
  -219
  0
VERTEX
  8
RK-BIDET
  5
27E9
 10
0.0
 20
0.0
 30
0.0
 70
   128
 71
   221
 72
   222
 73
   223
 74
   220
  0
VERTEX
  8
RK-BIDET
  5
27EA
 10
0.0
 20
0.0
 30
0.0
 70
   128
 71
   224
 72
   225
 73
   222
 74
   221
  0
VERTEX
  8
RK-BIDET
  5
27EB
 10
0.0
 20
0.0
 30
0.0
 70
   128
 71
   226
 72
   227
 73
   225
 74
   224
  0
VERTEX
  8
RK-BIDET
  5
27EC
 10
0.0
 20
0.0
 30
0.0
 70
   128
 71
   225
 72
   216
 73
   218
 74
   222
  0
VERTEX
  8
RK-BIDET
  5
27ED
 10
0.0
 20
0.0
 30
0.0
 70
   128
 71
   227
 72
   228
 73
   216
 74
   225
  0
VERTEX
  8
RK-BIDET
  5
27EE
 10
0.0
 20
0.0
 30
0.0
 70
   128
 71
   230
 72
   231
 73
   232
 74
   229
  0
VERTEX
  8
RK-BIDET
  5
27EF
 10
0.0
 20
0.0
 30
0.0
 70
   128
 71
   233
 72
   234
 73
   231
 74
   230
  0
VERTEX
  8
RK-BIDET
  5
27F0
 10
0.0
 20
0.0
 30
0.0
 70
   128
 71
   236
 72
   237
 73
   238
 74
   235
  0
VERTEX
  8
RK-BIDET
  5
27F1
 10
0.0
 20
0.0
 30
0.0
 70
   128
 71
   235
 72
   238
 73
   234
 74
   233
  0
VERTEX
  8
RK-BIDET
  5
27F2
 10
0.0
 20
0.0
 30
0.0
 70
   128
 71
   239
 72
   240
 73
   235
 74
   236
  0
VERTEX
  8
RK-BIDET
  5
27F3
 10
0.0
 20
0.0
 30
0.0
 70
   128
 71
   240
 72
   241
 73
   233
 74
   235
  0
VERTEX
  8
RK-BIDET
  5
27F4
 10
0.0
 20
0.0
 30
0.0
 70
   128
 71
   241
 72
   242
 73
   230
 74
   233
  0
VERTEX
  8
RK-BIDET
  5
27F5
 10
0.0
 20
0.0
 30
0.0
 70
   128
 71
   242
 72
   243
 73
   229
 74
   230
  0
VERTEX
  8
RK-BIDET
  5
27F6
 10
0.0
 20
0.0
 30
0.0
 70
   128
 71
   243
 72
   244
 73
   245
 74
   229
  0
VERTEX
  8
RK-BIDET
  5
27F7
 10
0.0
 20
0.0
 30
0.0
 70
   128
 71
   247
 72
   248
 73
   249
 74
   246
  0
VERTEX
  8
RK-BIDET
  5
27F8
 10
0.0
 20
0.0
 30
0.0
 70
   128
 71
   250
 72
   251
 73
   248
 74
   247
  0
VERTEX
  8
RK-BIDET
  5
27F9
 10
0.0
 20
0.0
 30
0.0
 70
   128
 71
   253
 72
   254
 73
   255
 74
   252
  0
VERTEX
  8
RK-BIDET
  5
27FA
 10
0.0
 20
0.0
 30
0.0
 70
   128
 71
   246
 72
   249
 73
   254
 74
   253
  0
VERTEX
  8
RK-BIDET
  5
27FB
 10
0.0
 20
0.0
 30
0.0
 70
   128
 71
   253
 72
   256
 73
   257
 74
   252
  0
VERTEX
  8
RK-BIDET
  5
27FC
 10
0.0
 20
0.0
 30
0.0
 70
   128
 71
   246
 72
   258
 73
   256
 74
   253
  0
VERTEX
  8
RK-BIDET
  5
27FD
 10
0.0
 20
0.0
 30
0.0
 70
   128
 71
   247
 72
   259
 73
   258
 74
   246
  0
VERTEX
  8
RK-BIDET
  5
27FE
 10
0.0
 20
0.0
 30
0.0
 70
   128
 71
   250
 72
   260
 73
   259
 74
   247
  0
VERTEX
  8
RK-BIDET
  5
27FF
 10
0.0
 20
0.0
 30
0.0
 70
   128
 71
   261
 72
   262
 73
   260
 74
   250
  0
VERTEX
  8
RK-BIDET
  5
2800
 10
0.0
 20
0.0
 30
0.0
 70
   128
 71
   263
 72
   264
 73
   265
 74
   252
  0
VERTEX
  8
RK-BIDET
  5
2801
 10
0.0
 20
0.0
 30
0.0
 70
   128
 71
   252
 72
   265
 73
   237
 74
   266
  0
VERTEX
  8
RK-BIDET
  5
2802
 10
0.0
 20
0.0
 30
0.0
 70
   128
 71
   245
 72
   196
 73
   195
 74
   267
  0
VERTEX
  8
RK-BIDET
  5
2803
 10
0.0
 20
0.0
 30
0.0
 70
   128
 71
   217
 72
   213
 73
   212
 74
   261
  0
VERTEX
  8
RK-BIDET
  5
2804
 10
0.0
 20
0.0
 30
0.0
 70
   128
 71
   261
 72
   212
 73
   251
 74
   250
  0
VERTEX
  8
RK-BIDET
  5
2805
 10
0.0
 20
0.0
 30
0.0
 70
   128
 71
   229
 72
   232
 73
   196
 74
   245
  0
VERTEX
  8
RK-BIDET
  5
2806
 10
0.0
 20
0.0
 30
0.0
 70
   128
 71
   244
 72
   268
 73
   267
 74
   245
  0
VERTEX
  8
RK-BIDET
  5
2807
 10
0.0
 20
0.0
 30
0.0
 70
   128
 71
   217
 72
   269
 73
   262
 74
   261
  0
VERTEX
  8
RK-BIDET
  5
2808
 10
0.0
 20
0.0
 30
0.0
 70
   128
 71
   268
 72
   244
 73
   270
 74
   207
  0
VERTEX
  8
RK-BIDET
  5
2809
 10
0.0
 20
0.0
 30
0.0
 70
   128
 71
   244
 72
   243
 73
   271
 74
   270
  0
VERTEX
  8
RK-BIDET
  5
280A
 10
0.0
 20
0.0
 30
0.0
 70
   128
 71
   243
 72
   242
 73
   272
 74
   271
  0
VERTEX
  8
RK-BIDET
  5
280B
 10
0.0
 20
0.0
 30
0.0
 70
   128
 71
   242
 72
   241
 73
   273
 74
   272
  0
VERTEX
  8
RK-BIDET
  5
280C
 10
0.0
 20
0.0
 30
0.0
 70
   128
 71
   241
 72
   240
 73
   274
 74
   273
  0
VERTEX
  8
RK-BIDET
  5
280D
 10
0.0
 20
0.0
 30
0.0
 70
   128
 71
   240
 72
   239
 73
   275
 74
   274
  0
VERTEX
  8
RK-BIDET
  5
280E
 10
0.0
 20
0.0
 30
0.0
 70
   128
 71
   257
 72
   256
 73
   277
 74
   276
  0
VERTEX
  8
RK-BIDET
  5
280F
 10
0.0
 20
0.0
 30
0.0
 70
   128
 71
   256
 72
   258
 73
   278
 74
   277
  0
VERTEX
  8
RK-BIDET
  5
2810
 10
0.0
 20
0.0
 30
0.0
 70
   128
 71
   258
 72
   259
 73
   279
 74
   278
  0
VERTEX
  8
RK-BIDET
  5
2811
 10
0.0
 20
0.0
 30
0.0
 70
   128
 71
   259
 72
   260
 73
   280
 74
   279
  0
VERTEX
  8
RK-BIDET
  5
2812
 10
0.0
 20
0.0
 30
0.0
 70
   128
 71
   260
 72
   262
 73
   281
 74
   280
  0
VERTEX
  8
RK-BIDET
  5
2813
 10
0.0
 20
0.0
 30
0.0
 70
   128
 71
   262
 72
   269
 73
   226
 74
   281
  0
VERTEX
  8
RK-BIDET
  5
2814
 10
0.0
 20
0.0
 30
0.0
 70
   128
 71
   276
 72
   275
 73
   264
 74
   257
  0
VERTEX
  8
RK-BIDET
  5
2815
 10
0.0
 20
0.0
 30
0.0
 70
   128
 71
   -52
 72
   238
 73
  -237
 74
    49
  0
VERTEX
  8
RK-BIDET
  5
2816
 10
0.0
 20
0.0
 30
0.0
 70
   128
 71
   -58
 72
   234
 73
  -238
 74
    52
  0
VERTEX
  8
RK-BIDET
  5
2817
 10
0.0
 20
0.0
 30
0.0
 70
   128
 71
   -57
 72
   231
 73
  -234
 74
    58
  0
VERTEX
  8
RK-BIDET
  5
2818
 10
0.0
 20
0.0
 30
0.0
 70
   128
 71
   -56
 72
   232
 73
  -231
 74
    57
  0
VERTEX
  8
RK-BIDET
  5
2819
 10
0.0
 20
0.0
 30
0.0
 70
   128
 71
   -55
 72
   196
 73
  -232
 74
    56
  0
VERTEX
  8
RK-BIDET
  5
281A
 10
0.0
 20
0.0
 30
0.0
 70
   128
 71
   -83
 72
   251
 73
  -212
 74
    77
  0
VERTEX
  8
RK-BIDET
  5
281B
 10
0.0
 20
0.0
 30
0.0
 70
   128
 71
   -82
 72
   248
 73
  -251
 74
    83
  0
VERTEX
  8
RK-BIDET
  5
281C
 10
0.0
 20
0.0
 30
0.0
 70
   128
 71
   -81
 72
   249
 73
  -248
 74
    82
  0
VERTEX
  8
RK-BIDET
  5
281D
 10
0.0
 20
0.0
 30
0.0
 70
   128
 71
   -80
 72
   254
 73
  -249
 74
    81
  0
VERTEX
  8
RK-BIDET
  5
281E
 10
0.0
 20
0.0
 30
0.0
 70
   128
 71
  -282
 72
   255
 73
  -254
 74
    80
  0
VERTEX
  8
RK-BIDET
  5
281F
 10
0.0
 20
0.0
 30
0.0
 70
   128
 71
   237
 72
  -266
 73
    79
 74
  -283
  0
VERTEX
  8
RK-BIDET
  5
2820
 10
0.0
 20
0.0
 30
0.0
 70
   128
 71
   285
 72
   286
 73
   287
 74
   284
  0
VERTEX
  8
RK-BIDET
  5
2821
 10
0.0
 20
0.0
 30
0.0
 70
   128
 71
   288
 72
   289
 73
   286
 74
   285
  0
VERTEX
  8
RK-BIDET
  5
2822
 10
0.0
 20
0.0
 30
0.0
 70
   128
 71
   290
 72
   291
 73
   289
 74
   288
  0
VERTEX
  8
RK-BIDET
  5
2823
 10
0.0
 20
0.0
 30
0.0
 70
   128
 71
   292
 72
  -293
 73
   289
 74
  -291
  0
VERTEX
  8
RK-BIDET
  5
2824
 10
0.0
 20
0.0
 30
0.0
 70
   128
 71
   293
 72
  -294
 73
   286
 74
  -289
  0
VERTEX
  8
RK-BIDET
  5
2825
 10
0.0
 20
0.0
 30
0.0
 70
   128
 71
   296
 72
   297
 73
   298
 74
   295
  0
VERTEX
  8
RK-BIDET
  5
2826
 10
0.0
 20
0.0
 30
0.0
 70
   128
 71
   299
 72
   300
 73
   297
 74
   296
  0
VERTEX
  8
RK-BIDET
  5
2827
 10
0.0
 20
0.0
 30
0.0
 70
   128
 71
   295
 72
   298
 73
   302
 74
   301
  0
VERTEX
  8
RK-BIDET
  5
2828
 10
0.0
 20
0.0
 30
0.0
 70
   128
 71
   300
 72
   303
 73
  -304
  0
VERTEX
  8
RK-BIDET
  5
2829
 10
0.0
 20
0.0
 30
0.0
 70
   128
 71
   305
 72
   303
 73
   300
 74
   299
  0
VERTEX
  8
RK-BIDET
  5
282A
 10
0.0
 20
0.0
 30
0.0
 70
   128
 71
   304
 72
  -306
 73
   297
 74
  -300
  0
VERTEX
  8
RK-BIDET
  5
282B
 10
0.0
 20
0.0
 30
0.0
 70
   128
 71
   301
 72
   302
 73
   291
 74
   290
  0
VERTEX
  8
RK-BIDET
  5
282C
 10
0.0
 20
0.0
 30
0.0
 70
   128
 71
   307
 72
  -292
 73
   291
 74
  -302
  0
VERTEX
  8
RK-BIDET
  5
282D
 10
0.0
 20
0.0
 30
0.0
 70
   128
 71
   306
 72
  -308
 73
   298
 74
  -297
  0
VERTEX
  8
RK-BIDET
  5
282E
 10
0.0
 20
0.0
 30
0.0
 70
   128
 71
   308
 72
  -307
 73
   302
 74
  -298
  0
VERTEX
  8
RK-BIDET
  5
282F
 10
0.0
 20
0.0
 30
0.0
 70
   128
 71
  -310
 72
   311
 73
  -312
 74
   309
  0
VERTEX
  8
RK-BIDET
  5
2830
 10
0.0
 20
0.0
 30
0.0
 70
   128
 71
  -313
 72
   314
 73
  -311
 74
   310
  0
VERTEX
  8
RK-BIDET
  5
2831
 10
0.0
 20
0.0
 30
0.0
 70
   128
 71
   315
 72
   316
 73
   317
 74
   313
  0
VERTEX
  8
RK-BIDET
  5
2832
 10
0.0
 20
0.0
 30
0.0
 70
   128
 71
   313
 72
   310
 73
   318
 74
   315
  0
VERTEX
  8
RK-BIDET
  5
2833
 10
0.0
 20
0.0
 30
0.0
 70
   128
 71
   310
 72
   309
 73
   319
 74
   318
  0
VERTEX
  8
RK-BIDET
  5
2834
 10
0.0
 20
0.0
 30
0.0
 70
   128
 71
   322
 72
   320
 73
  -321
  0
VERTEX
  8
RK-BIDET
  5
2835
 10
0.0
 20
0.0
 30
0.0
 70
   128
 71
  -323
 72
   324
 73
  -322
 74
   321
  0
VERTEX
  8
RK-BIDET
  5
2836
 10
0.0
 20
0.0
 30
0.0
 70
   128
 71
   326
 72
   323
 73
   327
 74
   325
  0
VERTEX
  8
RK-BIDET
  5
2837
 10
0.0
 20
0.0
 30
0.0
 70
   128
 71
   323
 72
   321
 73
   328
 74
   327
  0
VERTEX
  8
RK-BIDET
  5
2838
 10
0.0
 20
0.0
 30
0.0
 70
   128
 71
   321
 72
   320
 73
   329
 74
   328
  0
VERTEX
  8
RK-BIDET
  5
2839
 10
0.0
 20
0.0
 30
0.0
 70
   128
 71
   331
 72
   326
 73
   325
 74
   330
  0
VERTEX
  8
RK-BIDET
  5
283A
 10
0.0
 20
0.0
 30
0.0
 70
   128
 71
  -309
 72
   312
 73
  -332
 74
   331
  0
VERTEX
  8
RK-BIDET
  5
283B
 10
0.0
 20
0.0
 30
0.0
 70
   128
 71
   309
 72
   331
 73
   330
 74
   319
  0
VERTEX
  8
RK-BIDET
  5
283C
 10
0.0
 20
0.0
 30
0.0
 70
   128
 71
  -326
 72
   333
 73
  -324
 74
   323
  0
VERTEX
  8
RK-BIDET
  5
283D
 10
0.0
 20
0.0
 30
0.0
 70
   128
 71
  -331
 72
   332
 73
  -333
 74
   326
  0
VERTEX
  8
RK-BIDET
  5
283E
 10
0.0
 20
0.0
 30
0.0
 70
   128
 71
   320
 72
   329
 73
   335
 74
   334
  0
VERTEX
  8
RK-BIDET
  5
283F
 10
0.0
 20
0.0
 30
0.0
 70
   128
 71
   336
 72
   337
 73
   338
 74
   303
  0
VERTEX
  8
RK-BIDET
  5
2840
 10
0.0
 20
0.0
 30
0.0
 70
   128
 71
   340
 72
   341
 73
   342
 74
   339
  0
VERTEX
  8
RK-BIDET
  5
2841
 10
0.0
 20
0.0
 30
0.0
 70
   128
 71
   344
 72
   345
 73
   346
 74
   343
  0
VERTEX
  8
RK-BIDET
  5
2842
 10
0.0
 20
0.0
 30
0.0
 70
   128
 71
   345
 72
   340
 73
   347
 74
   344
  0
VERTEX
  8
RK-BIDET
  5
2843
 10
0.0
 20
0.0
 30
0.0
 70
   128
 71
   185
 72
   125
 73
   205
 74
   204
  0
VERTEX
  8
RK-BIDET
  5
2844
 10
0.0
 20
0.0
 30
0.0
 70
   128
 71
   125
 72
   127
 73
   348
 74
   205
  0
VERTEX
  8
RK-BIDET
  5
2845
 10
0.0
 20
0.0
 30
0.0
 70
   128
 71
   220
 72
   223
 73
   139
 74
   190
  0
VERTEX
  8
RK-BIDET
  5
2846
 10
0.0
 20
0.0
 30
0.0
 70
   128
 71
   223
 72
   137
 73
   134
 74
   139
  0
VERTEX
  8
RK-BIDET
  5
2847
 10
0.0
 20
0.0
 30
0.0
 70
   128
 71
   201
 72
   122
 73
   121
 74
   202
  0
VERTEX
  8
RK-BIDET
  5
2848
 10
0.0
 20
0.0
 30
0.0
 70
   128
 71
   136
 72
   219
 73
   218
 74
   137
  0
VERTEX
  8
RK-BIDET
  5
2849
 10
0.0
 20
0.0
 30
0.0
 70
   128
 71
   316
 72
   170
 73
   162
 74
   317
  0
VERTEX
  8
RK-BIDET
  5
284A
 10
0.0
 20
0.0
 30
0.0
 70
   128
 71
  -317
 72
   349
 73
  -314
 74
   313
  0
VERTEX
  8
RK-BIDET
  5
284B
 10
0.0
 20
0.0
 30
0.0
 70
   128
 71
  -162
 72
   165
 73
  -349
 74
   317
  0
VERTEX
  8
RK-BIDET
  5
284C
 10
0.0
 20
0.0
 30
0.0
 70
   128
 71
   284
 72
   287
 73
   145
 74
   153
  0
VERTEX
  8
RK-BIDET
  5
284D
 10
0.0
 20
0.0
 30
0.0
 70
   128
 71
   294
 72
  -350
 73
   287
 74
  -286
  0
VERTEX
  8
RK-BIDET
  5
284E
 10
0.0
 20
0.0
 30
0.0
 70
   128
 71
   350
 72
  -146
 73
   145
 74
  -287
  0
VERTEX
  8
RK-BIDET
  5
284F
 10
0.0
 20
0.0
 30
0.0
 70
   128
 71
   205
 72
   348
 73
   202
 74
   206
  0
VERTEX
  8
RK-BIDET
  5
2850
 10
0.0
 20
0.0
 30
0.0
 70
   128
 71
   222
 72
   218
 73
   137
 74
   223
  0
VERTEX
  8
RK-BIDET
  5
2851
 10
0.0
 20
0.0
 30
0.0
 70
   128
 71
   352
 72
   346
 73
   343
 74
   351
  0
VERTEX
  8
RK-BIDET
  5
2852
 10
0.0
 20
0.0
 30
0.0
 70
   128
 71
   353
 72
   166
 73
   341
 74
   342
  0
VERTEX
  8
RK-BIDET
  5
2853
 10
0.0
 20
0.0
 30
0.0
 70
   128
 71
    13
 72
   -12
 73
   123
 74
  -122
  0
VERTEX
  8
RK-BIDET
  5
2854
 10
0.0
 20
0.0
 30
0.0
 70
   128
 71
    33
 72
   -32
 73
   136
 74
  -135
  0
VERTEX
  8
RK-BIDET
  5
2855
 10
0.0
 20
0.0
 30
0.0
 70
   128
 71
    47
 72
   -13
 73
   122
 74
  -201
  0
VERTEX
  8
RK-BIDET
  5
2856
 10
0.0
 20
0.0
 30
0.0
 70
   128
 71
    32
 72
   -73
 73
   219
 74
  -136
  0
SEQEND
  8
RK-BIDET
  5
2857
  0
INSERT
  8
0
  5
2858
  2
04864PLN
 10
0.0001422042730646
 20
6.0
 30
0.0
 50
270.0
  0
ARC
  8
RK-BIDET
  5
2859
 10
7.74046378733197
 20
-29.90747232906601
 30
0.0
 40
24.03248153871194
 50
84.39834406819207
 51
95.54347586020062
  0
ENDSEC
  0
EOF
