  0
SECTION
  2
HEADER
  9
$ACADVER
  1
AC1009
  9
$INSBASE
 10
651.1725709530732
 20
45.340765703012991
 30
0.0
  9
$EXTMIN
 10
632.45628696162305
 20
44.837426456351231
 30
0.0
  9
$EXTMAX
 10
651.17939106909421
 20
47.016336194925017
 30
0.0
  9
$LIMMIN
 10
0.0
 20
0.0
  9
$LIMMAX
 10
11.692913385800001
 20
8.2677165353999982
  9
$ORTHOMODE
 70
     0
  9
$REGENMODE
 70
     1
  9
$FILLMODE
 70
     1
  9
$QTEXTMODE
 70
     0
  9
$MIRRTEXT
 70
     0
  9
$DRAGMODE
 70
     2
  9
$LTSCALE
 40
0.6431102362
  9
$OSMODE
 70
  3071
  9
$ATTMODE
 70
     1
  9
$TEXTSIZE
 40
0.2
  9
$TRACEWID
 40
0.05
  9
$TEXTSTYLE
  7
STANDARD
  9
$CLAYER
  8
0
  9
$CELTYPE
  6
BYLAYER
  9
$CECOLOR
 62
   256
  9
$DIMSCALE
 40
1.0
  9
$DIMASZ
 40
0.1875
  9
$DIMEXO
 40
0.0625
  9
$DIMDLI
 40
0.4443307087
  9
$DIMRND
 40
0.0
  9
$DIMDLE
 40
0.0
  9
$DIMEXE
 40
0.125
  9
$DIMTP
 40
0.01
  9
$DIMTM
 40
0.01
  9
$DIMTXT
 40
2.0
  9
$DIMCEN
 40
0.1052362205
  9
$DIMTSZ
 40
0.0
  9
$DIMTOL
 70
     1
  9
$DIMLIM
 70
     0
  9
$DIMTIH
 70
     1
  9
$DIMTOH
 70
     1
  9
$DIMSE1
 70
     0
  9
$DIMSE2
 70
     0
  9
$DIMTAD
 70
     0
  9
$DIMZIN
 70
     0
  9
$DIMBLK
  1

  9
$DIMASO
 70
     1
  9
$DIMSHO
 70
     1
  9
$DIMPOST
  1
\X
  9
$DIMAPOST
  1

  9
$DIMALT
 70
     1
  9
$DIMALTD
 70
     2
  9
$DIMALTF
 40
25.399999999999999
  9
$DIMLFAC
 40
1.0
  9
$DIMTOFL
 70
     0
  9
$DIMTVP
 40
0.0
  9
$DIMTIX
 70
     0
  9
$DIMSOXD
 70
     0
  9
$DIMSAH
 70
     0
  9
$DIMBLK1
  1

  9
$DIMBLK2
  1

  9
$DIMSTYLE
  2
STANDARD
  9
$DIMCLRD
 70
     0
  9
$DIMCLRE
 70
     0
  9
$DIMCLRT
 70
     0
  9
$DIMTFAC
 40
1.0
  9
$DIMGAP
 40
0.09
  9
$LUNITS
 70
     2
  9
$LUPREC
 70
     4
  9
$SKETCHINC
 40
0.1
  9
$FILLETRAD
 40
0.0
  9
$AUNITS
 70
     0
  9
$AUPREC
 70
     0
  9
$MENU
  1
.
  9
$ELEVATION
 40
0.0
  9
$PELEVATION
 40
0.0
  9
$THICKNESS
 40
0.0
  9
$LIMCHECK
 70
     0
  9
$BLIPMODE
 70
     0
  9
$CHAMFERA
 40
0.0
  9
$CHAMFERB
 40
0.0
  9
$SKPOLY
 70
     0
  9
$TDCREATE
 40
2458071.6087475121
  9
$TDUPDATE
 40
2458298.6621191199
  9
$TDINDWG
 40
0.0512218171
  9
$TDUSRTIMER
 40
0.0512218171
  9
$USRTIMER
 70
     1
  9
$ANGBASE
 50
0.0
  9
$ANGDIR
 70
     0
  9
$PDMODE
 70
     0
  9
$PDSIZE
 40
0.3125
  9
$PLINEWID
 40
0.0
  9
$COORDS
 70
     1
  9
$SPLFRAME
 70
     0
  9
$SPLINETYPE
 70
     6
  9
$SPLINESEGS
 70
     8
  9
$ATTDIA
 70
     1
  9
$ATTREQ
 70
     1
  9
$HANDLING
 70
     1
  9
$HANDSEED
  5
18CF
  9
$SURFTAB1
 70
     6
  9
$SURFTAB2
 70
     6
  9
$SURFTYPE
 70
     6
  9
$SURFU
 70
     6
  9
$SURFV
 70
     6
  9
$UCSNAME
  2

  9
$UCSORG
 10
0.0
 20
0.0
 30
0.0
  9
$UCSXDIR
 10
1.0
 20
0.0
 30
0.0
  9
$UCSYDIR
 10
0.0
 20
1.0
 30
0.0
  9
$PUCSNAME
  2

  9
$PUCSORG
 10
0.0
 20
0.0
 30
0.0
  9
$PUCSXDIR
 10
1.0
 20
0.0
 30
0.0
  9
$PUCSYDIR
 10
0.0
 20
1.0
 30
0.0
  9
$USERI1
 70
     0
  9
$USERI2
 70
     0
  9
$USERI3
 70
     0
  9
$USERI4
 70
     0
  9
$USERI5
 70
     0
  9
$USERR1
 40
0.0
  9
$USERR2
 40
0.0
  9
$USERR3
 40
0.0
  9
$USERR4
 40
0.0
  9
$USERR5
 40
0.0
  9
$WORLDVIEW
 70
     1
  9
$SHADEDGE
 70
     3
  9
$SHADEDIF
 70
    70
  9
$TILEMODE
 70
     1
  9
$MAXACTVP
 70
    64
  9
$PLIMCHECK
 70
     0
  9
$PEXTMIN
 10
1.0000000000000000E+020
 20
1.0000000000000000E+020
 30
1.0000000000000000E+020
  9
$PEXTMAX
 10
-1.0000000000000000E+020
 20
-1.0000000000000000E+020
 30
-1.0000000000000000E+020
  9
$PLIMMIN
 10
0.0
 20
0.0
  9
$PLIMMAX
 10
12.0
 20
9.0
  9
$UNITMODE
 70
     0
  9
$VISRETAIN
 70
     1
  9
$PLINEGEN
 70
     0
  9
$PSLTSCALE
 70
     1
  0
ENDSEC
  0
SECTION
  2
TABLES
  0
TABLE
  2
VPORT
 70
     1
  0
VPORT
  2
*ACTIVE
 70
     0
 10
0.0
 20
0.0
 11
1.0
 21
1.0
 12
0.0
 22
0.0
 13
0.0
 23
0.0
 14
1.0
 24
1.0
 15
0.0
 25
0.0
 16
0.0
 26
0.0
 36
53.051208423899432
 17
641.81783901535869
 27
45.926881325638121
 37
0.0
 40
18.84946352202256
 41
2.1006711409395971
 42
50.0
 43
0.0
 44
0.0
 50
0.0
 51
0.0
 71
     0
 72
   100
 73
     1
 74
     1
 75
     0
 76
     0
 77
     0
 78
     0
  0
ENDTAB
  0
TABLE
  2
LTYPE
 70
     2
  0
LTYPE
  2
CONTINUOUS
 70
     0
  3
Solid line
 72
    65
 73
     0
 40
0.0
  0
LTYPE
  2
PHANTOM2
 70
     0
  3
___ _ _ ___ _ _ ___ _ _ ___ _ _
 72
    65
 73
     6
 40
1.25
 49
0.625
 49
-0.125
 49
0.125
 49
-0.125
 49
0.125
 49
-0.125
  0
ENDTAB
  0
TABLE
  2
LAYER
 70
     2
  0
LAYER
  2
0
 70
     0
 62
   255
  6
CONTINUOUS
  0
LAYER
  2
DEFPOINTS
 70
     0
 62
     7
  6
CONTINUOUS
  0
ENDTAB
  0
TABLE
  2
STYLE
 70
     1
  0
STYLE
  2
STANDARD
 70
     0
 40
0.0
 41
0.8
 50
0.0
 71
     0
 42
0.2
  3
txt
  4

  0
ENDTAB
  0
TABLE
  2
VIEW
 70
     0
  0
ENDTAB
  0
TABLE
  2
UCS
 70
     0
  0
ENDTAB
  0
TABLE
  2
APPID
 70
     9
  0
APPID
  2
ACAD
 70
     0
  0
APPID
  2
ACAD_MLEADERVER
 70
     0
  0
APPID
  2
ACAD_EXEMPT_FROM_CAD_STANDARDS
 70
     0
  0
APPID
  2
ACAD_NAV_VCDISPLAY
 70
     0
  0
APPID
  2
ACAD_DSTYLE_DIMJAG
 70
     0
  0
APPID
  2
ACAD_DSTYLE_DIMTALN
 70
     0
  0
APPID
  2
ACAECLAYERSTANDARD
 70
     0
  0
APPID
  2
ACCMTRANSPARENCY
 70
     0
  0
APPID
  2
ACDBATTR
 70
     0
  0
ENDTAB
  0
TABLE
  2
DIMSTYLE
 70
     1
  0
DIMSTYLE
  2
STANDARD
 70
     0
  3

  4

  5

  6

  7

 40
1.0
 41
0.1875
 42
0.0625
 43
0.38
 44
0.125
 45
0.0
 46
0.0
 47
0.01
 48
0.01
140
0.15625
141
0.09
142
0.0
143
25.399999999999999
144
1.0
145
0.0
146
1.0
147
0.09
 71
     1
 72
     0
 73
     1
 74
     1
 75
     0
 76
     0
 77
     0
 78
     4
170
     0
171
     2
172
     0
173
     0
174
     0
175
     0
176
     0
177
     0
178
     0
  0
ENDTAB
  0
ENDSEC
  0
SECTION
  2
BLOCKS
  0
BLOCK
  8
0
  2
$MODEL_SPACE
 70
     0
 10
0.0
 20
0.0
 30
0.0
  3
$MODEL_SPACE
  1

  0
ENDBLK
  5
21
  8
0
  0
BLOCK
 67
     1
  8
0
  2
$PAPER_SPACE
 70
     0
 10
0.0
 20
0.0
 30
0.0
  3
$PAPER_SPACE
  1

  0
ENDBLK
  5
1D
 67
     1
  8
0
  0
ENDSEC
  0
SECTION
  2
ENTITIES
  0
ATTDEF
  5
105D
  8
DEFPOINTS
 10
651.16872440242776
 20
45.353339475935179
 30
0.0
 40
0.001
  1
K-4731-C
  3

  2
MODELNUMBER
 70
     0
1001
ACDBATTR
1070
     0
1070
     1
  0
ATTDEF
  5
105E
  8
DEFPOINTS
 10
651.16872440242776
 20
45.351672809268507
 30
0.0
 40
0.001
  1
STRONGHOLD
  3

  2
TRADENAME
 70
     0
1001
ACDBATTR
1070
     0
1070
     1
  0
ATTDEF
  5
105F
  8
DEFPOINTS
 10
651.16872440242776
 20
45.350006142601849
 30
0.0
 40
0.001
  1
TOILET SEAT
  3

  2
PRODUCT
 70
     0
1001
ACDBATTR
1070
     0
1070
     1
  0
ATTDEF
  5
1060
  8
DEFPOINTS
 10
651.16872440242776
 20
45.348339475935191
 30
0.0
 40
0.001
  1
PLASTIC
  3

  2
MATERIAL
 70
     0
1001
ACDBATTR
1070
     0
1070
     1
  0
ARC
  5
1777
  8
0
 10
650.92057717441389
 20
46.764334839276749
 30
0.0
 40
0.2520020933459135
 50
0.4654357023568436
 51
89.861364369283848
  0
LINE
  5
1778
  8
0
 10
651.1725709530732
 20
46.766381926903833
 30
0.0
 11
651.1725709530732
 21
45.880766281312319
 31
0.0
  0
ARC
  5
1779
  8
0
 10
650.74707092024414
 20
45.880274502090472
 30
0.0
 40
0.4255003170202688
 50
296.44533623787282
 51
0.0662205855330274
  0
ARC
  5
177A
  8
0
 10
650.74414892136735
 20
45.886149154401423
 30
0.0
 40
0.432061537730652
 50
255.25532537540431
 51
296.44533623787282
  0
ARC
  5
177B
  8
0
 10
664.41029235799988
 20
97.813400092850884
 30
0.0
 40
54.127525652079413
 50
254.74467461098439
 51
255.25532537540431
  0
ARC
  5
177C
  8
0
 10
649.84468604509198
 20
44.385765701052037
 30
0.0
 40
1.250000001999225
 50
75.000000107463933
 51
89.999967094663987
  0
ARC
  5
177D
  8
0
 10
646.58219382051868
 20
-36806.163985638159
 30
0.0
 40
36851.799895755597
 50
89.994927599814545
 51
90.015014994524364
  0
ARC
  5
177E
  8
0
 10
650.92518815861263
 20
46.695661593566648
 30
0.0
 40
0.3206995631192533
 50
90.714872963617225
 51
97.716717991829526
  0
ARC
  5
177F
  8
0
 10
646.77073395894445
 20
75.032229879749352
 30
0.0
 40
28.318813244425709
 50
277.94689600592977
 51
278.34783943297492
  0
ARC
  5
1780
  8
0
 10
642.42009536705359
 20
112.555271403042
 30
0.0
 40
66.088850170745985
 50
274.15727349867899
 51
277.1849117219848
  0
ARC
  5
1781
  8
0
 10
643.0564867084131
 20
103.13009792364331
 30
0.0
 40
56.642362031248361
 50
271.55343266676221
 51
274.20638963565852
  0
ARC
  5
1782
  8
0
 10
638.88764441078365
 20
594.18383622505507
 30
0.0
 40
547.70498947518865
 50
269.66981795685342
 51
270.5967487978395
  0
ARC
  5
1783
  8
0
 10
657.54888664496116
 20
-2841.6008880697691
 30
0.0
 40
2888.171236263905
 50
90.432821865103733
 51
90.472088053951907
  0
ARC
  5
1784
  8
0
 10
633.90692260190042
 20
55.254838811559488
 30
0.0
 40
8.7838925155697591
 50
266.68151675322821
 51
268.99003644621803
  0
ARC
  5
1785
  8
0
 10
633.29797392202101
 20
45.32333912890445
 30
0.0
 40
1.166671342388196
 50
85.059083777832527
 51
111.7410121918327
  0
ARC
  5
1786
  8
0
 10
633.08404949726685
 20
45.955541226780937
 30
0.0
 40
0.5014550087539936
 50
115.79689264614051
 51
159.02662868505101
  0
ARC
  5
1787
  8
0
 10
665.71209187915349
 20
33.448204733705722
 30
0.0
 40
35.444589038563088
 50
159.02662868505101
 51
159.7593361178001
  0
LINE
  5
1788
  8
0
 10
632.45628696162305
 20
45.710762843651267
 30
0.0
 11
632.45628723911545
 21
45.695765806250833
 31
0.0
  0
ARC
  5
1789
  8
0
 10
632.51628742137996
 20
45.695766158563572
 30
0.0
 40
0.0600004576580233
 50
180.0003362399147
 51
269.98467687900398
  0
LINE
  5
178A
  8
0
 10
632.51627137492312
 20
45.63576570305127
 30
0.0
 11
634.19299184557656
 21
45.635615722766822
 31
0.0
  0
ARC
  5
178B
  8
0
 10
634.18157236764557
 20
45.517906440032107
 30
0.0
 40
0.1182619115275102
 50
64.814933399319202
 51
84.458833485566856
  0
ARC
  5
178C
  8
0
 10
637.29574019438041
 20
51.36010370426213
 30
0.0
 40
6.5022604554462511
 50
241.88800922855259
 51
245.67702913447829
  0
ARC
  5
178D
  8
0
 10
635.26128287015774
 20
46.917750460236142
 30
0.0
 40
1.6164472359483411
 50
246.53342600419211
 51
261.60611115372922
  0
ARC
  5
178E
  8
0
 10
635.22464232548964
 20
46.833523014121937
 30
0.0
 40
1.527961102722067
 50
262.50433220341063
 51
269.06472712503148
  0
ARC
  5
178F
  8
0
 10
635.20355468691082
 20
47.067178966215728
 30
0.0
 40
1.761417703621883
 50
269.87466652862241
 51
280.43877296458999
  0
ARC
  5
1790
  8
0
 10
633.9529820568257
 20
53.014187369539123
 30
0.0
 40
7.8380634186269527
 50
281.55264098345731
 51
286.40307613985908
  0
ARC
  5
1791
  8
0
 10
637.91396400250994
 20
39.103761920080537
 30
0.0
 40
6.6259896382668284
 50
102.7217249431209
 51
105.2923613106589
  0
ARC
  5
1792
  8
0
 10
637.06788656979131
 20
42.970554869706007
 30
0.0
 40
2.667931161728315
 50
93.074987324349564
 51
103.2848884284128
  0
ARC
  5
1793
  8
0
 10
633.18694817899836
 20
46.101216438619304
 30
0.0
 40
0.3809456615189027
 50
99.069121578960235
 51
117.71051526307841
  0
ARC
  5
1794
  8
0
 10
633.04725738946433
 20
46.352591693639539
 30
0.0
 40
0.0936897678962632
 50
113.56133930268069
 51
137.36938364259089
  0
ARC
  5
1795
  8
0
 10
632.98906637322455
 20
46.404616188027227
 30
0.0
 40
0.0156831000779236
 50
133.22020768218289
 51
223.29627704741321
  0
ARC
  5
1796
  8
0
 10
633.04405174926865
 20
46.478023040248139
 30
0.0
 40
0.1072014672724308
 50
231.728199122441
 51
263.59002725874512
  0
ARC
  5
1797
  8
0
 10
633.35681336129574
 20
48.810229593777713
 30
0.0
 40
2.4602625350340941
 50
262.41540423366922
 51
269.62073909135592
  0
ARC
  5
1798
  8
0
 10
633.88002578129044
 20
111.5067987097113
 30
0.0
 40
65.159011231954253
 50
269.52560220532149
 51
271.5751361339108
  0
ARC
  5
1799
  8
0
 10
648.27487313138897
 20
-487.15213812424241
 30
0.0
 40
533.67339908892086
 50
90.599361446818676
 51
91.353280420571807
  0
ARC
  5
179A
  8
0
 10
650.64679847804496
 20
42.884714835175231
 30
0.0
 40
3.6943965690761389
 50
131.8705044810911
 51
147.56210887739229
  0
ARC
  5
179B
  8
0
 10
647.47619762044451
 20
44.899781241953661
 30
0.0
 40
0.0623576712168166
 50
270.5512054615603
 51
327.56256042746492
  0
LINE
  5
179C
  8
0
 10
647.47679751382304
 20
44.837426456351267
 30
0.0
 11
647.07392371465767
 21
44.837426456351267
 31
0.0
  0
ARC
  5
179D
  8
0
 10
646.07872580178821
 20
35.242385208812308
 30
0.0
 40
9.64651415941292
 50
84.078454126767468
 51
86.577067009732829
  0
ARC
  5
179E
  8
0
 10
637.31045528410732
 20
-111.13572225290361
 30
0.0
 40
156.2870027753894
 50
86.57230539380167
 51
87.798559935496328
  0
ARC
  5
179F
  8
0
 10
645.97979323437914
 20
114.3857575064974
 30
0.0
 40
69.401045763663546
 50
264.25487535907342
 51
267.79855993549643
  0
ARC
  5
17A0
  8
0
 10
612.33733754416608
 20
-170.67594608411659
 30
0.0
 40
217.65254714689851
 50
82.954909649220596
 51
83.479092818120264
  0
ARC
  5
17A1
  8
0
 10
636.30290369601698
 20
36.470510262161611
 30
0.0
 40
9.1290349141933387
 50
85.272975973699843
 51
88.206853643153096
  0
ARC
  5
17A2
  8
0
 10
634.05326927300621
 20
45.68800570495759
 30
0.0
 40
0.0549654272914339
 50
171.88309524438441
 51
251.88155008718559
  0
LINE
  5
17A3
  8
0
 10
633.99885448702298
 20
45.695766456451267
 30
0.0
 11
634.00233632559741
 21
45.850384635040861
 31
0.0
  0
ARC
  5
17A4
  8
0
 10
634.44928512185629
 20
45.636180603307899
 30
0.0
 40
0.4956275083634653
 50
102.3452609252021
 51
154.39352252877259
  0
ARC
  5
17A5
  8
0
 10
634.41803717787673
 20
45.665951588247552
 30
0.0
 40
0.4604982695116903
 50
89.851807054218327
 51
99.337825275159474
  0
ARC
  5
17A6
  8
0
 10
636.28729997549385
 20
-179149.69170604361
 30
0.0
 40
179195.81816409811
 50
89.999790562020024
 51
90.000597294218295
  0
ARC
  5
17A7
  8
0
 10
636.94926129367468
 20
45.635733822176029
 30
0.0
 40
0.4907719949893813
 50
70.582352937975244
 51
90.809321792490692
  0
ARC
  5
17A8
  8
0
 10
636.95528347233858
 20
45.675341299003748
 30
0.0
 40
0.4514773955716108
 50
22.81225154110254
 51
69.632036203340192
  0
ARC
  5
17A9
  8
0
 10
633.48411319104423
 20
46.410604385824051
 30
0.0
 40
3.9274935584253341
 50
349.73568615382948
 51
351.7993316014277
  0
LINE
  5
17AA
  8
0
 10
637.34875197682311
 20
45.710766756851271
 30
0.0
 11
637.34875344262309
 21
45.695765920251283
 31
0.0
  0
ARC
  5
17AB
  8
0
 10
637.48475873661425
 20
45.695779209947389
 30
0.0
 40
0.1360052946404559
 50
180.00559863130329
 51
199.30121783574029
  0
ARC
  5
17AC
  8
0
 10
637.38121919049615
 20
45.65955873608852
 30
0.0
 40
0.0263132138589803
 50
199.38553764335421
 51
250.4707689868261
  0
ARC
  5
17AD
  8
0
 10
636.56538183315581
 20
45.415125581923562
 30
0.0
 40
0.1879324052359086
 50
126.0389842450722
 51
161.99771500045401
  0
ARC
  5
17AE
  8
0
 10
636.16988481547844
 20
45.543647790888848
 30
0.0
 40
0.2279231576570324
 50
268.91229382446249
 51
341.9977150004537
  0
LINE
  5
17AF
  8
0
 10
636.16555816982645
 20
45.315765703102727
 30
0.0
 11
635.3905638128972
 21
45.315716744690413
 31
0.0
  0
ARC
  5
17B0
  8
0
 10
644.61849680303624
 20
45.458855818606978
 30
0.0
 40
0.1769191465177969
 50
90.591402278556004
 51
165.0751025097139
  0
ARC
  5
17B1
  8
0
 10
644.77061236808822
 20
45.418310207475862
 30
0.0
 40
0.3343456109799664
 50
165.0751025097139
 51
172.1156171558271
  0
ARC
  5
17B2
  8
0
 10
644.21489119532305
 20
45.503765703051272
 30
0.0
 40
0.2280000000000017
 50
289.41016392304169
 51
349.9999999999992
  0
ARC
  5
17B3
  8
0
 10
644.21489119532305
 20
45.5037657030513
 30
0.0
 40
0.2280000000000308
 50
270.0
 51
289.41016392303533
  0
LINE
  5
17B4
  8
0
 10
644.21489119532305
 20
45.275765703051277
 30
0.0
 11
643.80364189242312
 21
45.275765703051277
 31
0.0
  0
ARC
  5
17B5
  8
0
 10
643.80371158349442
 20
45.50385503853343
 30
0.0
 40
0.2280937794976366
 50
190.01863667786509
 51
269.98952014494517
  0
ARC
  5
17B6
  8
0
 10
813.22997898724304
 20
75.435103422586224
 30
0.0
 40
172.27791132137801
 50
189.98120623586769
 51
190.01863667786509
  0
ARC
  5
17B7
  8
0
 10
643.38927664669211
 20
45.545043916423431
 30
0.0
 40
0.172892761448747
 50
9.9812062358677363
 51
31.649978414902691
  0
ARC
  5
17B8
  8
0
 10
643.75058110953319
 20
45.468127395900297
 30
0.0
 40
0.168560361977139
 50
5.382057889107422
 51
84.125811588387577
  0
ARC
  5
17B9
  8
0
 10
644.13283706121194
 20
45.489773586099211
 30
0.0
 40
0.2145181015089654
 50
181.55888257740261
 51
266.04751838713219
  0
ARC
  5
17BA
  8
0
 10
637.43800196594236
 20
44.922632719855578
 30
0.0
 40
0.9301362834582544
 50
94.103139280668955
 51
113.30766741049899
  0
ARC
  5
17BB
  8
0
 10
635.46257414929926
 20
53.867890679742139
 30
0.0
 40
8.2491489465846843
 50
279.11892962460581
 51
281.2363548913554
  0
ARC
  5
17BC
  8
0
 10
638.41321520008955
 20
36.91443933361068
 30
0.0
 40
8.9605294188980036
 50
100.5673394806612
 51
105.8663826460336
  0
ARC
  5
17BD
  8
0
 10
635.08407560328601
 20
48.433250762764636
 30
0.0
 40
3.0300724319837942
 50
271.20296105297399
 51
286.87091137353991
  0
ARC
  5
17BE
  8
0
 10
635.25193601355068
 20
47.286595160427709
 30
0.0
 40
1.8856328372605711
 50
236.0182693761974
 51
266.83079950445398
  0
ARC
  5
17BF
  8
0
 10
634.26204898489004
 20
45.855257998549668
 30
0.0
 40
0.1469509226603689
 50
211.5797901774435
 51
244.1613014753753
  0
ARC
  5
17C0
  8
0
 10
634.07019155003422
 20
45.761409454544719
 30
0.0
 40
0.0687750542421896
 50
14.21843875123886
 51
47.131178009514862
  0
ARC
  5
17C1
  8
0
 10
634.02604060533622
 20
45.70652441710498
 30
0.0
 40
0.1391270708903067
 50
49.182783401299012
 51
78.414230434874924
  0
ARC
  5
17C2
  8
0
 10
633.98502875935878
 20
45.552261956456569
 30
0.0
 40
0.2986246529263549
 50
76.649749162740036
 51
86.677412588238241
  0
LINE
  5
17C3
  8
0
 10
649.8693001346054
 20
45.340765703012991
 30
0.0
 11
651.02010092680541
 21
45.340765703012991
 31
0.0
  0
LINE
  5
17C4
  8
0
 10
649.8693001346054
 20
45.340765703012991
 30
0.0
 11
649.89502059098095
 21
45.634751865302128
 31
0.0
  0
LINE
  5
17C5
  8
0
 10
651.00266207709899
 20
45.540092667887201
 30
0.0
 11
651.02010092680541
 21
45.340765703012991
 31
0.0
  0
ENDSEC
  0
EOF
