  0
SECTION
  2
HEADER
  9
$ACADVER
  1
AC1009
  9
$INSBASE
 10
646.18064036490375
 20
-19.6010169725498
 30
0.0
  9
$EXTMIN
 10
639.06402770125294
 20
-38.31603121261228
 30
0.0
  9
$EXTMAX
 10
653.29725302855456
 20
-19.594555539158701
 30
0.0
  9
$LIMMIN
 10
0.0
 20
0.0
  9
$LIMMAX
 10
11.692913385800001
 20
8.2677165353999982
  9
$ORTHOMODE
 70
     0
  9
$REGENMODE
 70
     1
  9
$FILLMODE
 70
     1
  9
$QTEXTMODE
 70
     0
  9
$MIRRTEXT
 70
     0
  9
$DRAGMODE
 70
     2
  9
$LTSCALE
 40
0.6431102362
  9
$OSMODE
 70
  3071
  9
$ATTMODE
 70
     1
  9
$TEXTSIZE
 40
0.2
  9
$TRACEWID
 40
0.05
  9
$TEXTSTYLE
  7
STANDARD
  9
$CLAYER
  8
0
  9
$CELTYPE
  6
BYLAYER
  9
$CECOLOR
 62
   256
  9
$DIMSCALE
 40
1.0
  9
$DIMASZ
 40
0.1875
  9
$DIMEXO
 40
0.0625
  9
$DIMDLI
 40
0.4443307087
  9
$DIMRND
 40
0.0
  9
$DIMDLE
 40
0.0
  9
$DIMEXE
 40
0.125
  9
$DIMTP
 40
0.01
  9
$DIMTM
 40
0.01
  9
$DIMTXT
 40
2.0
  9
$DIMCEN
 40
0.1052362205
  9
$DIMTSZ
 40
0.0
  9
$DIMTOL
 70
     1
  9
$DIMLIM
 70
     0
  9
$DIMTIH
 70
     1
  9
$DIMTOH
 70
     1
  9
$DIMSE1
 70
     0
  9
$DIMSE2
 70
     0
  9
$DIMTAD
 70
     0
  9
$DIMZIN
 70
     0
  9
$DIMBLK
  1

  9
$DIMASO
 70
     1
  9
$DIMSHO
 70
     1
  9
$DIMPOST
  1
\X
  9
$DIMAPOST
  1

  9
$DIMALT
 70
     1
  9
$DIMALTD
 70
     2
  9
$DIMALTF
 40
25.399999999999999
  9
$DIMLFAC
 40
1.0
  9
$DIMTOFL
 70
     0
  9
$DIMTVP
 40
0.0
  9
$DIMTIX
 70
     0
  9
$DIMSOXD
 70
     0
  9
$DIMSAH
 70
     0
  9
$DIMBLK1
  1

  9
$DIMBLK2
  1

  9
$DIMSTYLE
  2
STANDARD
  9
$DIMCLRD
 70
     0
  9
$DIMCLRE
 70
     0
  9
$DIMCLRT
 70
     0
  9
$DIMTFAC
 40
1.0
  9
$DIMGAP
 40
0.09
  9
$LUNITS
 70
     2
  9
$LUPREC
 70
     4
  9
$SKETCHINC
 40
0.1
  9
$FILLETRAD
 40
0.0
  9
$AUNITS
 70
     0
  9
$AUPREC
 70
     0
  9
$MENU
  1
.
  9
$ELEVATION
 40
0.0
  9
$PELEVATION
 40
0.0
  9
$THICKNESS
 40
0.0
  9
$LIMCHECK
 70
     0
  9
$BLIPMODE
 70
     0
  9
$CHAMFERA
 40
0.0
  9
$CHAMFERB
 40
0.0
  9
$SKPOLY
 70
     0
  9
$TDCREATE
 40
2458071.6087475121
  9
$TDUPDATE
 40
2458298.6807086109
  9
$TDINDWG
 40
0.0525904282
  9
$TDUSRTIMER
 40
0.0525904282
  9
$USRTIMER
 70
     1
  9
$ANGBASE
 50
0.0
  9
$ANGDIR
 70
     0
  9
$PDMODE
 70
     0
  9
$PDSIZE
 40
0.3125
  9
$PLINEWID
 40
0.0
  9
$COORDS
 70
     1
  9
$SPLFRAME
 70
     0
  9
$SPLINETYPE
 70
     6
  9
$SPLINESEGS
 70
     8
  9
$ATTDIA
 70
     1
  9
$ATTREQ
 70
     1
  9
$HANDLING
 70
     1
  9
$HANDSEED
  5
1AC1
  9
$SURFTAB1
 70
     6
  9
$SURFTAB2
 70
     6
  9
$SURFTYPE
 70
     6
  9
$SURFU
 70
     6
  9
$SURFV
 70
     6
  9
$UCSNAME
  2

  9
$UCSORG
 10
0.0
 20
0.0
 30
0.0
  9
$UCSXDIR
 10
1.0
 20
0.0
 30
0.0
  9
$UCSYDIR
 10
0.0
 20
1.0
 30
0.0
  9
$PUCSNAME
  2

  9
$PUCSORG
 10
0.0
 20
0.0
 30
0.0
  9
$PUCSXDIR
 10
1.0
 20
0.0
 30
0.0
  9
$PUCSYDIR
 10
0.0
 20
1.0
 30
0.0
  9
$USERI1
 70
     0
  9
$USERI2
 70
     0
  9
$USERI3
 70
     0
  9
$USERI4
 70
     0
  9
$USERI5
 70
     0
  9
$USERR1
 40
0.0
  9
$USERR2
 40
0.0
  9
$USERR3
 40
0.0
  9
$USERR4
 40
0.0
  9
$USERR5
 40
0.0
  9
$WORLDVIEW
 70
     1
  9
$SHADEDGE
 70
     3
  9
$SHADEDIF
 70
    70
  9
$TILEMODE
 70
     1
  9
$MAXACTVP
 70
    64
  9
$PLIMCHECK
 70
     0
  9
$PEXTMIN
 10
1.0000000000000000E+020
 20
1.0000000000000000E+020
 30
1.0000000000000000E+020
  9
$PEXTMAX
 10
-1.0000000000000000E+020
 20
-1.0000000000000000E+020
 30
-1.0000000000000000E+020
  9
$PLIMMIN
 10
0.0
 20
0.0
  9
$PLIMMAX
 10
12.0
 20
9.0
  9
$UNITMODE
 70
     0
  9
$VISRETAIN
 70
     1
  9
$PLINEGEN
 70
     0
  9
$PSLTSCALE
 70
     1
  0
ENDSEC
  0
SECTION
  2
TABLES
  0
TABLE
  2
VPORT
 70
     1
  0
VPORT
  2
*ACTIVE
 70
     0
 10
0.0
 20
0.0
 11
1.0
 21
1.0
 12
0.0
 22
0.0
 13
0.0
 23
0.0
 14
1.0
 24
1.0
 15
0.0
 25
0.0
 16
0.0
 26
0.0
 36
66.195034497919707
 17
646.18064036490375
 27
-28.95651085824062
 37
0.0
 40
23.519556390452721
 41
2.1006711409395971
 42
50.0
 43
0.0
 44
0.0
 50
0.0
 51
0.0
 71
     0
 72
   100
 73
     1
 74
     1
 75
     0
 76
     0
 77
     0
 78
     0
  0
ENDTAB
  0
TABLE
  2
LTYPE
 70
     2
  0
LTYPE
  2
CONTINUOUS
 70
     0
  3
Solid line
 72
    65
 73
     0
 40
0.0
  0
LTYPE
  2
PHANTOM2
 70
     0
  3
___ _ _ ___ _ _ ___ _ _ ___ _ _
 72
    65
 73
     6
 40
1.25
 49
0.625
 49
-0.125
 49
0.125
 49
-0.125
 49
0.125
 49
-0.125
  0
ENDTAB
  0
TABLE
  2
LAYER
 70
     2
  0
LAYER
  2
0
 70
     0
 62
   255
  6
CONTINUOUS
  0
LAYER
  2
DEFPOINTS
 70
     0
 62
     7
  6
CONTINUOUS
  0
ENDTAB
  0
TABLE
  2
STYLE
 70
     1
  0
STYLE
  2
STANDARD
 70
     0
 40
0.0
 41
0.8
 50
0.0
 71
     0
 42
0.2
  3
txt
  4

  0
ENDTAB
  0
TABLE
  2
VIEW
 70
     0
  0
ENDTAB
  0
TABLE
  2
UCS
 70
     0
  0
ENDTAB
  0
TABLE
  2
APPID
 70
     9
  0
APPID
  2
ACAD
 70
     0
  0
APPID
  2
ACAD_MLEADERVER
 70
     0
  0
APPID
  2
ACAD_EXEMPT_FROM_CAD_STANDARDS
 70
     0
  0
APPID
  2
ACAD_NAV_VCDISPLAY
 70
     0
  0
APPID
  2
ACAD_DSTYLE_DIMJAG
 70
     0
  0
APPID
  2
ACAD_DSTYLE_DIMTALN
 70
     0
  0
APPID
  2
ACAECLAYERSTANDARD
 70
     0
  0
APPID
  2
ACCMTRANSPARENCY
 70
     0
  0
APPID
  2
ACDBATTR
 70
     0
  0
ENDTAB
  0
TABLE
  2
DIMSTYLE
 70
     1
  0
DIMSTYLE
  2
STANDARD
 70
     0
  3

  4

  5

  6

  7

 40
1.0
 41
0.1875
 42
0.0625
 43
0.38
 44
0.125
 45
0.0
 46
0.0
 47
0.01
 48
0.01
140
0.15625
141
0.09
142
0.0
143
25.399999999999999
144
1.0
145
0.0
146
1.0
147
0.09
 71
     1
 72
     0
 73
     1
 74
     1
 75
     0
 76
     0
 77
     0
 78
     4
170
     0
171
     2
172
     0
173
     0
174
     0
175
     0
176
     0
177
     0
178
     0
  0
ENDTAB
  0
ENDSEC
  0
SECTION
  2
BLOCKS
  0
BLOCK
  8
0
  2
$MODEL_SPACE
 70
     0
 10
0.0
 20
0.0
 30
0.0
  3
$MODEL_SPACE
  1

  0
ENDBLK
  5
21
  8
0
  0
BLOCK
 67
     1
  8
0
  2
$PAPER_SPACE
 70
     0
 10
0.0
 20
0.0
 30
0.0
  3
$PAPER_SPACE
  1

  0
ENDBLK
  5
1D
 67
     1
  8
0
  0
ENDSEC
  0
SECTION
  2
ENTITIES
  0
ATTDEF
  5
105D
  8
DEFPOINTS
 10
646.17758302265042
 20
-19.595555539158699
 30
0.0
 40
0.001
  1
K-4731-C
  3

  2
MODELNUMBER
 70
     0
1001
ACDBATTR
1070
     0
1070
     1
  0
ATTDEF
  5
105E
  8
DEFPOINTS
 10
646.17758302265042
 20
-19.597222205825371
 30
0.0
 40
0.001
  1
STRONGHOLD
  3

  2
TRADENAME
 70
     0
1001
ACDBATTR
1070
     0
1070
     1
  0
ATTDEF
  5
105F
  8
DEFPOINTS
 10
646.17758302265042
 20
-19.59888887249204
 30
0.0
 40
0.001
  1
TOILET SEAT
  3

  2
PRODUCT
 70
     0
1001
ACDBATTR
1070
     0
1070
     1
  0
ATTDEF
  5
1060
  8
DEFPOINTS
 10
646.17758302265042
 20
-19.600555539158702
 30
0.0
 40
0.001
  1
PLASTIC
  3

  2
MATERIAL
 70
     0
1001
ACDBATTR
1070
     0
1070
     1
  0
ARC
  5
19BC
  8
0
 10
645.96802097920897
 20
-26.95559861448038
 30
0.0
 40
3.2048536410323338
 50
86.196036083284525
 51
144.55797333549401
  0
ARC
  5
19BD
  8
0
 10
649.87332315666754
 20
-29.009546871840381
 30
0.0
 40
7.600586256646273
 50
149.01948658610601
 51
188.8250540964242
  0
ARC
  5
19BE
  8
0
 10
652.74497127602581
 20
-28.878599968167318
 30
0.0
 40
10.462955677741339
 50
187.12084060901319
 51
210.72279861060699
  0
ARC
  5
19BF
  8
0
 10
638.67755631588773
 20
-37.424018769044878
 30
0.0
 40
5.997924684546847
 50
9.4722735860294573
 51
32.244033909835622
  0
ARC
  5
19C0
  8
0
 10
642.07021234017725
 20
-36.970068595188359
 30
0.0
 40
2.5791907479675249
 50
341.76657761834463
 51
11.92929237891018
  0
ARC
  5
19C1
  8
0
 10
643.57593081702055
 20
-37.515908335489108
 30
0.0
 40
0.979430894161678
 50
313.76377547266929
 51
344.535256443516
  0
ARC
  5
19C2
  8
0
 10
643.91312354126489
 20
-37.662927533743833
 30
0.0
 40
0.6555484859160914
 50
248.6307371293841
 51
301.26897520608441
  0
ARC
  5
19C3
  8
0
 10
644.65999995611037
 20
-35.907123050898058
 30
0.0
 40
2.5633950991612782
 50
225.8283031069285
 51
247.3844407465179
  0
ARC
  5
19C4
  8
0
 10
652.06572401151027
 20
-28.605078095378079
 30
0.0
 40
12.963141140741159
 50
197.0264734481714
 51
224.83975428060461
  0
ARC
  5
19C5
  8
0
 10
652.63288460343131
 20
-29.75298373158811
 30
0.0
 40
13.769850990433641
 50
148.57553201373511
 51
164.52408239255109
  0
ARC
  5
19C6
  8
0
 10
632.960770647152
 20
-17.855817102527531
 30
0.0
 40
9.2203839180520575
 50
329.22393341729219
 51
340.53702848147498
  0
ARC
  5
19C7
  8
0
 10
638.45590733044105
 20
-19.950943345936249
 30
0.0
 40
3.3442852549644919
 50
343.01237772783043
 51
358.02152303353603
  0
ARC
  5
19C8
  8
0
 10
642.23406316759417
 20
-20.074937008483861
 30
0.0
 40
0.43594778617914
 50
123.6495221461433
 51
178.878149375839
  0
ARC
  5
19C9
  8
0
 10
642.50943586683218
 20
-20.790132406735889
 30
0.0
 40
1.19562371648675
 50
95.980958124709957
 51
115.61723409908851
  0
ARC
  5
19CA
  8
0
 10
642.50498729114668
 20
-20.14774472345276
 30
0.0
 40
0.5597706301516938
 50
102.39270774674991
 51
171.9715969564387
  0
ARC
  5
19CB
  8
0
 10
637.45098558634447
 20
-19.740139763714691
 30
0.0
 40
4.5117599362285263
 50
334.60523727033359
 51
355.8128351833825
  0
ARC
  5
19CC
  8
0
 10
670.99811254731958
 20
-38.183272996307252
 30
0.0
 40
33.77989079139946
 50
150.74478744505191
 51
158.86342201448289
  0
ARC
  5
19CD
  8
0
 10
650.89458215024638
 20
-28.734164696359869
 30
0.0
 40
11.726376472659579
 50
166.5291763985596
 51
201.61275305209989
  0
ARC
  5
19CE
  8
0
 10
651.78860416550594
 20
-28.863291593208821
 30
0.0
 40
12.51804973472389
 50
199.55563499451949
 51
224.07838682765069
  0
ARC
  5
19CF
  8
0
 10
644.71758732629246
 20
-35.561211467827221
 30
0.0
 40
2.7810236172042599
 50
226.28720118257709
 51
243.3032971473198
  0
ARC
  5
19D0
  8
0
 10
643.89806368616632
 20
-37.23830501991533
 30
0.0
 40
0.9147755485234281
 50
241.96885230099241
 51
281.13764225964883
  0
ARC
  5
19D1
  8
0
 10
643.90225132650846
 20
-37.572500570610657
 30
0.0
 40
0.5891743160530581
 50
287.02629481965892
 51
353.34953668426112
  0
ARC
  5
19D2
  8
0
 10
641.25611027813602
 20
-36.935865538628128
 30
0.0
 40
3.3073355182742752
 50
347.69458252088202
 51
15.749828969312739
  0
ARC
  5
19D3
  8
0
 10
637.66283692055879
 20
-37.763184328399731
 30
0.0
 40
6.9925623911321138
 50
14.282225918771861
 51
29.516926659140111
  0
ARC
  5
19D4
  8
0
 10
652.8750215429377
 20
-29.081081508807522
 30
0.0
 40
10.52291370997656
 50
197.6491848736791
 51
209.84636999099391
  0
ARC
  5
19D6
  8
0
 10
656.49229320420818
 20
-29.356791296361649
 30
0.0
 40
17.440833093519998
 50
169.1666331135134
 51
177.8247653568485
  0
ARC
  5
19D7
  8
0
 10
651.72820078232462
 20
-28.524189350339299
 30
0.0
 40
12.66532237622809
 50
180.7718778497316
 51
197.82348385639619
  0
ARC
  5
19D8
  8
0
 10
646.3932597505983
 20
-26.95559861448038
 30
0.0
 40
3.2048536410323338
 50
35.442026664505967
 51
93.803963916715475
  0
ARC
  5
19D9
  8
0
 10
642.48795757313985
 20
-29.009546871840381
 30
0.0
 40
7.600586256646273
 50
351.17494590357569
 51
30.98051341389392
  0
ARC
  5
19DA
  8
0
 10
639.61630945378158
 20
-28.878599968167318
 30
0.0
 40
10.462955677741339
 50
329.27720138939299
 51
352.87915939098679
  0
ARC
  5
19DB
  8
0
 10
653.68372441391966
 20
-37.424018769044878
 30
0.0
 40
5.997924684546847
 50
147.75596609016429
 51
170.5277264139705
  0
ARC
  5
19DC
  8
0
 10
650.29106838963014
 20
-36.970068595188359
 30
0.0
 40
2.5791907479675249
 50
168.07070762108981
 51
198.2334223816554
  0
ARC
  5
19DD
  8
0
 10
648.78534991278696
 20
-37.515908335489108
 30
0.0
 40
0.979430894161678
 50
195.46474355648411
 51
226.23622452733071
  0
ARC
  5
19DE
  8
0
 10
648.4481571885425
 20
-37.662927533743833
 30
0.0
 40
0.6555484859160914
 50
238.73102479391559
 51
291.36926287061601
  0
ARC
  5
19DF
  8
0
 10
647.70128077369691
 20
-35.907123050898058
 30
0.0
 40
2.5633950991612782
 50
292.61555925348222
 51
314.1716968930715
  0
ARC
  5
19E0
  8
0
 10
640.29555671829701
 20
-28.605078095378079
 30
0.0
 40
12.963141140741159
 50
315.16024571939528
 51
321.12907769197119
  0
ARC
  5
19E1
  8
0
 10
640.29555671829701
 20
-28.605078095378079
 30
0.0
 40
12.963141140741159
 50
338.21131627285939
 51
342.97352655182863
  0
ARC
  5
19E2
  8
0
 10
639.72839612637597
 20
-29.75298373158811
 30
0.0
 40
13.769850990433641
 50
15.47591760744888
 51
31.42446798626484
  0
ARC
  5
19E3
  8
0
 10
659.40051008265539
 20
-17.855817102527531
 30
0.0
 40
9.2203839180520575
 50
199.46297151852511
 51
210.77606658270781
  0
ARC
  5
19E4
  8
0
 10
653.90537339936634
 20
-19.950943345936249
 30
0.0
 40
3.3442852549644919
 50
181.978476966464
 51
196.9876222721696
  0
ARC
  5
19E5
  8
0
 10
650.12721756221322
 20
-20.074937008483861
 30
0.0
 40
0.43594778617914
 50
1.1218506241609301
 51
56.350477853856653
  0
ARC
  5
19E6
  8
0
 10
649.85184486297521
 20
-20.790132406735889
 30
0.0
 40
1.19562371648675
 50
64.382765900911437
 51
84.019041875290029
  0
ARC
  5
19E7
  8
0
 10
649.8562934386606
 20
-20.14774472345276
 30
0.0
 40
0.5597706301516938
 50
8.028403043561239
 51
77.607292253250094
  0
ARC
  5
19E8
  8
0
 10
654.9102951434628
 20
-19.740139763714691
 30
0.0
 40
4.5117599362285263
 50
184.1871648166175
 51
205.39476272966641
  0
ARC
  5
19E9
  8
0
 10
621.36316818248793
 20
-38.183272996307252
 30
0.0
 40
33.77989079139946
 50
21.136577985517089
 51
29.255212554948059
  0
ARC
  5
19EA
  8
0
 10
641.46669857956101
 20
-28.734164696359869
 30
0.0
 40
11.726376472659579
 50
338.3872469479
 51
13.470823601440401
  0
ARC
  5
19EB
  8
0
 10
640.57267656430145
 20
-28.863291593208821
 30
0.0
 40
12.51804973472389
 50
315.92161317234928
 51
340.44436500548051
  0
ARC
  5
19EC
  8
0
 10
647.64369340351482
 20
-35.561211467827221
 30
0.0
 40
2.7810236172042599
 50
296.69670285268018
 51
313.71279881742288
  0
ARC
  5
19ED
  8
0
 10
648.46321704364107
 20
-37.23830501991533
 30
0.0
 40
0.9147755485234281
 50
258.86235774035117
 51
298.03114769900759
  0
ARC
  5
19EE
  8
0
 10
648.45902940329893
 20
-37.572500570610657
 30
0.0
 40
0.5891743160530581
 50
186.6504633157389
 51
252.97370518034111
  0
ARC
  5
19EF
  8
0
 10
651.10517045167126
 20
-36.935865538628128
 30
0.0
 40
3.3073355182742752
 50
164.2501710306872
 51
192.30541747911789
  0
ARC
  5
19F0
  8
0
 10
654.69844380924849
 20
-37.763184328399731
 30
0.0
 40
6.9925623911321138
 50
150.4830733408599
 51
165.7177740812281
  0
ARC
  5
19F1
  8
0
 10
639.48625918686957
 20
-29.081081508807522
 30
0.0
 40
10.52291370997656
 50
330.15363000900601
 51
342.35081512632092
  0
ARC
  5
19F2
  8
0
 10
635.8689875255991
 20
-29.356791296361649
 30
0.0
 40
17.440833093519998
 50
2.1752346431514211
 51
10.83336688648653
  0
ARC
  5
19F3
  8
0
 10
640.63307994748288
 20
-28.524189350339299
 30
0.0
 40
12.66532237622809
 50
342.17651614360381
 51
359.22812215026829
  0
LINE
  5
19F4
  8
0
 10
642.38485434490372
 20
-19.6010169725498
 30
0.0
 11
649.97642638490356
 21
-19.6010169725498
 31
0.0
  0
ARC
  5
19F5
  8
0
 10
652.8127854652995
 20
-33.53332690611753
 30
0.0
 40
0.4941232411300949
 50
166.35904602990169
 51
201.12176724692151
  0
ARC
  5
19F6
  8
0
 10
650.42788850679415
 20
-34.553018546286303
 30
0.0
 40
2.1000023798792302
 50
329.28514307332671
 51
23.62679345157667
  0
ARC
  5
19F7
  8
0
 10
650.42788872257597
 20
-34.553016176604373
 30
0.0
 40
2.1000034047209528
 50
285.50676085756328
 51
329.28508448230019
  0
ARC
  5
19F8
  8
0
 10
650.42789185998231
 20
-34.553026921095018
 30
0.0
 40
2.0999922125493371
 50
276.84512476477181
 51
285.50675674754598
  0
ARC
  5
19F9
  8
0
 10
650.84447914173222
 20
-37.57190934921379
 30
0.0
 40
0.9485503039139906
 50
100.09714812974249
 51
118.755143405558
  0
ENDSEC
  0
EOF
