  0
SECTION
  2
HEADER
  9
$ACADVER
  1
AC1009
  9
$INSBASE
 10
41.163158094000003
 20
10.98803702211835
 30
0.0
  9
$EXTMIN
 10
22.12788216177891
 20
10.78343795691841
 30
0.0
  9
$EXTMAX
 10
41.178186905105662
 20
13.02229233711358
 30
0.0
  9
$LIMMIN
 10
0.0
 20
0.0
  9
$LIMMAX
 10
22.0
 20
17.0
  9
$ORTHOMODE
 70
     0
  9
$REGENMODE
 70
     1
  9
$FILLMODE
 70
     1
  9
$QTEXTMODE
 70
     0
  9
$MIRRTEXT
 70
     0
  9
$DRAGMODE
 70
     2
  9
$LTSCALE
 40
1.2099999999999991
  9
$OSMODE
 70
  3071
  9
$ATTMODE
 70
     1
  9
$TEXTSIZE
 40
0.2
  9
$TRACEWID
 40
0.05
  9
$TEXTSTYLE
  7
STANDARD
  9
$CLAYER
  8
0
  9
$CELTYPE
  6
BYLAYER
  9
$CECOLOR
 62
   256
  9
$DIMSCALE
 40
1.0
  9
$DIMASZ
 40
0.1875
  9
$DIMEXO
 40
0.0625
  9
$DIMDLI
 40
0.8359999999999999
  9
$DIMRND
 40
0.0
  9
$DIMDLE
 40
0.0
  9
$DIMEXE
 40
0.125
  9
$DIMTP
 40
0.01
  9
$DIMTM
 40
0.01
  9
$DIMTXT
 40
0.15625
  9
$DIMCEN
 40
0.198
  9
$DIMTSZ
 40
0.0
  9
$DIMTOL
 70
     1
  9
$DIMLIM
 70
     0
  9
$DIMTIH
 70
     1
  9
$DIMTOH
 70
     1
  9
$DIMSE1
 70
     0
  9
$DIMSE2
 70
     0
  9
$DIMTAD
 70
     0
  9
$DIMZIN
 70
     0
  9
$DIMBLK
  1

  9
$DIMASO
 70
     1
  9
$DIMSHO
 70
     1
  9
$DIMPOST
  1

  9
$DIMAPOST
  1

  9
$DIMALT
 70
     0
  9
$DIMALTD
 70
     2
  9
$DIMALTF
 40
25.399999999999999
  9
$DIMLFAC
 40
1.0
  9
$DIMTOFL
 70
     0
  9
$DIMTVP
 40
0.0
  9
$DIMTIX
 70
     0
  9
$DIMSOXD
 70
     0
  9
$DIMSAH
 70
     0
  9
$DIMBLK1
  1

  9
$DIMBLK2
  1

  9
$DIMSTYLE
  2
STANDARD
  9
$DIMCLRD
 70
     0
  9
$DIMCLRE
 70
     0
  9
$DIMCLRT
 70
     0
  9
$DIMTFAC
 40
1.0
  9
$DIMGAP
 40
0.09
  9
$LUNITS
 70
     2
  9
$LUPREC
 70
     4
  9
$SKETCHINC
 40
0.1
  9
$FILLETRAD
 40
0.0
  9
$AUNITS
 70
     0
  9
$AUPREC
 70
     0
  9
$MENU
  1
.
  9
$ELEVATION
 40
0.0
  9
$PELEVATION
 40
0.0
  9
$THICKNESS
 40
0.0
  9
$LIMCHECK
 70
     0
  9
$BLIPMODE
 70
     0
  9
$CHAMFERA
 40
0.0
  9
$CHAMFERB
 40
0.0
  9
$SKPOLY
 70
     0
  9
$TDCREATE
 40
2457972.4696710068
  9
$TDUPDATE
 40
2457972.6356133558
  9
$TDINDWG
 40
0.1649761458
  9
$TDUSRTIMER
 40
0.1649761458
  9
$USRTIMER
 70
     1
  9
$ANGBASE
 50
0.0
  9
$ANGDIR
 70
     0
  9
$PDMODE
 70
     0
  9
$PDSIZE
 40
0.3125
  9
$PLINEWID
 40
0.0
  9
$COORDS
 70
     1
  9
$SPLFRAME
 70
     0
  9
$SPLINETYPE
 70
     6
  9
$SPLINESEGS
 70
     8
  9
$ATTDIA
 70
     1
  9
$ATTREQ
 70
     1
  9
$HANDLING
 70
     1
  9
$HANDSEED
  5
1379
  9
$SURFTAB1
 70
     6
  9
$SURFTAB2
 70
     6
  9
$SURFTYPE
 70
     6
  9
$SURFU
 70
     6
  9
$SURFV
 70
     6
  9
$UCSNAME
  2

  9
$UCSORG
 10
0.0
 20
0.0
 30
0.0
  9
$UCSXDIR
 10
1.0
 20
0.0
 30
0.0
  9
$UCSYDIR
 10
0.0
 20
1.0
 30
0.0
  9
$PUCSNAME
  2

  9
$PUCSORG
 10
0.0
 20
0.0
 30
0.0
  9
$PUCSXDIR
 10
1.0
 20
0.0
 30
0.0
  9
$PUCSYDIR
 10
0.0
 20
1.0
 30
0.0
  9
$USERI1
 70
     0
  9
$USERI2
 70
     0
  9
$USERI3
 70
     0
  9
$USERI4
 70
     0
  9
$USERI5
 70
     0
  9
$USERR1
 40
0.0
  9
$USERR2
 40
0.0
  9
$USERR3
 40
0.0
  9
$USERR4
 40
0.0
  9
$USERR5
 40
0.0
  9
$WORLDVIEW
 70
     1
  9
$SHADEDGE
 70
     3
  9
$SHADEDIF
 70
    70
  9
$TILEMODE
 70
     1
  9
$MAXACTVP
 70
    64
  9
$PLIMCHECK
 70
     0
  9
$PEXTMIN
 10
1.0000000000000000E+020
 20
1.0000000000000000E+020
 30
1.0000000000000000E+020
  9
$PEXTMAX
 10
-1.0000000000000000E+020
 20
-1.0000000000000000E+020
 30
-1.0000000000000000E+020
  9
$PLIMMIN
 10
0.0
 20
0.0
  9
$PLIMMAX
 10
12.0
 20
9.0
  9
$UNITMODE
 70
     0
  9
$VISRETAIN
 70
     1
  9
$PLINEGEN
 70
     0
  9
$PSLTSCALE
 70
     1
  0
ENDSEC
  0
SECTION
  2
TABLES
  0
TABLE
  2
VPORT
 70
     1
  0
VPORT
  2
*ACTIVE
 70
     0
 10
0.0
 20
0.0
 11
1.0
 21
1.0
 12
12.400491977101421
 22
-11.365437565152281
 13
0.0
 23
0.0
 14
1.0
 24
1.0
 15
0.0
 25
0.0
 16
-0.0000000000000249
 26
0.0
 36
108.0390691158137
 17
22.456923583863599
 27
23.103597484500131
 37
0.0
 40
24.804619790473499
 41
1.7101910828025471
 42
50.0
 43
0.0
 44
0.0
 50
0.0
 51
0.0
 71
     0
 72
   100
 73
     1
 74
     1
 75
     0
 76
     0
 77
     0
 78
     0
  0
ENDTAB
  0
TABLE
  2
LTYPE
 70
     8
  0
LTYPE
  2
CONTINUOUS
 70
     0
  3
Solid line
 72
    65
 73
     0
 40
0.0
  0
LTYPE
  2
PHANTOM2
 70
     0
  3
___ _ _ ___ _ _ ___ _ _ ___ _ _
 72
    65
 73
     6
 40
1.25
 49
0.625
 49
-0.125
 49
0.125
 49
-0.125
 49
0.125
 49
-0.125
  0
ENDTAB
  0
TABLE
  2
LAYER
 70
    12
  0
LAYER
  2
0
 70
     0
 62
     7
  6
CONTINUOUS
  0
LAYER
  2
DEFPOINTS
 70
     0
 62
     7
  6
CONTINUOUS
  0
ENDTAB
  0
TABLE
  2
STYLE
 70
     2
  0
STYLE
  2
STANDARD
 70
     0
 40
0.0
 41
0.8
 50
0.0
 71
     0
 42
0.2
  3
txt
  4

  0
ENDTAB
  0
TABLE
  2
VIEW
 70
    16
  0
ENDTAB
  0
TABLE
  2
UCS
 70
     0
  0
ENDTAB
  0
TABLE
  2
APPID
 70
     5
  0
APPID
  2
ACAD
 70
     0
  0
APPID
  2
ACAD_NAV_VCDISPLAY
 70
     0
  0
APPID
  2
ACAD_EXEMPT_FROM_CAD_STANDARDS
 70
     0
  0
APPID
  2
ACAD_MLEADERVER
 70
     0
  0
APPID
  2
AcDbAttr
 70
     0
  0
ENDTAB
  0
TABLE
  2
DIMSTYLE
 70
     2
  0
DIMSTYLE
  2
STANDARD
 70
     0
  3

  4

  5

  6

  7

 40
1.0
 41
0.1875
 42
0.0625
 43
0.38
 44
0.125
 45
0.0
 46
0.0
 47
0.01
 48
0.01
140
0.15625
141
0.09
142
0.0
143
25.399999999999999
144
1.0
145
0.0
146
1.0
147
0.09
 71
     1
 72
     0
 73
     1
 74
     1
 75
     0
 76
     0
 77
     0
 78
     4
170
     0
171
     2
172
     0
173
     0
174
     0
175
     0
176
     0
177
     0
178
     0
  0
ENDTAB
  0
ENDSEC
  0
SECTION
  2
BLOCKS
  0
BLOCK
  8
0
  2
$MODEL_SPACE
 70
     0
 10
0.0
 20
0.0
 30
0.0
  3
$MODEL_SPACE
  1

  0
ENDBLK
  5
21
  8
0
  0
BLOCK
 67
     1
  8
0
  2
$PAPER_SPACE
 70
     0
 10
0.0
 20
0.0
 30
0.0
  3
$PAPER_SPACE
  1

  0
ENDBLK
  5
1D
 67
     1
  8
0
  0
ENDSEC
  0
SECTION
  2
ENTITIES
  0
LINE
  5
D5F
  8
0
 10
22.580435828794439
 20
11.17416481728757
 30
0.0
 11
38.786622255614049
 21
11.172795373749359
 31
0.0
  0
LINE
  5
D6A
  8
0
 10
37.843139257399997
 20
11.973002532000001
 30
0.0
 11
22.771908798804031
 21
11.972462148315071
 31
0.0
  0
ARC
  5
10AD
  8
0
 10
22.772193515907482
 20
11.361509615861779
 30
0.0
 40
0.6109525987954471
 50
90.026701071417236
 51
93.409473078294567
  0
ARC
  5
10AE
  8
0
 10
22.737542324250011
 20
11.943131181783849
 30
0.0
 40
0.0282997424316313
 50
93.409473078291995
 51
102.4827321736167
  0
ARC
  5
10AF
  8
0
 10
22.731731426972171
 20
11.96921931241981
 30
0.0
 40
0.0015726885329137
 50
101.21822902694799
 51
129.4037943507609
  0
ARC
  5
10B0
  8
0
 10
22.730858704145682
 20
11.97028675848652
 30
0.0
 40
0.0001939207543696
 50
130.363986178777
 51
182.0155418927211
  0
LINE
  5
10B3
  8
0
 10
22.730664903365518
 20
11.970279938179679
 30
0.0
 11
22.530664145100001
 21
11.248760585099999
 31
0.0
  0
LINE
  5
10B4
  8
0
 10
22.530664145100001
 20
11.248760585099999
 30
0.0
 11
22.530660875599999
 21
11.224415104
 31
0.0
  0
ARC
  5
10B5
  8
0
 10
22.580942584215709
 20
11.224443980507649
 30
0.0
 40
0.0502817169075189
 50
180.03290464622069
 51
270.56777205704549
  0
ARC
  5
10B6
  8
0
 10
38.612960308475252
 20
13.2929777673377
 30
0.0
 40
2.1272827395449889
 50
274.68258477033868
 51
299.5720241455432
  0
ARC
  5
10B7
  8
0
 10
39.637991771896438
 20
11.48590456407506
 30
0.0
 40
0.0497363940407869
 50
299.93495550424882
 51
0.3591475827287754
  0
LINE
  5
10B8
  8
0
 10
39.687727188827111
 20
11.486216325061109
 30
0.0
 11
39.687352283040461
 21
11.546025269872381
 31
0.0
  0
LINE
  5
10B9
  8
0
 10
39.687352283040461
 20
11.546025269872381
 30
0.0
 11
39.642656508523679
 21
12.16084649023561
 31
0.0
  0
ARC
  5
10BA
  8
0
 10
39.375648244201408
 20
11.862846737236159
 30
0.0
 40
0.4001215640328883
 50
48.139608355576023
 51
125.7889760564624
  0
ARC
  5
10BD
  8
0
 10
38.454231735686079
 20
13.59658393432152
 30
0.0
 40
1.575121951121806
 50
274.87581000649448
 51
293.27300815652887
  0
ARC
  5
10BE
  8
0
 10
36.053981201223593
 20
41.733875825556218
 30
0.0
 40
29.814604906741408
 50
273.44035521650869
 51
274.87581000649448
  0
ARC
  5
10BF
  8
0
 10
38.895236443934948
 20
12.536821503180841
 30
0.0
 40
0.4275595071333854
 50
295.09639101172758
 51
305.19359590215549
  0
ARC
  5
10C6
  8
0
 10
38.562893509400823
 20
9.0929010459760207
 30
0.0
 40
2.0811217474494801
 50
91.947865680407403
 51
124.6999866648131
  0
ARC
  5
10C7
  8
0
 10
37.329640263095733
 20
10.85117755592313
 30
0.0
 40
0.0677519995633143
 50
268.90376460506178
 51
315.72910909384899
  0
LINE
  5
10C8
  8
0
 10
37.32834404879749
 20
10.78343795691841
 30
0.0
 11
26.108467628060058
 21
11.116225261533311
 31
0.0
  0
ARC
  5
10C9
  8
0
 10
26.240268393644261
 20
10.99666285003541
 30
0.0
 40
0.1779511507458568
 50
95.286960033062698
 51
163.1870622938178
  0
ARC
  5
10CA
  8
0
 10
25.97833044292631
 20
11.088112805574699
 30
0.0
 40
0.0999379748057294
 50
272.87162031401698
 51
336.420095842249
  0
LINE
  5
10CB
  8
0
 10
25.983337160498301
 20
10.98830032345235
 30
0.0
 11
25.071868717800001
 21
10.9880030529
 31
0.0
  0
ARC
  5
10CC
  8
0
 10
25.07186924488941
 20
11.088002910607431
 30
0.0
 40
0.0999998577088182
 50
200.64300040786
 51
269.99969799958291
  0
ARC
  5
10CD
  8
0
 10
24.800484237259361
 20
10.98564130164702
 30
0.0
 40
0.1900479456502056
 50
20.677469086609811
 51
82.298752095403486
  0
LINE
  5
10CE
  8
0
 10
24.891802595738991
 20
11.152312172078689
 30
0.0
 11
24.159542579271928
 21
11.17403138074188
 31
0.0
  0
LINE
  5
10DC
  8
0
 10
39.313156508500001
 20
11.2842326029535
 30
0.0
 11
39.313156508500001
 21
11.050565562499999
 31
0.0
  0
ARC
  5
10DD
  8
0
 10
39.375745899972671
 20
11.050565562499999
 30
0.0
 40
0.0625893914726703
 50
179.9999999999942
 51
267.67640098874261
  0
LINE
  5
10DE
  8
0
 10
39.373208317134591
 20
10.98802763322297
 30
0.0
 11
41.127523302749253
 21
10.988002571399999
 31
0.0
  0
ARC
  5
10DF
  8
0
 10
41.119552964687557
 20
11.03228226319942
 30
0.0
 40
0.0449913035449002
 50
280.20396562235879
 51
345.74052126222858
  0
LINE
  5
10E0
  8
0
 10
41.163158094000003
 20
11.0212002917
 30
0.0
 11
41.163158094000003
 21
11.088002571400001
 31
0.0
  0
ARC
  5
10E1
  8
0
 10
41.072718694849428
 20
11.082297233862359
 30
0.0
 40
0.0906191800621384
 50
3.609700600088197
 51
51.850863192611698
  0
ARC
  5
10E2
  8
0
 10
40.790569022856168
 20
10.72714298378618
 30
0.0
 40
0.5442070290265301
 50
51.58749099231521
 51
69.899780117923498
  0
ARC
  5
10E3
  8
0
 10
28.34917986801144
 20
-15.68086031321724
 30
0.0
 40
29.734035038344409
 50
64.867539891983355
 51
67.625243899051412
  0
LINE
  5
10E4
  8
0
 10
41.162752302321643
 20
11.092582432969509
 30
0.0
 11
40.883653787466272
 21
11.09540314060909
 31
0.0
  0
ARC
  5
10E5
  8
0
 10
40.833678623901889
 20
11.472769157524651
 30
0.0
 40
0.3733099054782945
 50
237.5495636100064
 51
259.23731330901632
  0
LINE
  5
10E6
  8
0
 10
40.633371790200002
 20
11.157749383700001
 30
0.0
 11
39.675980171044067
 21
11.70245651759816
 31
0.0
  0
ARC
  5
10E7
  8
0
 10
40.927178543690509
 20
12.26535416555474
 30
0.0
 40
1.170760353435212
 50
261.98645631176589
 51
267.86945327805228
  0
LINE
  5
10EC
  8
0
 10
41.163158094000003
 20
11.08757807649153
 30
0.0
 11
40.883603257573682
 21
11.090403395942619
 31
0.0
  0
ARC
  5
10ED
  8
0
 10
40.927099901711941
 20
12.26466848746381
 30
0.0
 40
1.1750704077699139
 50
261.98559256761229
 51
267.87864318936641
  0
ARC
  5
10EE
  8
0
 10
40.83360643376264
 20
11.47262765044618
 30
0.0
 40
0.3781517591393108
 50
237.54728931176351
 51
259.28039077145149
  0
LINE
  5
10EF
  8
0
 10
40.630688941034158
 20
11.15353010409876
 30
0.0
 11
39.676416411799877
 21
11.696455724978209
 31
0.0
  0
LINE
  5
10F0
  8
0
 10
39.229603584301387
 20
12.235362808458341
 30
0.0
 11
39.285626924994183
 21
12.41559126747967
 31
0.0
  0
ARC
  5
10F1
  8
0
 10
40.620385065531188
 20
12.97733366367148
 30
0.0
 40
1.343983331080663
 50
204.4158563418346
 51
213.00285131366169
  0
LINE
  5
10F2
  8
0
 10
38.961303661121143
 20
12.26703231660532
 30
0.0
 11
38.966884331099997
 21
12.1072228373
 31
0.0
  0
LINE
  5
10F3
  8
0
 10
39.381662133586303
 20
12.970859845925769
 30
0.0
 11
39.607186559986111
 21
12.54672402806661
 31
0.0
  0
ARC
  5
10F4
  8
0
 10
39.46954894374695
 20
12.47353840415478
 30
0.0
 40
0.1558853711910196
 50
5.4919767686190291
 51
28.000780556756929
  0
ARC
  5
10F5
  8
0
 10
39.564343128961461
 20
12.48265264893069
 30
0.0
 40
0.0606540370182892
 50
270.65629758257109
 51
5.491976768617465
  0
ARC
  5
10F6
  8
0
 10
39.470360249718702
 20
20.687142440751291
 30
0.0
 40
8.2656821006923646
 50
269.34371426667718
 51
270.6562975825712
  0
ARC
  5
10F7
  8
0
 10
39.36941167124543
 20
11.87440395798377
 30
0.0
 40
0.5476345384138978
 50
89.343714266677296
 51
117.9216038751151
  0
ARC
  5
10F8
  8
0
 10
38.445553573925586
 20
13.29590296707415
 30
0.0
 40
1.1509009374565571
 50
296.62264591918051
 51
305.44434329104212
  0
ARC
  5
10F9
  8
0
 10
38.57131619115421
 20
13.195865917587451
 30
0.0
 40
1.007385060929779
 50
280.71749288023949
 51
292.77489334270251
  0
ARC
  5
10FA
  8
0
 10
37.929482806605471
 20
16.83513747462489
 30
0.0
 40
4.7027593858170578
 50
269.0408288690233
 51
280.15527059596991
  0
ARC
  5
10FB
  8
0
 10
22.187912554960061
 20
12.19302688859257
 30
0.0
 40
0.0600243209157452
 50
180.02321179453699
 51
269.97981957245088
  0
LINE
  5
10FC
  8
0
 10
22.12788823897003
 20
12.1930025714059
 30
0.0
 11
22.12788216177891
 21
12.208003453069001
 31
0.0
  0
LINE
  5
10FD
  8
0
 10
22.12788216177891
 20
12.208003453069001
 30
0.0
 11
22.17884060010336
 21
12.39815296912847
 31
0.0
  0
ARC
  5
10FE
  8
0
 10
22.362364573400001
 20
12.348970119400001
 30
0.0
 40
0.1900000038999976
 50
100.87892117199949
 51
164.99774277516499
  0
LINE
  5
10FF
  8
0
 10
22.32650507987967
 20
12.535555483795131
 30
0.0
 11
23.893641574758139
 21
12.810192785633451
 31
0.0
  0
ARC
  5
1100
  8
0
 10
23.924366742944979
 20
12.655092423904019
 30
0.0
 40
0.1581143831810062
 50
89.147425227113416
 51
101.2051434672087
  0
ARC
  5
1101
  8
0
 10
41.751870825908391
 20
-4298.7110784522984
 30
0.0
 40
4311.5611148933294
 50
90.08453851805352
 51
90.236876812375712
  0
ARC
  5
1107
  8
0
 10
35.752164520073713
 20
40.964319842668097
 30
0.0
 40
28.121305305957719
 50
269.26263815277861
 51
274.11866747827042
  0
ARC
  5
1108
  8
0
 10
36.091796984117032
 20
47.596411284829401
 30
0.0
 40
34.721444162515382
 50
272.77352174560502
 51
275.27996401456022
  0
ARC
  5
1109
  8
0
 10
39.294084253427911
 20
12.922508661139119
 30
0.0
 40
0.1000386033654459
 50
28.902806682360559
 51
94.091234187038395
  0
LINE
  5
110A
  8
0
 10
37.85075902642847
 20
12.133037049567481
 30
0.0
 11
22.187891413500001
 21
12.1330025714
 31
0.0
  0
ARC
  5
110B
  8
0
 10
24.742715565495111
 20
12.073002571391649
 30
0.0
 40
0.0600000000085446
 50
2.4999306691958081
 51
87.566973058572046
  0
LINE
  5
110C
  8
0
 10
24.802658461965422
 20
12.075619662099999
 30
0.0
 11
24.80473974702689
 21
12.02794907331714
 31
0.0
  0
ARC
  5
110D
  8
0
 10
24.874672561275752
 20
12.03100232114393
 30
0.0
 40
0.0699994345052664
 50
182.49993066919609
 51
236.64058392049921
  0
LINE
  5
110E
  8
0
 10
25.95562329751456
 20
12.133010865187201
 30
0.0
 11
25.951036206800001
 21
12.0279492143
 31
0.0
  0
ARC
  5
110F
  8
0
 10
25.88110283127212
 20
12.031002571398551
 30
0.0
 40
0.0700000000163892
 50
303.4175276449746
 51
357.50000001452929
  0
LINE
  5
1110
  8
0
 10
35.247575955402411
 20
12.133031319264189
 30
0.0
 11
35.249128941900011
 21
12.088559606600001
 31
0.0
  0
ARC
  5
1111
  8
0
 10
35.319086312805467
 20
12.09100257193492
 30
0.0
 40
0.0700000130259502
 50
182.0000000910367
 51
270.03422848986332
  0
LINE
  5
1112
  8
0
 10
35.319128130800003
 20
12.0210025714
 30
0.0
 11
36.436689506278647
 21
12.021670202473141
 31
0.0
  0
ARC
  5
1113
  8
0
 10
36.436648329189282
 20
12.090597378710379
 30
0.0
 40
0.0689271885368288
 50
270.03422848986361
 51
353.15080067815069
  0
ARC
  5
1114
  8
0
 10
36.562781256753993
 20
12.075447077283149
 30
0.0
 40
0.0581123606176885
 50
97.709215758662111
 51
173.15080067815231
  0
ATTDEF
  5
1162
  8
DEFPOINTS
 10
41.167520238439032
 20
10.990012203905779
 30
0.0
 40
0.001
  1
K-4650
  3

  2
MODELNUMBER
 70
     0
1001
AcDbAttr
1070
     0
1070
     1
  0
ATTDEF
  5
1163
  8
DEFPOINTS
 10
41.167520238439032
 20
10.988345537239111
 30
0.0
 40
0.001
  1
LUSTRA
  3

  2
TRADENAME
 70
     0
1001
AcDbAttr
1070
     0
1070
     1
  0
ATTDEF
  5
1164
  8
DEFPOINTS
 10
41.167520238439032
 20
10.986678870572449
 30
0.0
 40
0.001
  1
TOILET SEAT
  3

  2
PRODUCT
 70
     0
1001
AcDbAttr
1070
     0
1070
     1
  0
ATTDEF
  5
1165
  8
DEFPOINTS
 10
41.167520238439032
 20
10.98501220390578
 30
0.0
 40
0.001
  1
PLASTIC
  3

  2
MATERIAL
 70
     0
1001
AcDbAttr
1070
     0
1070
     1
  0
ENDSEC
  0
EOF
